  0
SECTION
  2
HEADER
  9
$ACADVER
  1
AC1009
  9
$INSBASE
 10
0
 20
0
 30
0
  9
$EXTMIN
 10
0
 20
0
  9
$EXTMAX
 10
2378
 20
1682
  9
$LIMMIN
 10
0
 20
0
  9
$LIMMAX
 10
2378
 20
1682
  9
$LTSCALE
 40
1
  0
ENDSEC
  0
SECTION
  2
TABLES
  0
TABLE
  2
LTYPE
 70
     9
  0
LTYPE
  2
CONTINUOUS
 70
    64
  3
実線
 72
    65
 73
     0
 40
0.0
  0
LTYPE
  2
DASHED1
 70
    64
  3
--  --  --  --  --  --  --  --  
 72
    65
 73
     2
 40
2.5
 49
1.25
 49
-1.25
  0
LTYPE
  2
DASHED2
 70
    64
  3
----    ----    ----    ----    
 72
    65
 73
     2
 40
5.0
 49
2.5
 49
-2.5
  0
LTYPE
  2
DASHED3
 70
    64
  3
------  ------  ------  ------  
 72
    65
 73
     2
 40
5.0
 49
3.75
 49
-1.25
  0
LTYPE
  2
CENTER1
 70
    64
  3
----- - ----- - ----- - ----- - 
 72
    65
 73
     4
 40
10.0
 49
6.25
 49
-1.25
 49
1.25
 49
-1.25
  0
LTYPE
  2
CENTER2
 70
    64
  3
----------  --  ----------  --  
 72
    65
 73
     4
 40
20.0
 49
12.5
 49
-2.5
 49
2.5
 49
-2.5
  0
LTYPE
  2
PHANTOM1
 70
    64
  3
--- - - --- - - --- - - --- - - 
 72
    65
 73
     6
 40
10.0
 49
3.25
 49
-1.25
 49
1.25
 49
-1.25
 49
1.25
 49
-1.25
  0
LTYPE
  2
PHANTOM2
 70
    64
  3
--------  -  -  --------  -  -  
 72
    65
 73
     6
 40
20.0
 49
10.0
 49
-2.5
 49
1.25
 49
-2.5
 49
1.25
 49
-2.5
  0
LTYPE
  2
DOT
 70
    64
  3
-   -   -   -   -   -   -   -   
 72
    65
 73
     2
 40
2.5
 49
0.625
 49
-1.875
  0
LTYPE
  2
DUMMY
 70
    64
  3
ダミー
 72
    65
 73
     0
 40
0.0
  0
LTYPE
  2
RAND1
 70
    64
  3
ランダム線1
 72
    65
 73
     4
 40
10.0
 49
1.0
 49
-2.0
 49
3.0
 49
-4.0
  0
LTYPE
  2
RAND2
 70
    64
  3
ランダム線2
 72
    65
 73
     4
 40
14.0
 49
2.0
 49
-3.0
 49
4.0
 49
-5.0
  0
LTYPE
  2
RAND3
 70
    64
  3
ランダム線3
 72
    65
 73
     4
 40
18.0
 49
3.0
 49
-4.0
 49
5.0
 49
-6.0
  0
LTYPE
  2
RAND4
 70
    64
  3
ランダム線4
 72
    65
 73
     4
 40
22.0
 49
4.0
 49
-5.0
 49
6.0
 49
-7.0
  0
LTYPE
  2
RAND5
 70
    64
  3
ランダム線5
 72
    65
 73
     4
 40
26.0
 49
5.0
 49
-6.0
 49
7.0
 49
-8.0
  0
LTYPE
  2
LONG1
 70
    64
  3
----------  --  ----------  --  
 72
    65
 73
     4
 40
40.0
 49
32.5
 49
-2.5
 49
2.5
 49
-2.5
  0
LTYPE
  2
LONG2
 70
    64
  3
--------  -  -  --------  -  -  
 72
    65
 73
     6
 40
40.0
 49
30.0
 49
-2.5
 49
1.25
 49
-2.5
 49
1.25
 49
-2.5
  0
LTYPE
  2
LONG3
 70
    64
  3
+++++++++++++++..+++++++++++++++
 72
    65
 73
     2
 40
40.0
 49
37.5
 49
-2.5
  0
LTYPE
  2
LONG4
 70
    64
  3
+++++++++++++++..+++++++++++++++
 72
    65
 73
     2
 40
80.0
 49
75.0
 49
-5.0
  0
LTYPE
  2
LONG5
 70
    64
  3
----------  --  ----------  --  
 72
    65
 73
     4
 40
60.0
 49
37.5
 49
-7.5
 49
7.5
 49
-7.5
  0
LTYPE
  2
dashed
 70
   64
  3
-------   -------------   ------
 72
   65
 73
    2
 40
7.5
 49
6
 49
-1.5
  0
LTYPE
  2
dashed_spaced
 70
   64
  3
----        --------        ----
 72
   65
 73
    2
 40
12
 49
6
 49
-6
  0
LTYPE
  2
long_dashed_dotted
 70
   64
  3
------------- --- --------------
 72
   65
 73
    4
 40
15.25
 49
12
 49
-1.5
 49
0.25
 49
-1.5
  0
LTYPE
  2
long_dashed_double-dotted
 70
   64
  3
----------- --- --- ------------
 72
   65
 73
    6
 40
17
 49
12
 49
-1.5
 49
0.25
 49
-1.5
 49
0.25
 49
-1.5
  0
LTYPE
  2
long_dashed_triplicate-dotted
 70
   64
  3
--------- --- --- --- ----------
 72
   65
 73
    8
 40
18.75
 49
12
 49
-1.5
 49
0.25
 49
-1.5
 49
0.25
 49
-1.5
 49
0.25
 49
-1.5
  0
LTYPE
  2
dotted
 70
   64
  3
   -       -       -       -    
 72
   65
 73
    2
 40
1.75
 49
0.25
 49
-1.5
  0
LTYPE
  2
chain
 70
   64
  3
-------------- -- --------------
 72
   65
 73
    4
 40
18.5
 49
12
 49
-1.5
 49
3.5
 49
-1.5
  0
LTYPE
  2
chain_double_dash
 70
   64
  3
------------ -- -- -------------
 72
   65
 73
    6
 40
23.5
 49
12
 49
-1.5
 49
3.5
 49
-1.5
 49
3.5
 49
-1.5
  0
LTYPE
  2
dashed_dotted
 70
   64
  3
-----------     -     ----------
 72
   65
 73
    4
 40
9.25
 49
6
 49
-1.5
 49
0.25
 49
-1.5
  0
LTYPE
  2
double-dashed_dotted
 70
   64
  3
------   -----------   -   -----
 72
   65
 73
    6
 40
16.75
 49
6
 49
-1.5
 49
6
 49
-1.5
 49
0.25
 49
-1.5
  0
LTYPE
  2
dashed_double-dotted
 70
   64
  3
---------    -    -    ---------
 72
   65
 73
    6
 40
11
 49
6
 49
-1.5
 49
0.25
 49
-1.5
 49
0.25
 49
-1.5
  0
LTYPE
  2
double-dashed_double-dotted
 70
   64
  3
-----   ---------   -   -   ----
 72
   65
 73
    8
 40
18.5
 49
6
 49
-1.5
 49
6
 49
-1.5
 49
0.25
 49
-1.5
 49
0.25
 49
-1.5
  0
LTYPE
  2
dashed_triplicate-dotted
 70
   64
  3
-------    -    -    -    ------
 72
   65
 73
    8
 40
12.75
 49
6
 49
-1.5
 49
0.25
 49
-1.5
 49
0.25
 49
-1.5
 49
0.25
 49
-1.5
  0
LTYPE
  2
double-dashed_triplicate-dotted
 70
   64
  3
-----  ---------  -  -  -  -----
 72
   65
 73
   10
 40
20.25
 49
6
 49
-1.5
 49
6
 49
-1.5
 49
0.25
 49
-1.5
 49
0.25
 49
-1.5
 49
0.25
 49
-1.5
  0
LTYPE
  2
undefined
 70
   64
  3
--------------------------------
 72
   65
 73
    0
 40
0
  0
ENDTAB
  0
TABLE
  2
STYLE
  5
3
100
AcDbSymbolTable
 70
     1
  0
STYLE
  5
10
100
AcDbSymbolTableRecord
100
AcDbTextStyleTableRecord
  2
STANDARD
 70
     0
 40
0.0
 41
1.0
 50
0.0
 71
     0
 42
0.2
  3
txt
  4
bigfont.shx
  0
STYLE
  5
26
100
AcDbSymbolTableRecord
100
AcDbTextStyleTableRecord
  2
TATEGAKI
 70
    68
 40
0.0
 41
1.0
 50
0.0
 71
     0
 42
1.0
  3
txt
  4
bigfont.shx
  0
ENDTAB
  0
TABLE
  2
LAYER
 70
    2
  0
LAYER
  2
_0-0_
 70
   64
 62
    7
  6
CONTINUOUS
  0
LAYER
  2
ADD_LINE
 70
   64
 62
    7
  6
CONTINUOUS
  0
ENDTAB
  0
ENDSEC
  0
SECTION
  2
BLOCKS
  0
ENDSEC
  0
SECTION
  2
ENTITIES
  0
LINE
  8
_0-0_
  6
CONTINUOUS
 62
    7
 10
1364.0145711507266
 20
745.97909039325009
 11
1485.15343887987
 21
745.97909039325009
  0
LINE
  8
_0-0_
  6
CONTINUOUS
 62
    7
 10
672.13606690525205
 20
167.53106997205509
 11
1706.8525777203686
 21
167.53106997205509
  0
LINE
  8
_0-0_
  6
CONTINUOUS
 62
    7
 10
672.13606690525205
 20
1633.356554367115
 11
672.13606690525205
 21
167.53106997205509
  0
LINE
  8
_0-0_
  6
CONTINUOUS
 62
    7
 10
1706.8525777203686
 20
1633.356554367115
 11
1706.8525777203686
 21
167.53106997205509
  0
LINE
  8
_0-0_
  6
CONTINUOUS
 62
    7
 10
672.13606690525205
 20
567.531069972056
 11
1706.8525777203686
 21
567.531069972056
  0
LINE
  8
_0-0_
  6
CONTINUOUS
 62
    4
 10
1022.1358914942849
 20
1228.4634664655907
 11
1014.0145711507267
 21
1220.3421461220307
  0
LINE
  8
_0-0_
  6
CONTINUOUS
 62
    7
 10
1009.0145711507267
 20
1275.9973581089773
 11
1009.0145711507267
 21
1230.4634664655907
  0
LINE
  8
_0-0_
  6
CONTINUOUS
 62
    7
 10
1024.6211728685248
 20
1222.4634664655907
 11
1153.4079694329284
 21
1222.4634664655907
  0
LINE
  8
_0-0_
  6
CONTINUOUS
 62
    4
 10
1155.8932508071684
 20
1228.4634664655907
 11
1170.0145711507266
 21
1214.3421461220325
  0
LINE
  8
_0-0_
  6
CONTINUOUS
 62
    7
 10
1153.4079694329284
 20
1222.4634664655907
 11
1164.0145711507266
 21
1211.8568647477925
  0
LINE
  8
_0-0_
  6
CONTINUOUS
 62
    7
 10
1024.6211728685248
 20
1222.4634664655907
 11
1014.0145711507267
 21
1211.8568647477925
  0
LINE
  8
_0-0_
  6
CONTINUOUS
 62
    4
 10
1014.0145711507267
 20
1211.8568647477925
 11
1014.0145711507267
 21
1220.3421461220307
  0
LINE
  8
_0-0_
  6
CONTINUOUS
 62
    7
 10
1016.0145711507267
 20
1308.873105892487
 11
1018.0145711507267
 21
1309.873105892487
  0
LINE
  8
_0-0_
  6
CONTINUOUS
 62
    7
 10
1016.0145711507267
 20
1308.873105892487
 11
1016.0145711507267
 21
1275.9973581089773
  0
LINE
  8
_0-0_
  6
CONTINUOUS
 62
    7
 10
1016.0145711507267
 20
1315.873105892487
 11
1016.0145711507267
 21
1309.873105892487
  0
LINE
  8
_0-0_
  6
CONTINUOUS
 62
    7
 10
1018.0145711507267
 20
1309.873105892487
 11
1016.0145711507267
 21
1309.873105892487
  0
LINE
  8
_0-0_
  6
CONTINUOUS
 62
    7
 10
1002.0145711507267
 20
1300.9159380067115
 11
1002.0145711507267
 21
1277.9973581089773
  0
LINE
  8
_0-0_
  6
CONTINUOUS
 62
    7
 10
1002.0145711507267
 20
1300.9159380067115
 11
988.78006883014871
 21
1300.9159380067115
  0
LINE
  8
_0-0_
  6
CONTINUOUS
 62
    7
 10
991.78006883014871
 20
1287.9973581089773
 11
991.78006883014871
 21
1295.9973581089773
  0
LINE
  8
_0-0_
  6
CONTINUOUS
 62
    7
 10
965.54556650957431
 20
1286.9973581089773
 11
963.54556650957431
 21
1286.9973581089773
  0
LINE
  8
_0-0_
  6
CONTINUOUS
 62
    7
 10
965.54556650957431
 20
1277.9973581089773
 11
965.54556650957431
 21
1286.9973581089773
  0
LINE
  8
_0-0_
  6
CONTINUOUS
 62
    7
 10
963.54556650957431
 20
1275.9973581089773
 11
963.54556650957431
 21
1286.9973581089773
  0
LINE
  8
_0-0_
  6
CONTINUOUS
 62
    7
 10
963.54556650957431
 20
1275.9973581089773
 11
1014.0145711507267
 21
1275.9973581089773
  0
LINE
  8
_0-0_
  6
CONTINUOUS
 62
    7
 10
1014.0145711507267
 20
1277.9973581089773
 11
965.54556650957431
 21
1277.9973581089773
  0
LINE
  8
_0-0_
  6
CONTINUOUS
 62
    7
 10
958.01969634232057
 20
1275.9973581089773
 11
958.01969634232057
 21
1285.9973581089773
  0
LINE
  8
_0-0_
  6
CONTINUOUS
 62
    7
 10
956.01969634232057
 20
1273.9973581089773
 11
956.01969634232057
 21
1285.9973581089773
  0
LINE
  8
_0-0_
  6
CONTINUOUS
 62
    7
 10
958.01969634232057
 20
1285.9973581089773
 11
956.01969634232057
 21
1285.9973581089773
  0
LINE
  8
_0-0_
  6
CONTINUOUS
 62
    7
 10
994.84812740824975
 20
1332.873105892487
 11
1137.1003627517512
 21
1332.873105892487
  0
LINE
  8
_0-0_
  6
CONTINUOUS
 62
    7
 10
991.98226884243024
 20
1327.873105892487
 11
1134.213611405803
 21
1327.873105892487
  0
LINE
  8
_0-0_
  6
CONTINUOUS
 62
    7
 10
1007.0145711507267
 20
1273.9973581089773
 11
956.01969634232057
 21
1273.9973581089773
  0
LINE
  8
_0-0_
  6
CONTINUOUS
 62
    7
 10
1009.0145711507267
 20
1275.9973581089773
 11
958.01969634232057
 21
1275.9973581089773
  0
LINE
  8
_0-0_
  6
CONTINUOUS
 62
    7
 10
999.01457115072674
 20
1277.9973581089773
 11
999.01457115072674
 21
1275.9973581089773
  0
LINE
  8
_0-0_
  6
CONTINUOUS
 62
    7
 10
1007.0145711507267
 20
1273.9973581089773
 11
1007.0145711507267
 21
1228.4634664655907
  0
LINE
  8
_0-0_
  6
CONTINUOUS
 62
    7
 10
1121.4857808382167
 20
1228.4634664655907
 11
1007.0145711507267
 21
1228.4634664655907
  0
LINE
  8
_0-0_
  6
CONTINUOUS
 62
    7
 10
1121.4857808382167
 20
1230.4634664655907
 11
1121.4857808382167
 21
1228.4634664655907
  0
LINE
  8
_0-0_
  6
CONTINUOUS
 62
    7
 10
1100.5982689906614
 20
1230.4634664655907
 11
1112.5982689906614
 21
1230.4634664655907
  0
LINE
  8
_0-0_
  6
CONTINUOUS
 62
    7
 10
1112.5982689906614
 20
1248.0472819099352
 11
1112.5982689906614
 21
1230.4634664655907
  0
LINE
  8
_0-0_
  6
CONTINUOUS
 62
    7
 10
1016.0145711507267
 20
1273.9268057481579
 11
1110.5982689906614
 21
1248.5831802947971
  0
LINE
  8
_0-0_
  6
CONTINUOUS
 62
    7
 10
1110.5982689906614
 20
1248.5831802947971
 11
1110.5982689906614
 21
1232.4634664655907
  0
LINE
  8
_0-0_
  6
CONTINUOUS
 62
    7
 10
1100.5982689906614
 20
1232.4634664655907
 11
1100.5982689906614
 21
1230.4634664655907
  0
LINE
  8
_0-0_
  6
CONTINUOUS
 62
    7
 10
1110.5982689906614
 20
1232.4634664655907
 11
1100.5982689906614
 21
1232.4634664655907
  0
LINE
  8
_0-0_
  6
CONTINUOUS
 62
    7
 10
1026.0145711507266
 20
1232.4634664655907
 11
1026.0145711507266
 21
1230.4634664655907
  0
LINE
  8
_0-0_
  6
CONTINUOUS
 62
    7
 10
1026.0145711507266
 20
1230.4634664655907
 11
1014.0145711507267
 21
1230.4634664655907
  0
LINE
  8
_0-0_
  6
CONTINUOUS
 62
    7
 10
1026.0145711507266
 20
1232.4634664655907
 11
1016.0145711507267
 21
1232.4634664655907
  0
LINE
  8
_0-0_
  6
CONTINUOUS
 62
    7
 10
1014.0145711507267
 20
1275.9973581089773
 11
1014.0145711507267
 21
1230.4634664655907
  0
LINE
  8
_0-0_
  6
CONTINUOUS
 62
    7
 10
1016.0145711507267
 20
1273.9268057481579
 11
1016.0145711507267
 21
1232.4634664655907
  0
LINE
  8
_0-0_
  6
CONTINUOUS
 62
    1
 10
1037.6642130326709
 20
1293.2320897411093
 11
1044.3604127113122
 21
1293.8179313016965
  0
LINE
  8
_0-0_
  6
CONTINUOUS
 62
    1
 10
1031.8145711507259
 20
1306.7737901163612
 11
1038.0644886794853
 21
1307.320587048099
  0
LINE
  8
_0-0_
  6
CONTINUOUS
 62
    1
 10
1044.030520425842
 20
1315.873105892487
 11
1044.8145711507259
 21
1315.9417014425428
  0
LINE
  8
_0-0_
  6
CONTINUOUS
 62
    1
 10
1044.8145711507259
 20
1298.3865498497919
 11
1044.8145711507259
 21
1298.4052367617871
  0
LINE
  8
_0-0_
  6
CONTINUOUS
 62
    1
 10
1031.8145711507259
 20
1294.7279520658387
 11
1044.8145711507259
 21
1295.8653046916763
  0
LINE
  8
_0-0_
  6
CONTINUOUS
 62
    1
 10
1031.8145711507259
 20
1328.8578265423141
 11
1044.8145711507259
 21
1329.9951791681499
  0
LINE
  8
_0-0_
  6
CONTINUOUS
 62
    1
 10
1031.8145711507259
 20
1326.8501868672258
 11
1044.8145711507259
 21
1327.9875394930634
  0
LINE
  8
_0-0_
  6
CONTINUOUS
 62
    1
 10
1031.8145711507259
 20
1304.7661504412729
 11
1044.8145711507259
 21
1305.9035030671087
  0
LINE
  8
_0-0_
  6
CONTINUOUS
 62
    1
 10
1031.8145711507259
 20
1316.8119884917917
 11
1044.8145711507259
 21
1317.9493411176311
  0
LINE
  8
_0-0_
  6
CONTINUOUS
 62
    1
 10
1031.8145711507259
 20
1318.81962816688
 11
1044.8145711507259
 21
1319.9569807927176
  0
LINE
  8
_0-0_
  6
CONTINUOUS
 62
    1
 10
1031.8145711507259
 20
1320.8272678419664
 11
1044.8145711507259
 21
1321.964620467804
  0
LINE
  8
_0-0_
  6
CONTINUOUS
 62
    1
 10
1031.8145711507259
 20
1322.8349075170529
 11
1044.8145711507259
 21
1323.9722601428887
  0
LINE
  8
_0-0_
  6
CONTINUOUS
 62
    1
 10
1031.8145711507259
 20
1324.8425471921412
 11
1044.8145711507259
 21
1325.979899817977
  0
LINE
  8
_0-0_
  6
CONTINUOUS
 62
    1
 10
1031.8145711507259
 20
1330.8654662174006
 11
1044.8145711507259
 21
1332.0028188432382
  0
LINE
  8
_0-0_
  6
CONTINUOUS
 62
    1
 10
1031.8145711507259
 20
1302.7585107661864
 11
1044.8145711507259
 21
1303.895863392024
  0
LINE
  8
_0-0_
  6
CONTINUOUS
 62
    1
 10
1031.8145711507259
 20
1300.7508710911
 11
1044.8145711507259
 21
1301.8882237169357
  0
LINE
  8
_0-0_
  6
CONTINUOUS
 62
    1
 10
1031.8145711507259
 20
1298.7432314160117
 11
1044.8145711507259
 21
1299.8805840418511
  0
LINE
  8
_0-0_
  6
CONTINUOUS
 62
    1
 10
1031.8145711507259
 20
1296.7355917409252
 11
1044.8145711507259
 21
1297.8729443667628
  0
LINE
  8
_0-0_
  6
CONTINUOUS
 62
    7
 10
1016.0145711507267
 20
1315.873105892487
 11
1060.6145711507252
 21
1315.873105892487
  0
LINE
  8
_0-0_
  6
CONTINUOUS
 62
    7
 10
1014.0145711507267
 20
1317.873105892487
 11
1062.6145711507252
 21
1317.873105892487
  0
LINE
  8
_0-0_
  6
CONTINUOUS
 62
    1
 10
1032.8545711507231
 20
1293.2320897411093
 11
1031.8145711507259
 21
1294.2720897411084
  0
LINE
  8
_0-0_
  6
CONTINUOUS
 62
    1
 10
1043.774571150725
 20
1293.2320897411093
 11
1044.8145711507259
 21
1294.2720897411102
  0
LINE
  8
_0-0_
  6
CONTINUOUS
 62
    1
 10
1044.8145711507259
 20
1294.2720897411102
 11
1044.8145711507259
 21
1307.319105892487
  0
LINE
  8
_0-0_
  6
CONTINUOUS
 62
    1
 10
1031.8145711507259
 20
1307.319105892487
 11
1031.8145711507259
 21
1294.2720897411084
  0
LINE
  8
_0-0_
  6
CONTINUOUS
 62
    1
 10
1032.8545711507231
 20
1293.2320897411093
 11
1043.774571150725
 21
1293.2320897411093
  0
LINE
  8
_0-0_
  6
CONTINUOUS
 62
    1
 10
1043.774571150725
 20
1307.319105892487
 11
1043.774571150725
 21
1293.2320897411093
  0
LINE
  8
_0-0_
  6
CONTINUOUS
 62
    1
 10
1032.8545711507231
 20
1307.319105892487
 11
1032.8545711507231
 21
1293.2320897411093
  0
LINE
  8
_0-0_
  6
CONTINUOUS
 62
    1
 10
1044.8145711507259
 20
1315.873105892487
 11
1044.8145711507259
 21
1332.873105892487
  0
LINE
  8
_0-0_
  6
CONTINUOUS
 62
    1
 10
1043.774571150725
 20
1332.873105892487
 11
1043.774571150725
 21
1315.873105892487
  0
LINE
  8
_0-0_
  6
CONTINUOUS
 62
    1
 10
1032.8545711507231
 20
1332.873105892487
 11
1032.8545711507231
 21
1315.873105892487
  0
LINE
  8
_0-0_
  6
CONTINUOUS
 62
    1
 10
1031.8145711507259
 20
1332.873105892487
 11
1031.8145711507259
 21
1315.873105892487
  0
LINE
  8
_0-0_
  6
CONTINUOUS
 62
    1
 10
1051.0740120998144
 20
1315.873105892487
 11
1025.5551302016338
 21
1315.873105892487
  0
LINE
  8
_0-0_
  6
CONTINUOUS
 62
    1
 10
1051.0740120998144
 20
1308.3060520846095
 11
1051.0740120998144
 21
1315.873105892487
  0
LINE
  8
_0-0_
  6
CONTINUOUS
 62
    1
 10
1049.3645711507252
 20
1307.319105892487
 11
1051.0740120998144
 21
1308.3060520846095
  0
LINE
  8
_0-0_
  6
CONTINUOUS
 62
    1
 10
1027.2645711507266
 20
1307.319105892487
 11
1049.3645711507252
 21
1307.319105892487
  0
LINE
  8
_0-0_
  6
CONTINUOUS
 62
    1
 10
1025.5551302016338
 20
1308.3060520846095
 11
1027.2645711507266
 21
1307.319105892487
  0
LINE
  8
_0-0_
  6
CONTINUOUS
 62
    1
 10
1025.5551302016338
 20
1315.873105892487
 11
1025.5551302016338
 21
1308.3060520846095
  0
LINE
  8
_0-0_
  6
CONTINUOUS
 62
    1
 10
1044.6942916252719
 20
1308.3060520846095
 11
1049.3645711507252
 21
1307.319105892487
  0
ARC
  8
_0-0_
  6
CONTINUOUS
 62
    1
 10
1038.3145711507259
 20
1328.4321597003666
 40
21.113053807878593
 50
252.41204622600637
 51
287.5879537739936
  0
LINE
  8
_0-0_
  6
CONTINUOUS
 62
    1
 10
1027.2645711507266
 20
1307.319105892487
 11
1031.9348506761798
 21
1308.3060520846095
  0
LINE
  8
_0-0_
  6
CONTINUOUS
 62
    1
 10
1044.6942916252719
 20
1308.3060520846095
 11
1044.6942916252719
 21
1315.873105892487
  0
LINE
  8
_0-0_
  6
CONTINUOUS
 62
    1
 10
1031.9348506761798
 20
1315.873105892487
 11
1031.9348506761798
 21
1308.3060520846095
  0
LINE
  8
_0-0_
  6
CONTINUOUS
 62
    7
 10
1062.6145711507252
 20
1317.873105892487
 11
1062.6145711507252
 21
1307.873105892487
  0
LINE
  8
_0-0_
  6
CONTINUOUS
 62
    7
 10
1060.6145711507252
 20
1315.873105892487
 11
1060.6145711507252
 21
1309.873105892487
  0
LINE
  8
_0-0_
  6
CONTINUOUS
 62
    7
 10
1058.6145711507252
 20
1309.873105892487
 11
1060.6145711507252
 21
1309.873105892487
  0
LINE
  8
_0-0_
  6
CONTINUOUS
 62
    7
 10
1062.6145711507252
 20
1307.873105892487
 11
1058.6145711507252
 21
1309.873105892487
  0
LINE
  8
_0-0_
  6
CONTINUOUS
 62
    7
 10
1052.6145711507252
 20
1327.873105892487
 11
1052.6145711507252
 21
1317.873105892487
  0
LINE
  8
_0-0_
  6
CONTINUOUS
 62
    7
 10
1024.0145711507266
 20
1327.873105892487
 11
1024.0145711507266
 21
1317.873105892487
  0
LINE
  8
_0-0_
  6
CONTINUOUS
 62
    1
 10
1031.9348506761798
 20
1344.3661597003641
 11
1027.2645711507266
 21
1345.3531058924866
  0
LINE
  8
_0-0_
  6
CONTINUOUS
 62
    1
 10
1051.0740120998144
 20
1344.3661597003641
 11
1025.5551302016338
 21
1344.3661597003641
  0
LINE
  8
_0-0_
  6
CONTINUOUS
 62
    1
 10
1027.2645711507266
 20
1345.3531058924866
 11
1025.5551302016338
 21
1344.3661597003641
  0
LINE
  8
_0-0_
  6
CONTINUOUS
 62
    1
 10
1031.9348506761798
 20
1344.3661597003641
 11
1031.9348506761798
 21
1334.9531058924888
  0
LINE
  8
_0-0_
  6
CONTINUOUS
 62
    1
 10
1025.5551302016338
 20
1344.3661597003641
 11
1025.5551302016338
 21
1334.9531058924888
  0
LINE
  8
_0-0_
  6
CONTINUOUS
 62
    1
 10
1024.0145711507266
 20
1334.9531058924888
 11
1024.0145711507266
 21
1332.873105892487
  0
LINE
  8
_0-0_
  6
CONTINUOUS
 62
    1
 10
1031.4895711507252
 20
1332.873105892487
 11
1031.4895711507252
 21
1334.9531058924888
  0
LINE
  8
_0-0_
  6
CONTINUOUS
 62
    1
 10
1024.0145711507266
 20
1334.9531058924888
 11
1052.6145711507252
 21
1334.9531058924888
  0
LINE
  8
_0-0_
  6
CONTINUOUS
 62
    1
 10
1052.6145711507252
 20
1332.873105892487
 11
1024.0145711507266
 21
1332.873105892487
  0
LINE
  8
_0-0_
  6
CONTINUOUS
 62
    1
 10
1052.6145711507252
 20
1334.9531058924888
 11
1052.6145711507252
 21
1332.873105892487
  0
LINE
  8
_0-0_
  6
CONTINUOUS
 62
    1
 10
1051.0740120998144
 20
1344.3661597003641
 11
1049.3645711507252
 21
1345.3531058924866
  0
LINE
  8
_0-0_
  6
CONTINUOUS
 62
    1
 10
1051.0740120998144
 20
1334.9531058924888
 11
1051.0740120998144
 21
1344.3661597003641
  0
LINE
  8
_0-0_
  6
CONTINUOUS
 62
    1
 10
1025.5551302016338
 20
1334.9531058924888
 11
1051.0740120998144
 21
1334.9531058924888
  0
LINE
  8
_0-0_
  6
CONTINUOUS
 62
    1
 10
1049.3645711507252
 20
1345.3531058924866
 11
1027.2645711507266
 21
1345.3531058924866
  0
LINE
  8
_0-0_
  6
CONTINUOUS
 62
    1
 10
1049.3645711507252
 20
1345.3531058924866
 11
1044.6942916252719
 21
1344.3661597003641
  0
LINE
  8
_0-0_
  6
CONTINUOUS
 62
    1
 10
1044.6942916252719
 20
1334.9531058924888
 11
1044.6942916252719
 21
1344.3661597003641
  0
LINE
  8
_0-0_
  6
CONTINUOUS
 62
    1
 10
1045.1395711507266
 20
1332.873105892487
 11
1045.1395711507266
 21
1334.9531058924888
  0
ARC
  8
_0-0_
  6
CONTINUOUS
 62
    1
 10
1038.3145711507259
 20
1324.240052084607
 40
21.113053807878593
 50
72.412046226006396
 51
107.5879537739936
  0
LINE
  8
_0-0_
  6
CONTINUOUS
 62
    7
 10
1137.1003627517512
 20
1332.873105892487
 11
1158.5437384247252
 21
1295.7320897411093
  0
LINE
  8
_0-0_
  6
CONTINUOUS
 62
    7
 10
1134.213611405803
 20
1327.873105892487
 11
1154.213611405803
 21
1293.2320897411093
  0
LINE
  8
_0-0_
  6
CONTINUOUS
 62
    7
 10
1014.0145711507267
 20
1317.873105892487
 11
1014.0145711507267
 21
1277.9973581089773
  0
LINE
  8
_0-0_
  6
CONTINUOUS
 62
    2
 10
980.95460363106224
 20
1273.5036888814441
 11
974.70460363106224
 21
1273.5036888814441
  0
LINE
  8
_0-0_
  6
CONTINUOUS
 62
    7
 10
1112.5982689906614
 20
1248.0472819099352
 11
1192.8286722907123
 21
1226.5496101372639
  0
LINE
  8
_0-0_
  6
CONTINUOUS
 62
    7
 10
1192.8286722907123
 20
1226.5496101372639
 11
1192.8286722907123
 21
1196.5496101372639
  0
LINE
  8
_0-0_
  6
CONTINUOUS
 62
    7
 10
1016.0145711507267
 20
1275.9973581089773
 11
1194.8286722907123
 21
1228.0842641132197
  0
LINE
  8
_0-0_
  6
CONTINUOUS
 62
    7
 10
1194.8286722907123
 20
1228.0842641132197
 11
1194.8286722907123
 21
1196.5496101372639
  0
LINE
  8
_0-0_
  6
CONTINUOUS
 62
    7
 10
1192.8286722907123
 20
1196.5496101372639
 11
1194.8286722907123
 21
1196.5496101372639
  0
LINE
  8
_0-0_
  6
CONTINUOUS
 62
    1
 10
1045.6939773018548
 20
1243.3346081888915
 11
1045.6939773018548
 21
1165.7605554304075
  0
LINE
  8
_0-0_
  6
CONTINUOUS
 62
    1
 10
1058.6939773018548
 20
1165.7605554304075
 11
1058.6939773018548
 21
1243.3346081888915
  0
ARC
  8
_0-0_
  6
CONTINUOUS
 62
    1
 10
1048.9439773018548
 20
1241.3346081888915
 40
3.8160843806184368
 50
31.607502246248899
 51
148.39249775375112
  0
ARC
  8
_0-0_
  6
CONTINUOUS
 62
    1
 10
1055.4439773018548
 20
1245.3346081888915
 40
3.8160843806184368
 50
211.60750224624888
 51
328.39249775375112
  0
ARC
  8
_0-0_
  6
CONTINUOUS
 62
    1
 10
1055.4439773018548
 20
1241.3346081888915
 40
3.8160843806184368
 50
31.607502246248899
 51
148.39249775375112
  0
LINE
  8
_0-0_
  6
CONTINUOUS
 62
    1
 10
1057.6539773018576
 20
1242.2235954920372
 11
1057.6539773018576
 21
1164.7205554304066
  0
ARC
  8
_0-0_
  6
CONTINUOUS
 62
    1
 10
1048.9439773018548
 20
1163.7605554304075
 40
3.8160843806184368
 50
31.607502246248899
 51
148.39249775375112
  0
ARC
  8
_0-0_
  6
CONTINUOUS
 62
    1
 10
1055.4439773018548
 20
1167.7605554304075
 40
3.8160843806184368
 50
211.60750224624888
 51
328.39249775376271
  0
ARC
  8
_0-0_
  6
CONTINUOUS
 62
    1
 10
1048.9439773018548
 20
1167.7605554304075
 40
3.8160843806184368
 50
211.60750224624888
 51
328.39249775375112
  0
LINE
  8
_0-0_
  6
CONTINUOUS
 62
    1
 10
1046.7339773018557
 20
1244.3746081888905
 11
1046.7339773018557
 21
1166.8715681272618
  0
LINE
  8
_0-0_
  6
CONTINUOUS
 62
    7
 10
1009.0145711507267
 20
1230.4634664655907
 11
1121.4857808382167
 21
1230.4634664655907
  0
LINE
  8
_0-0_
  6
CONTINUOUS
 62
    7
 10
1164.0145711507266
 20
1211.8568647477925
 11
1164.0145711507266
 21
925.97909039325009
  0
LINE
  8
_0-0_
  6
CONTINUOUS
 62
    7
 10
1356.2623985040718
 20
933.47909039325009
 11
1416.0203434946507
 21
1036.9828872728369
  0
POINT
  8
_0-0_
 62
    7
 10
1356.2623985040718
 20
933.47909039325009
  0
CIRCLE
  8
_0-0_
  6
CONTINUOUS
 62
    7
 10
1181.1866654095138
 20
1217.6163840630827
 40
11.642006881197926
  0
LINE
  8
_0-0_
  6
CONTINUOUS
 62
    2
 10
1192.8286722907123
 20
1196.5496101372623
 11
1192.8286722907123
 21
1196.5496101372623
  0
LINE
  8
_0-0_
  6
CONTINUOUS
 62
    2
 10
1192.8286722907123
 20
1196.5496101372623
 11
1187.6903464253105
 21
1197.4774681105971
  0
LINE
  8
_0-0_
  6
CONTINUOUS
 62
    2
 10
1187.6903464253105
 20
1197.4774681105971
 11
1182.3615485318876
 21
1197.8558732827598
  0
LINE
  8
_0-0_
  6
CONTINUOUS
 62
    2
 10
1182.3615485318876
 20
1197.8558732827598
 11
1177.0041914379331
 21
1197.6733280040767
  0
LINE
  8
_0-0_
  6
CONTINUOUS
 62
    2
 10
1177.0041914379331
 20
1197.6733280040767
 11
1171.7810557277935
 21
1196.935378820468
  0
LINE
  8
_0-0_
  6
CONTINUOUS
 62
    2
 10
1171.7810557277935
 20
1196.935378820468
 11
1170.0145711507266
 21
1196.5496101372623
  0
LINE
  8
_0-0_
  6
CONTINUOUS
 62
    2
 10
1191.5184206724643
 20
1196.8427307286377
 11
1192.8286722907123
 21
1198.152982346882
  0
LINE
  8
_0-0_
  6
CONTINUOUS
 62
    2
 10
1189.12421239168
 20
1197.2769495725963
 11
1192.8286722907123
 21
1200.9814094716287
  0
LINE
  8
_0-0_
  6
CONTINUOUS
 62
    2
 10
1186.6182462595989
 20
1197.5994105652619
 11
1192.8286722907123
 21
1203.8098365963754
  0
LINE
  8
_0-0_
  6
CONTINUOUS
 62
    2
 10
1183.9904716899346
 20
1197.8000631203442
 11
1192.8286722907123
 21
1206.638263721122
  0
LINE
  8
_0-0_
  6
CONTINUOUS
 62
    2
 10
1181.2260938064192
 20
1197.8641123615755
 11
1192.8286722907123
 21
1209.4666908458687
  0
LINE
  8
_0-0_
  6
CONTINUOUS
 62
    2
 10
1178.3030143479355
 20
1197.7694600278385
 11
1192.8286722907123
 21
1212.2951179706154
  0
LINE
  8
_0-0_
  6
CONTINUOUS
 62
    2
 10
1175.1868163889503
 20
1197.4816891936
 11
1184.0327502383316
 21
1206.3276230429794
  0
LINE
  8
_0-0_
  6
CONTINUOUS
 62
    2
 10
1192.4754264296189
 20
1214.7702992342668
 11
1192.8286722907123
 21
1215.1235450953584
  0
LINE
  8
_0-0_
  6
CONTINUOUS
 62
    2
 10
1171.8197097507127
 20
1196.9430096801073
 11
1180.8557803522799
 21
1205.9790802816763
  0
LINE
  8
_0-0_
  6
CONTINUOUS
 62
    2
 10
1170.0145711507266
 20
1197.966298204866
 11
1178.3688151204369
 21
1206.3205421745781
  0
LINE
  8
_0-0_
  6
CONTINUOUS
 62
    2
 10
1170.0145711507266
 20
1200.7947253296127
 11
1176.2791279805151
 21
1207.0592821594012
  0
LINE
  8
_0-0_
  6
CONTINUOUS
 62
    2
 10
1170.0145711507266
 20
1203.6231524543575
 11
1174.4868421010997
 21
1208.0954234047324
  0
LINE
  8
_0-0_
  6
CONTINUOUS
 62
    2
 10
1170.0145711507266
 20
1206.451579579106
 11
1172.9508793167024
 21
1209.3878877450818
  0
LINE
  8
_0-0_
  6
CONTINUOUS
 62
    2
 10
1170.014571150723
 20
1209.280006703849
 11
1171.6596861980652
 21
1210.9251217511912
  0
LINE
  8
_0-0_
  6
CONTINUOUS
 62
    2
 10
1170.014571150723
 20
1212.1084338285957
 11
1170.624940738353
 21
1212.7188034162257
  0
LINE
  8
_0-0_
  6
CONTINUOUS
 62
    7
 10
1002.0145711507267
 20
1302.9159380067115
 11
975.78006883014871
 21
1302.9159380067115
  0
LINE
  8
_0-0_
  6
CONTINUOUS
 62
    7
 10
988.78006883014871
 20
1300.9159380067115
 11
975.78006883014871
 21
1300.9159380067115
  0
LINE
  8
_0-0_
  6
CONTINUOUS
 62
    7
 10
975.78006883014871
 20
1302.9159380067115
 11
975.78006883014871
 21
1300.9159380067115
  0
LINE
  8
_0-0_
  6
CONTINUOUS
 62
    7
 10
1002.0145711507267
 20
1302.9159380067115
 11
1002.0145711507267
 21
1300.9159380067115
  0
LINE
  8
_0-0_
  6
CONTINUOUS
 62
    7
 10
1002.0145711507267
 20
1317.873105892487
 11
1014.0145711507267
 21
1317.873105892487
  0
LINE
  8
_0-0_
  6
CONTINUOUS
 62
    7
 10
1002.0145711507267
 20
1277.9973581089773
 11
1002.0145711507267
 21
1317.873105892487
  0
LINE
  8
_0-0_
  6
CONTINUOUS
 62
    7
 10
1002.0145711507267
 20
1317.873105892487
 11
1014.0145711507267
 21
1277.9973581089773
  0
LINE
  8
_0-0_
  6
CONTINUOUS
 62
    7
 10
1014.0145711507267
 20
1317.873105892487
 11
1002.0145711507267
 21
1277.9973581089773
  0
LINE
  8
_0-0_
  6
CONTINUOUS
 62
    7
 10
991.78006883014871
 20
1282.9973581089773
 11
975.78006883014871
 21
1282.9973581089773
  0
LINE
  8
_0-0_
  6
CONTINUOUS
 62
    7
 10
975.78006883014871
 20
1282.9973581089773
 11
975.78006883014871
 21
1277.9973581089773
  0
LINE
  8
_0-0_
  6
CONTINUOUS
 62
    7
 10
991.78006883014871
 20
1287.9973581089773
 11
991.78006883014871
 21
1277.9973581089773
  0
LINE
  8
_0-0_
  6
CONTINUOUS
 62
    7
 10
986.78006883014871
 20
1287.9973581089773
 11
991.78006883014871
 21
1282.9973581089773
  0
LINE
  8
_0-0_
  6
CONTINUOUS
 62
    7
 10
991.78006883014871
 20
1287.9973581089773
 11
986.78006883014871
 21
1282.9973581089773
  0
LINE
  8
_0-0_
  6
CONTINUOUS
 62
    7
 10
991.78006883014871
 20
1295.9973581089773
 11
991.78006883014871
 21
1300.9159380067115
  0
LINE
  8
_0-0_
  6
CONTINUOUS
 62
    7
 10
986.78006883014871
 20
1300.9159380067115
 11
986.78006883014871
 21
1295.9973581089773
  0
LINE
  8
_0-0_
  6
CONTINUOUS
 62
    7
 10
986.78006883014871
 20
1287.9973581089773
 11
986.78006883014871
 21
1282.9973581089773
  0
LINE
  8
_0-0_
  6
CONTINUOUS
 62
    7
 10
986.78006883014871
 20
1300.9159380067115
 11
991.78006883014871
 21
1295.9973581089773
  0
LINE
  8
_0-0_
  6
CONTINUOUS
 62
    7
 10
986.78006883014871
 20
1295.9973581089773
 11
991.78006883014871
 21
1300.9159380067115
  0
LINE
  8
_0-0_
  6
CONTINUOUS
 62
    7
 10
1014.0145711507267
 20
891.44187687453291
 11
1164.0145711507266
 21
1041.441876874532
  0
LINE
  8
_0-0_
  6
CONTINUOUS
 62
    7
 10
1014.0145711507267
 20
898.51294468639594
 11
1164.0145711507266
 21
1048.5129446863968
  0
LINE
  8
_0-0_
  6
CONTINUOUS
 62
    7
 10
1014.0145711507267
 20
905.58401249826261
 11
1164.0145711507266
 21
1055.5840124982617
  0
LINE
  8
_0-0_
  6
CONTINUOUS
 62
    7
 10
1014.0145711507267
 20
1117.7160468542272
 11
1118.7619907620883
 21
1222.4634664655907
  0
LINE
  8
_0-0_
  6
CONTINUOUS
 62
    7
 10
1014.0145711507267
 20
1124.7871146660939
 11
1111.6909229502216
 21
1222.4634664655907
  0
LINE
  8
_0-0_
  6
CONTINUOUS
 62
    7
 10
1014.0145711507267
 20
1131.8581824779587
 11
1104.6198551383586
 21
1222.4634664655907
  0
LINE
  8
_0-0_
  6
CONTINUOUS
 62
    4
 10
1022.1358914942849
 20
1228.4634664655907
 11
1155.8932508071684
 21
1228.4634664655907
  0
TEXT
  8
_0-0_
 62
    7
 10
1420.2100660936958
 20
1024.6957628023567
 40
30
 41
1
 50
0
  1
防水層
  0
LINE
  8
_0-0_
  6
CONTINUOUS
 62
    7
 10
1185.0223697575511
 20
1200.4478690985973
 11
1258.1979702150402
 21
1327.191726965327
  0
POINT
  8
_0-0_
 62
    7
 10
1185.0223697575511
 20
1200.4478690985973
  0
TEXT
  8
_0-0_
 62
    7
 10
1263.0785802278497
 20
1312.5849601967723
 40
30
 41
1
 50
0
  1
ｼｰﾘﾝｸﾞ
  0
LINE
  8
_0-0_
  6
CONTINUOUS
 62
    7
 10
1326.0060837296551
 20
1016.9790903932492
 11
1170.0145711507266
 21
1016.9790903932492
  0
LINE
  8
_0-0_
  6
CONTINUOUS
 62
    7
 10
1190.0145711507266
 20
956.20909610239619
 11
1209.2445768598755
 21
936.97909039325009
  0
LINE
  8
_0-0_
  6
CONTINUOUS
 62
    7
 10
1190.0145711507266
 20
949.13802829053134
 11
1202.1735090480088
 21
936.97909039325009
  0
LINE
  8
_0-0_
  6
CONTINUOUS
 62
    7
 10
1190.0145711507266
 20
942.06696047866467
 11
1195.1024412361439
 21
936.97909039325009
  0
LINE
  8
_0-0_
  6
CONTINUOUS
 62
    5
 10
1350.0060837296551
 20
1013.4790903932492
 11
1350.0060837296551
 21
936.97909039325009
  0
LINE
  8
_0-0_
  6
CONTINUOUS
 62
    5
 10
1330.0060837296551
 20
1013.4790903932492
 11
1350.0060837296551
 21
1013.4790903932492
  0
LINE
  8
_0-0_
  6
CONTINUOUS
 62
    5
 10
1330.0060837296551
 20
936.97909039325009
 11
1330.0060837296551
 21
1013.4790903932492
  0
LINE
  8
_0-0_
  6
CONTINUOUS
 62
    5
 10
1329.0060837296551
 20
1014.9790903932492
 11
1351.0060837296551
 21
1014.9790903932492
  0
LINE
  8
_0-0_
  6
CONTINUOUS
 62
    5
 10
1329.0060837296551
 20
1013.9790903932492
 11
1329.0060837296551
 21
1014.9790903932492
  0
LINE
  8
_0-0_
  6
CONTINUOUS
 62
    5
 10
1331.0060837296551
 20
1013.9790903932492
 11
1329.0060837296551
 21
1013.9790903932492
  0
LINE
  8
_0-0_
  6
CONTINUOUS
 62
    5
 10
1331.0060837296551
 20
1013.4790903932492
 11
1331.0060837296551
 21
1013.9790903932492
  0
LINE
  8
_0-0_
  6
CONTINUOUS
 62
    5
 10
1329.0060837296551
 20
1013.4790903932492
 11
1331.0060837296551
 21
1013.4790903932492
  0
LINE
  8
_0-0_
  6
CONTINUOUS
 62
    5
 10
1329.0060837296551
 20
1001.9790903932492
 11
1329.0060837296551
 21
1013.4790903932492
  0
LINE
  8
_0-0_
  6
CONTINUOUS
 62
    5
 10
1329.5060837296551
 20
1001.9790903932492
 11
1329.0060837296551
 21
1001.9790903932492
  0
LINE
  8
_0-0_
  6
CONTINUOUS
 62
    5
 10
1329.0060837296551
 20
1000.9790903932492
 11
1329.5060837296551
 21
1001.9790903932492
  0
LINE
  8
_0-0_
  6
CONTINUOUS
 62
    5
 10
1329.0060837296551
 20
987.97909039324918
 11
1329.0060837296551
 21
1000.9790903932492
  0
LINE
  8
_0-0_
  6
CONTINUOUS
 62
    5
 10
1329.5060837296551
 20
987.97909039324918
 11
1329.0060837296551
 21
987.97909039324918
  0
LINE
  8
_0-0_
  6
CONTINUOUS
 62
    5
 10
1329.0060837296551
 20
986.97909039324918
 11
1329.5060837296551
 21
987.97909039324918
  0
LINE
  8
_0-0_
  6
CONTINUOUS
 62
    5
 10
1328.0060837296551
 20
986.97909039324918
 11
1329.0060837296551
 21
986.97909039324918
  0
LINE
  8
_0-0_
  6
CONTINUOUS
 62
    5
 10
1328.0060837296551
 20
1013.4790903932492
 11
1328.0060837296551
 21
986.97909039324918
  0
LINE
  8
_0-0_
  6
CONTINUOUS
 62
    5
 10
1327.5060837296551
 20
1013.4790903932492
 11
1328.0060837296551
 21
1013.4790903932492
  0
LINE
  8
_0-0_
  6
CONTINUOUS
 62
    5
 10
1327.5060837296551
 20
1015.4790903932492
 11
1327.5060837296551
 21
1013.4790903932492
  0
LINE
  8
_0-0_
  6
CONTINUOUS
 62
    5
 10
1352.5060837296551
 20
1015.4790903932492
 11
1327.5060837296551
 21
1015.4790903932492
  0
LINE
  8
_0-0_
  6
CONTINUOUS
 62
    5
 10
1352.5060837296551
 20
1013.4790903932492
 11
1352.5060837296551
 21
1015.4790903932492
  0
LINE
  8
_0-0_
  6
CONTINUOUS
 62
    5
 10
1352.0060837296551
 20
1013.4790903932492
 11
1352.5060837296551
 21
1013.4790903932492
  0
LINE
  8
_0-0_
  6
CONTINUOUS
 62
    5
 10
1352.0060837296551
 20
986.97909039324918
 11
1352.0060837296551
 21
1013.4790903932492
  0
LINE
  8
_0-0_
  6
CONTINUOUS
 62
    5
 10
1351.0060837296551
 20
986.97909039324918
 11
1352.0060837296551
 21
986.97909039324918
  0
LINE
  8
_0-0_
  6
CONTINUOUS
 62
    5
 10
1350.5060837296551
 20
987.97909039324918
 11
1351.0060837296551
 21
986.97909039324918
  0
LINE
  8
_0-0_
  6
CONTINUOUS
 62
    5
 10
1351.0060837296551
 20
987.97909039324918
 11
1350.5060837296551
 21
987.97909039324918
  0
LINE
  8
_0-0_
  6
CONTINUOUS
 62
    5
 10
1351.0060837296551
 20
1000.9790903932492
 11
1351.0060837296551
 21
987.97909039324918
  0
LINE
  8
_0-0_
  6
CONTINUOUS
 62
    5
 10
1350.5060837296551
 20
1001.9790903932492
 11
1351.0060837296551
 21
1000.9790903932492
  0
LINE
  8
_0-0_
  6
CONTINUOUS
 62
    5
 10
1351.0060837296551
 20
1001.9790903932492
 11
1350.5060837296551
 21
1001.9790903932492
  0
LINE
  8
_0-0_
  6
CONTINUOUS
 62
    5
 10
1351.0060837296551
 20
1013.4790903932492
 11
1351.0060837296551
 21
1001.9790903932492
  0
LINE
  8
_0-0_
  6
CONTINUOUS
 62
    5
 10
1349.0060837296551
 20
1013.4790903932492
 11
1351.0060837296551
 21
1013.4790903932492
  0
LINE
  8
_0-0_
  6
CONTINUOUS
 62
    5
 10
1349.0060837296551
 20
1013.9790903932492
 11
1349.0060837296551
 21
1013.4790903932492
  0
LINE
  8
_0-0_
  6
CONTINUOUS
 62
    5
 10
1351.0060837296551
 20
1013.9790903932492
 11
1349.0060837296551
 21
1013.9790903932492
  0
LINE
  8
_0-0_
  6
CONTINUOUS
 62
    5
 10
1351.0060837296551
 20
1014.9790903932492
 11
1351.0060837296551
 21
1013.9790903932492
  0
LINE
  8
_0-0_
  6
CONTINUOUS
 62
    5
 10
1340.0060837296551
 20
1016.4790903932492
 11
1352.5060837296551
 21
1016.4790903932492
  0
LINE
  8
_0-0_
  6
CONTINUOUS
 62
    5
 10
1327.5060837296551
 20
1016.4790903932492
 11
1340.0060837296551
 21
1016.4790903932492
  0
LINE
  8
_0-0_
  6
CONTINUOUS
 62
    5
 10
1327.0060837296551
 20
1016.9790903932492
 11
1327.5060837296551
 21
1016.4790903932492
  0
LINE
  8
_0-0_
  6
CONTINUOUS
 62
    5
 10
1326.0060837296551
 20
1016.9790903932492
 11
1327.0060837296551
 21
1016.9790903932492
  0
LINE
  8
_0-0_
  6
CONTINUOUS
 62
    5
 10
1326.0060837296551
 20
1013.9790903932492
 11
1326.0060837296551
 21
1016.9790903932492
  0
LINE
  8
_0-0_
  6
CONTINUOUS
 62
    5
 10
1326.5060837296551
 20
1013.9790903932492
 11
1326.0060837296551
 21
1013.9790903932492
  0
LINE
  8
_0-0_
  6
CONTINUOUS
 62
    5
 10
1326.5060837296551
 20
998.97909039324918
 11
1326.5060837296551
 21
1013.9790903932492
  0
LINE
  8
_0-0_
  6
CONTINUOUS
 62
    5
 10
1326.0060837296478
 20
998.97909039324918
 11
1326.5060837296551
 21
998.97909039324918
  0
LINE
  8
_0-0_
  6
CONTINUOUS
 62
    5
 10
1326.0060837296551
 20
996.97909039324918
 11
1326.0060837296478
 21
998.97909039324918
  0
LINE
  8
_0-0_
  6
CONTINUOUS
 62
    5
 10
1327.5060837296551
 20
996.97909039324918
 11
1326.0060837296551
 21
996.97909039324918
  0
LINE
  8
_0-0_
  6
CONTINUOUS
 62
    5
 10
1327.5060837296551
 20
1015.4790903932492
 11
1327.5060837296551
 21
996.97909039324918
  0
LINE
  8
_0-0_
  6
CONTINUOUS
 62
    5
 10
1352.5060837296551
 20
1015.4790903932492
 11
1327.5060837296551
 21
1015.4790903932492
  0
LINE
  8
_0-0_
  6
CONTINUOUS
 62
    5
 10
1352.5060837296551
 20
996.97909039324918
 11
1352.5060837296551
 21
1015.4790903932492
  0
LINE
  8
_0-0_
  6
CONTINUOUS
 62
    5
 10
1354.0060837296551
 20
996.97909039324918
 11
1352.5060837296551
 21
996.97909039324918
  0
LINE
  8
_0-0_
  6
CONTINUOUS
 62
    5
 10
1354.0060837296605
 20
998.97909039324918
 11
1354.0060837296551
 21
996.97909039324918
  0
LINE
  8
_0-0_
  6
CONTINUOUS
 62
    5
 10
1353.5060837296551
 20
998.97909039324918
 11
1354.0060837296605
 21
998.97909039324918
  0
LINE
  8
_0-0_
  6
CONTINUOUS
 62
    5
 10
1353.5060837296551
 20
1013.9790903932492
 11
1353.5060837296551
 21
998.97909039324918
  0
LINE
  8
_0-0_
  6
CONTINUOUS
 62
    5
 10
1354.0060837296551
 20
1013.9790903932492
 11
1353.5060837296551
 21
1013.9790903932492
  0
LINE
  8
_0-0_
  6
CONTINUOUS
 62
    5
 10
1354.0060837296551
 20
1016.9790903932492
 11
1354.0060837296551
 21
1013.9790903932492
  0
LINE
  8
_0-0_
  6
CONTINUOUS
 62
    5
 10
1353.0060837296551
 20
1016.9790903932492
 11
1354.0060837296551
 21
1016.9790903932492
  0
LINE
  8
_0-0_
  6
CONTINUOUS
 62
    5
 10
1352.5060837296551
 20
1016.4790903932492
 11
1353.0060837296551
 21
1016.9790903932492
  0
LINE
  8
_0-0_
  6
CONTINUOUS
 62
    5
 10
1333.2201688282621
 20
936.97909039325009
 11
1333.2201688282621
 21
1013.4790903932492
  0
LINE
  8
_0-0_
  6
CONTINUOUS
 62
    5
 10
1336.9701688282621
 20
936.97909039325009
 11
1336.9701688282621
 21
1013.4790903932492
  0
LINE
  8
_0-0_
  6
CONTINUOUS
 62
    5
 10
1340.7201688282621
 20
936.97909039325009
 11
1340.7201688282621
 21
1013.4790903932492
  0
LINE
  8
_0-0_
  6
CONTINUOUS
 62
    5
 10
1344.4701688282621
 20
936.97909039325009
 11
1344.4701688282621
 21
1013.4790903932492
  0
LINE
  8
_0-0_
  6
CONTINUOUS
 62
    5
 10
1348.2201688282621
 20
936.97909039325009
 11
1348.2201688282621
 21
1013.4790903932492
  0
LINE
  8
_0-0_
  6
CONTINUOUS
 62
    5
 10
1190.0145711507266
 20
1016.9790903932492
 11
1190.0145711507266
 21
936.97909039325009
  0
LINE
  8
_0-0_
  6
CONTINUOUS
 62
    5
 10
1170.0145711507266
 20
1016.9790903932492
 11
1190.0145711507266
 21
1016.9790903932492
  0
LINE
  8
_0-0_
  6
CONTINUOUS
 62
    5
 10
1170.0145711507266
 20
942.37736368200899
 11
1175.4128444394864
 21
936.97909039325009
  0
LINE
  8
_0-0_
  6
CONTINUOUS
 62
    5
 10
1170.0145711507266
 20
948.03421793149869
 11
1181.069698688978
 21
936.97909039325009
  0
LINE
  8
_0-0_
  6
CONTINUOUS
 62
    5
 10
1170.0145711507266
 20
953.69107218099202
 11
1186.7265529384695
 21
936.97909039325009
  0
LINE
  8
_0-0_
  6
CONTINUOUS
 62
    5
 10
1170.0145711507266
 20
959.34792643048536
 11
1190.0145711507266
 21
939.34792643048536
  0
LINE
  8
_0-0_
  6
CONTINUOUS
 62
    5
 10
1170.0145711507266
 20
965.00478067997869
 11
1190.0145711507266
 21
945.00478067997869
  0
LINE
  8
_0-0_
  6
CONTINUOUS
 62
    5
 10
1170.0145711507266
 20
970.66163492946839
 11
1190.0145711507266
 21
950.66163492947021
  0
LINE
  8
_0-0_
  6
CONTINUOUS
 62
    5
 10
1170.0145711507266
 20
976.31848917896173
 11
1190.0145711507266
 21
956.31848917896173
  0
LINE
  8
_0-0_
  6
CONTINUOUS
 62
    5
 10
1170.0145711507266
 20
981.97534342845506
 11
1190.0145711507266
 21
961.97534342845506
  0
LINE
  8
_0-0_
  6
CONTINUOUS
 62
    5
 10
1170.0145711507266
 20
987.63219767794476
 11
1190.0145711507266
 21
967.63219767794476
  0
LINE
  8
_0-0_
  6
CONTINUOUS
 62
    5
 10
1170.0145711507266
 20
993.28905192743809
 11
1190.0145711507266
 21
973.28905192743809
  0
LINE
  8
_0-0_
  6
CONTINUOUS
 62
    5
 10
1170.0145711507266
 20
998.94590617693143
 11
1190.0145711507266
 21
978.94590617693143
  0
LINE
  8
_0-0_
  6
CONTINUOUS
 62
    5
 10
1170.0145711507266
 20
1004.6027604264248
 11
1190.0145711507266
 21
984.60276042642477
  0
LINE
  8
_0-0_
  6
CONTINUOUS
 62
    5
 10
1170.0145711507266
 20
1010.2596146759181
 11
1190.0145711507266
 21
990.2596146759181
  0
LINE
  8
_0-0_
  6
CONTINUOUS
 62
    5
 10
1170.0145711507266
 20
1015.9164689254096
 11
1190.0145711507266
 21
995.91646892540962
  0
LINE
  8
_0-0_
  6
CONTINUOUS
 62
    5
 10
1174.6088039323786
 20
1016.9790903932492
 11
1190.0145711507266
 21
1001.5733231749011
  0
LINE
  8
_0-0_
  6
CONTINUOUS
 62
    5
 10
1180.2656581818719
 20
1016.9790903932492
 11
1190.0145711507266
 21
1007.2301774243945
  0
LINE
  8
_0-0_
  6
CONTINUOUS
 62
    5
 10
1185.9225124313652
 20
1016.9790903932492
 11
1190.0145711507266
 21
1012.8870316738842
  0
LINE
  8
_0-0_
  6
CONTINUOUS
 62
    4
 10
1170.0145711507266
 20
1214.3421461220325
 11
1170.0145711507266
 21
934.97909039325009
  0
LINE
  8
_0-0_
  6
CONTINUOUS
 62
    7
 10
1164.0145711507266
 20
925.97909039325009
 11
1485.15343887987
 21
925.97909039325009
  0
LINE
  8
_0-0_
  6
CONTINUOUS
 62
    4
 10
1170.0145711507266
 20
934.97909039325009
 11
1485.15343887987
 21
934.97909039325009
  0
LINE
  8
_0-0_
  6
CONTINUOUS
 62
    7
 10
1170.0145711507266
 20
936.97909039325009
 11
1485.15343887987
 21
936.97909039325009
  0
LINE
  8
_0-0_
  6
CONTINUOUS
 62
    5
 10
1170.0145711507266
 20
935.97909039325009
 11
1485.15343887987
 21
935.97909039325009
  0
LINE
  8
_0-0_
  6
CONTINUOUS
 62
    7
 10
1354.0060837296551
 20
1016.9790903932492
 11
1485.15343887987
 21
1016.9790903932492
  0
LINE
  8
_0-0_
  6
CONTINUOUS
 62
    7
 10
1390.8740858988986
 20
1016.9790903932492
 11
1470.8740858988986
 21
936.97909039325009
  0
LINE
  8
_0-0_
  6
CONTINUOUS
 62
    7
 10
1383.8030180870319
 20
1016.9790903932492
 11
1463.8030180870319
 21
936.97909039325009
  0
LINE
  8
_0-0_
  6
CONTINUOUS
 62
    7
 10
1376.7319502751652
 20
1016.9790903932492
 11
1456.7319502751652
 21
936.97909039325009
  0
ARC
  8
_0-0_
  6
CONTINUOUS
 62
    7
 10
674.23637004345994
 20
1143.4075140177677
 40
367.40986757197703
 50
30.137066432173206
 51
53.125752717063492
  0
ARC
  8
_0-0_
  6
CONTINUOUS
 62
    7
 10
674.23637004345994
 20
1143.4075140177677
 40
372.40986757197703
 50
30.580973923580547
 51
53.700633007173963
  0
LINE
  8
_0-0_
  6
CONTINUOUS
 62
    7
 10
991.78006883014871
 20
1295.9973581089773
 11
894.70460363106224
 21
1295.9973581089773
  0
LINE
  8
_0-0_
  6
CONTINUOUS
 62
    7
 10
991.78006883014871
 20
1287.9973581089773
 11
894.70460363106224
 21
1287.9973581089773
  0
LINE
  8
_0-0_
  6
CONTINUOUS
 62
    2
 10
974.70460363106224
 20
1273.5036888814441
 11
974.70460363106224
 21
685.97909039325009
  0
LINE
  8
_0-0_
  6
CONTINUOUS
 62
    2
 10
977.82960363106224
 20
1273.5036888814441
 11
977.82960363106224
 21
685.97909039325009
  0
LINE
  8
_0-0_
  6
CONTINUOUS
 62
    2
 10
980.95460363106224
 20
1273.5036888814441
 11
980.95460363106224
 21
685.97909039325009
  0
LINE
  8
_0-0_
  6
CONTINUOUS
 62
    7
 10
1020.6838190254076
 20
685.97909039325009
 11
1260.6838190254075
 21
925.97909039325009
  0
LINE
  8
_0-0_
  6
CONTINUOUS
 62
    7
 10
1027.7548868372724
 20
685.97909039325009
 11
1267.7548868372705
 21
925.97909039325009
  0
LINE
  8
_0-0_
  6
CONTINUOUS
 62
    7
 10
1034.8259546491372
 20
685.97909039325009
 11
1274.8259546491372
 21
925.97909039325009
  0
LINE
  8
_0-0_
  6
CONTINUOUS
 62
    7
 10
1014.0145711507267
 20
1211.8568647477925
 11
1014.0145711507267
 21
685.97909039325009
  0
LINE
  8
_0-0_
  6
CONTINUOUS
 62
    7
 10
1246.9579890051027
 20
685.97909039325009
 11
1485.15343887987
 21
924.17454026801556
  0
LINE
  8
_0-0_
  6
CONTINUOUS
 62
    7
 10
1254.0290568169676
 20
685.97909039325009
 11
1485.15343887987
 21
917.10347245615253
  0
LINE
  8
_0-0_
  6
CONTINUOUS
 62
    7
 10
1261.1001246288324
 20
685.97909039325009
 11
1485.1534388798718
 21
910.0324046442895
  0
LINE
  8
_0-0_
  6
CONTINUOUS
 62
    7
 10
1364.0145711507266
 20
745.97909039325009
 11
1364.0145711507266
 21
685.97909039325009
  0
LINE
  8
_0-0_
  6
CONTINUOUS
 62
    7
 10
672.13606690525205
 20
627.531069972056
 11
1706.8525777203686
 21
627.531069972056
  0
LINE
  8
_0-0_
  6
CONTINUOUS
 62
    7
 10
1189.4943223128103
 20
167.53106997205509
 11
1189.4943223128103
 21
627.531069972056
  0
TEXT
  8
_0-0_
 62
    7
 10
904.48460511275891
 20
578.2975900025433
 40
40
 41
1
 50
0
  1
Ａ
  0
TEXT
  8
_0-0_
 62
    7
 10
1427.4413467979666
 20
578.64506875500797
 40
40
 41
1
 50
0
  1
Ｂ
  0
LINE
  8
_0-0_
  6
CONTINUOUS
 62
    2
 10
958.4640535264881
 20
414.22515534876698
 11
959.83738509865555
 21
415.59848692092896
  0
LINE
  8
_0-0_
  6
CONTINUOUS
 62
    2
 10
958.4640535264881
 20
407.86119431808879
 11
962.16556238301212
 21
411.56270317460553
  0
LINE
  8
_0-0_
  6
CONTINUOUS
 62
    2
 10
958.46405352649538
 20
401.49723328741061
 11
965.07074689994272
 21
408.10392666086523
  0
LINE
  8
_0-0_
  6
CONTINUOUS
 62
    2
 10
958.46405352649538
 20
395.13327225672879
 11
968.52666316483567
 21
405.1958818950709
  0
LINE
  8
_0-0_
  6
CONTINUOUS
 62
    2
 10
958.46405352649538
 20
388.76931122605424
 11
972.55930639351948
 21
402.8645640930747
  0
LINE
  8
_0-0_
  6
CONTINUOUS
 62
    2
 10
958.46405352649538
 20
382.40535019537242
 11
977.26110245834036
 21
401.20239912722286
  0
LINE
  8
_0-0_
  6
CONTINUOUS
 62
    2
 10
962.52561537646409
 20
380.10295101466659
 11
982.85677422999117
 21
400.43410986819185
  0
LINE
  8
_0-0_
  6
CONTINUOUS
 62
    2
 10
1009.0009779040048
 20
420.21435251152548
 11
1009.7957810914633
 21
421.00915569898757
  0
LINE
  8
_0-0_
  6
CONTINUOUS
 62
    2
 10
970.10160531249869
 20
381.31497992002301
 11
990.00495647360742
 21
401.2183310811281
  0
LINE
  8
_0-0_
  6
CONTINUOUS
 62
    2
 10
977.11305072021617
 20
381.96246429705684
 11
1009.7957810914633
 21
414.64519466830575
  0
LINE
  8
_0-0_
  6
CONTINUOUS
 62
    2
 10
983.68997950180358
 20
382.17543204796789
 11
1009.7957810914633
 21
408.28123363762757
  0
LINE
  8
_0-0_
  6
CONTINUOUS
 62
    2
 10
989.90982973971416
 20
382.03132125519664
 11
1009.7957810914633
 21
401.91727260694574
  0
LINE
  8
_0-0_
  6
CONTINUOUS
 62
    2
 10
995.82232252145889
 20
381.57985300626137
 11
1009.7957810914633
 21
395.55331157626756
  0
LINE
  8
_0-0_
  6
CONTINUOUS
 62
    2
 10
1001.4607463186404
 20
380.85431577277018
 11
1009.7957810914633
 21
389.18935054558938
  0
LINE
  8
_0-0_
  6
CONTINUOUS
 62
    2
 10
1006.8477149504071
 20
379.87732337385501
 11
1009.7957810914633
 21
382.82538951491119
  0
LINE
  8
_0-0_
  6
CONTINUOUS
 62
    2
 10
1009.7957810914633
 20
379.2178020432699
 11
1009.7957810914633
 21
379.2178020432699
  0
LINE
  8
_0-0_
  6
CONTINUOUS
 62
    2
 10
1009.7957810914633
 20
379.2178020432699
 11
998.23454789430923
 21
381.30548248327307
  0
LINE
  8
_0-0_
  6
CONTINUOUS
 62
    2
 10
998.23454789430923
 20
381.30548248327307
 11
986.24475263410739
 21
382.15689412063921
  0
LINE
  8
_0-0_
  6
CONTINUOUS
 62
    2
 10
986.24475263410739
 20
382.15689412063921
 11
974.19069917270997
 21
381.74616724360203
  0
LINE
  8
_0-0_
  6
CONTINUOUS
 62
    2
 10
974.19069917270997
 20
381.74616724360203
 11
962.43864382489585
 21
380.08578158048249
  0
LINE
  8
_0-0_
  6
CONTINUOUS
 62
    2
 10
962.43864382489585
 20
380.08578158048249
 11
958.46405352649538
 21
379.2178020432699
  0
CIRCLE
  8
_0-0_
  6
CONTINUOUS
 62
    7
 10
983.60126560877154
 20
426.61804337636318
 40
26.194515482695333
  0
LINE
  8
_0-0_
  6
CONTINUOUS
 62
    7
 10
1009.7957810914633
 20
379.21780204326683
 11
1014.2957810914633
 21
379.21780204326683
  0
LINE
  8
_0-0_
  6
CONTINUOUS
 62
    7
 10
1014.2957810914633
 20
450.17077348917269
 11
1014.2957810914633
 21
379.21780204326683
  0
LINE
  8
_0-0_
  6
CONTINUOUS
 62
    7
 10
1009.7957810914633
 20
446.71780204326683
 11
1009.7957810914633
 21
379.21780204326683
  0
LINE
  8
_0-0_
  6
CONTINUOUS
 62
    7
 10
829.27737366634949
 20
495.08756353178001
 11
1009.7957810914633
 21
446.71780204326683
  0
LINE
  8
_0-0_
  6
CONTINUOUS
 62
    7
 10
824.77737366634949
 20
460.02397878200395
 11
802.27737366634949
 21
460.02397878200395
  0
LINE
  8
_0-0_
  6
CONTINUOUS
 62
    7
 10
802.27737366634949
 20
460.02397878200395
 11
802.27737366634949
 21
455.52397878200395
  0
LINE
  8
_0-0_
  6
CONTINUOUS
 62
    7
 10
824.77737366634949
 20
496.29333489771784
 11
824.77737366634949
 21
460.02397878200395
  0
LINE
  8
_0-0_
  6
CONTINUOUS
 62
    7
 10
829.27737366634949
 20
495.08756353178001
 11
829.27737366634949
 21
455.52397878200395
  0
LINE
  8
_0-0_
  6
CONTINUOUS
 62
    7
 10
802.27737366634949
 20
455.52397878200395
 11
829.27737366634949
 21
455.52397878200395
  0
LINE
  8
_0-0_
  6
CONTINUOUS
 62
    7
 10
849.27427532334889
 20
455.52397878200395
 11
849.27427532334889
 21
451.02397878200395
  0
LINE
  8
_0-0_
  6
CONTINUOUS
 62
    7
 10
921.09919966145037
 20
437.52397878200395
 11
944.96405352649538
 21
413.65912491695894
  0
LINE
  8
_0-0_
  6
CONTINUOUS
 62
    4
 10
926.69108275349038
 20
451.02397878200395
 11
958.46405352649538
 21
419.25100800899349
  0
LINE
  8
_0-0_
  6
CONTINUOUS
 62
    7
 10
747.14207917667966
 20
517.09564936037827
 11
824.77737366634949
 21
496.29333489771784
  0
LINE
  8
_0-0_
  6
CONTINUOUS
 62
    7
 10
747.14207917667966
 20
521.75439217222561
 11
1014.2957810914633
 21
450.17077348917269
  0
LINE
  8
_0-0_
  6
CONTINUOUS
 62
    4
 10
747.14207917667966
 20
451.02397878200395
 11
926.69108275349038
 21
451.02397878200395
  0
LINE
  8
_0-0_
  6
CONTINUOUS
 62
    7
 10
747.14207917667966
 20
455.52397878200395
 11
849.27427532334889
 21
455.52397878200395
  0
LINE
  8
_0-0_
  6
CONTINUOUS
 62
    7
 10
747.14207917667966
 20
437.52397878200395
 11
921.09919966145037
 21
437.52397878200395
  0
LINE
  8
_0-0_
  6
CONTINUOUS
 62
    7
 10
747.14207917667966
 20
373.3401154600117
 11
811.32594249866827
 21
437.52397878200031
  0
LINE
  8
_0-0_
  6
CONTINUOUS
 62
    7
 10
747.14207917667966
 20
357.43021288331988
 11
827.23584507536009
 21
437.52397878200031
  0
LINE
  8
_0-0_
  6
CONTINUOUS
 62
    7
 10
747.14207917667966
 20
341.52031030662079
 11
843.14574765205919
 21
437.52397878200031
  0
LINE
  8
_0-0_
  6
CONTINUOUS
 62
    7
 10
944.96405352649538
 20
413.65912491695894
 11
944.96405352649538
 21
200.82261105358089
  0
LINE
  8
_0-0_
  6
CONTINUOUS
 62
    4
 10
958.46405352649538
 20
419.25100800899349
 11
958.46405352649538
 21
200.82261105358089
  0
LINE
  8
_0-0_
  6
CONTINUOUS
 62
    7
 10
982.0269516469599
 20
393.6230857074454
 11
1022.4082377356264
 21
323.68064652690123
  0
TEXT
  8
_0-0_
 62
    7
 10
1025.4521623589608
 20
306.44464617921517
 40
21.617968000000001
 41
1
 50
0
  1
ｼｰﾘﾝｸﾞ
  0
POINT
  8
_0-0_
 62
    7
 10
982.0269516469599
 20
393.6230857074454
  0
LINE
  8
_0-0_
  6
CONTINUOUS
 62
    7
 10
983.84923631678987
 20
421.1188923164093
 11
1024.0265897955378
 21
490.70810985525645
  0
POINT
  8
_0-0_
 62
    7
 10
983.84923631678987
 20
421.1188923164093
  0
TEXT
  8
_0-0_
 62
    7
 10
1027.498163681661
 20
484.40983699547837
 40
21.617968000000001
 41
1
 50
0
  1
ﾊﾞｯｸｱｯﾌﾟ材
  0
LINE
  8
_0-0_
  6
CONTINUOUS
 62
    7
 10
1602.5980592993492
 20
242.73121587532046
 11
1283.082982036336
 21
242.73121587532046
  0
LINE
  8
_0-0_
  6
CONTINUOUS
 62
    7
 10
1283.082982036336
 20
242.7312158753241
 11
1283.082982036336
 21
474.77991202474118
  0
LINE
  8
_0-0_
  6
CONTINUOUS
 62
    7
 10
1341.582982036336
 20
310.74872872090532
 11
1384.8504948819209
 21
267.4812158753241
  0
LINE
  8
_0-0_
  6
CONTINUOUS
 62
    5
 10
1341.582982036336
 20
447.4812158753241
 11
1341.582982036336
 21
267.4812158753241
  0
LINE
  8
_0-0_
  6
CONTINUOUS
 62
    5
 10
1296.582982036336
 20
447.4812158753241
 11
1341.582982036336
 21
447.4812158753241
  0
LINE
  8
_0-0_
  6
CONTINUOUS
 62
    5
 10
1296.582982036336
 20
279.62733077503185
 11
1308.7290969360456
 21
267.4812158753241
  0
LINE
  8
_0-0_
  6
CONTINUOUS
 62
    5
 10
1296.5829820363379
 20
292.35525283638822
 11
1321.457018997402
 21
267.4812158753241
  0
LINE
  8
_0-0_
  6
CONTINUOUS
 62
    5
 10
1296.582982036336
 20
305.08317489774458
 11
1334.1849410587583
 21
267.4812158753241
  0
LINE
  8
_0-0_
  6
CONTINUOUS
 62
    5
 10
1296.582982036336
 20
317.81109695910823
 11
1341.582982036336
 21
272.81109695910823
  0
LINE
  8
_0-0_
  6
CONTINUOUS
 62
    5
 10
1296.582982036336
 20
330.53901902046459
 11
1341.582982036336
 21
285.53901902046459
  0
LINE
  8
_0-0_
  6
CONTINUOUS
 62
    5
 10
1296.582982036336
 20
343.26694108182096
 11
1341.582982036336
 21
298.2669410818246
  0
LINE
  8
_0-0_
  6
CONTINUOUS
 62
    5
 10
1296.5829820363379
 20
355.99486314318096
 11
1341.582982036336
 21
310.99486314318096
  0
LINE
  8
_0-0_
  6
CONTINUOUS
 62
    5
 10
1296.582982036336
 20
368.72278520453733
 11
1341.582982036336
 21
323.72278520453733
  0
LINE
  8
_0-0_
  6
CONTINUOUS
 62
    5
 10
1296.582982036336
 20
381.4507072658937
 11
1341.5829820363379
 21
336.4507072658937
  0
LINE
  8
_0-0_
  6
CONTINUOUS
 62
    5
 10
1296.5829820363379
 20
394.17862932725006
 11
1341.582982036336
 21
349.17862932725006
  0
LINE
  8
_0-0_
  6
CONTINUOUS
 62
    5
 10
1296.582982036336
 20
406.90655138861007
 11
1341.5829820363379
 21
361.90655138861007
  0
LINE
  8
_0-0_
  6
CONTINUOUS
 62
    5
 10
1296.582982036336
 20
419.63447344997007
 11
1341.582982036336
 21
374.63447344997007
  0
LINE
  8
_0-0_
  6
CONTINUOUS
 62
    5
 10
1296.5829820363379
 20
432.36239551133008
 11
1341.5829820363379
 21
387.36239551133008
  0
LINE
  8
_0-0_
  6
CONTINUOUS
 62
    5
 10
1296.582982036336
 20
445.09031757268644
 11
1341.582982036336
 21
400.09031757268644
  0
LINE
  8
_0-0_
  6
CONTINUOUS
 62
    5
 10
1306.9200057950529
 20
447.4812158753241
 11
1341.5829820363379
 21
412.81823963403917
  0
LINE
  8
_0-0_
  6
CONTINUOUS
 62
    5
 10
1319.6479278564129
 20
447.4812158753241
 11
1341.582982036336
 21
425.54616169540282
  0
LINE
  8
_0-0_
  6
CONTINUOUS
 62
    5
 10
1332.3758499177711
 20
447.4812158753241
 11
1341.582982036336
 21
438.27408375675554
  0
LINE
  8
_0-0_
  6
CONTINUOUS
 62
    7
 10
1341.582982036336
 20
342.56853387429987
 11
1416.6703000353173
 21
267.4812158753241
  0
LINE
  8
_0-0_
  6
CONTINUOUS
 62
    7
 10
1341.582982036336
 20
326.65863129760442
 11
1400.7603974586182
 21
267.4812158753241
  0
LINE
  8
_0-0_
  6
CONTINUOUS
 62
    4
 10
1296.582982036336
 20
474.77991202474118
 11
1296.582982036336
 21
262.9812158753241
  0
LINE
  8
_0-0_
  6
CONTINUOUS
 62
    7
 10
1602.5980592993492
 20
447.4812158753241
 11
1296.582982036336
 21
447.4812158753241
  0
LINE
  8
_0-0_
  6
CONTINUOUS
 62
    7
 10
1296.582982036336
 20
267.4812158753241
 11
1602.5980592993492
 21
267.4812158753241
  0
LINE
  8
_0-0_
  6
CONTINUOUS
 62
    5
 10
1296.582982036336
 20
265.2312158753241
 11
1602.5980592993492
 21
265.2312158753241
  0
LINE
  8
_0-0_
  6
CONTINUOUS
 62
    4
 10
1296.582982036336
 20
262.9812158753241
 11
1602.5980592993492
 21
262.9812158753241
  0
LINE
  8
_0-0_
  6
CONTINUOUS
 62
    7
 10
1468.3313631878427
 20
182.7312158753241
 11
1528.3313631878409
 21
242.73121587532046
  0
LINE
  8
_0-0_
  6
CONTINUOUS
 62
    7
 10
1484.2412657645364
 20
182.7312158753241
 11
1544.2412657645345
 21
242.73121587532046
  0
LINE
  8
_0-0_
  6
CONTINUOUS
 62
    7
 10
1500.1511683412336
 20
182.7312158753241
 11
1560.1511683412318
 21
242.73121587532046
  0
LINE
  8
_0-0_
  6
CONTINUOUS
 62
    7
 10
1223.082982036336
 20
414.77991202474118
 11
1283.082982036336
 21
474.77991202474118
  0
LINE
  8
_0-0_
  6
CONTINUOUS
 62
    7
 10
1223.082982036336
 20
430.68981460143664
 11
1267.1730794596388
 21
474.77991202474118
  0
LINE
  8
_0-0_
  6
CONTINUOUS
 62
    7
 10
1223.082982036336
 20
446.5997171781321
 11
1251.2631768829433
 21
474.77991202474118
  0
LINE
  8
_0-0_
  6
CONTINUOUS
 62
    7
 10
1324.3185030374461
 20
422.91537175328745
 11
1352.7533899266891
 21
472.16604055293396
  0
TEXT
  8
_0-0_
 62
    7
 10
1354.2064379934909
 20
464.56351428745734
 40
21.617968000000001
 41
1
 50
0
  1
成型緩衝材
  0
LINE
  8
_0-0_
  6
CONTINUOUS
 62
    7
 10
1560.1511683412318
 20
242.73121587532046
 11
1603.6440681332715
 21
318.06312808363623
  0
POINT
  8
_0-0_
 62
    7
 10
1560.1511683412318
 20
242.73121587532046
  0
TEXT
  8
_0-0_
 62
    7
 10
1609.0078738849825
 20
306.41431591951664
 40
21.617968000000001
 41
1
 50
0
  1
ﾌﾟﾗｲﾏｰ
  0
TEXT
  8
_0-0_
 62
    7
 10
1575.7023819936549
 20
367.27289135834985
 40
21.617968000000001
 41
1
 50
0
  1
ｳﾚﾀﾝ防水
  0
LINE
  8
_0-0_
  6
CONTINUOUS
 62
    7
 10
1503.7035719163869
 20
255.12089873799164
 11
1572.7468916882335
 21
374.70743650605186
  0
POINT
  8
_0-0_
 62
    7
 10
1503.7035719163869
 20
255.12089873799164
  0
LINE
  8
_0-0_
  6
CONTINUOUS
 62
    7
 10
1464.4837399448916
 20
265.2312158753241
 11
1577.9526363777568
 21
461.76510957581672
  0
POINT
  8
_0-0_
 62
    7
 10
1464.4837399448916
 20
265.2312158753241
  0
TEXT
  8
_0-0_
 62
    7
 10
1580.203042545194
 20
455.14821513498214
 40
21.617968000000001
 41
1
 50
0
  1
絶縁ﾌｨﾙﾑ
  0
POINT
  8
_0-0_
 62
    7
 10
1324.3185030374461
 20
422.91537175328745
  0
POINT
  8
_0-0_
 62
    7
 10
1463.300515991923
 20
422.91537175328745
  0
LINE
  8
_0-0_
  6
CONTINUOUS
 62
    7
 10
1463.300515991923
 20
422.91537175328745
 11
1505.1998786377735
 21
495.48719666065631
  0
TEXT
  8
_0-0_
 62
    7
 10
1506.3698678799701
 20
488.75177539928086
 40
21.617968000000001
 41
1
 50
0
  1
保護ｺﾝｸﾘｰﾄ
  0
POINT
  8
_0-0_
 62
    7
 10
1306.9200057950529
 20
447.4812158753241
  0
LINE
  8
_0-0_
  6
CONTINUOUS
 62
    7
 10
1296.582982036336
 20
465.38546622446779
 11
1332.8913644764943
 21
528.2734293514643
  0
POINT
  8
_0-0_
 62
    7
 10
1296.582982036336
 20
465.38546622446779
  0
TEXT
  8
_0-0_
 62
    7
 10
1335.7652908051332
 20
522.94629953135268
 40
21.617968000000001
 41
1
 50
0
  1
ﾄｯﾌﾟｺｰﾄ(露出部のみ)
  0
TEXT
  8
_0-0_
 62
    7
 10
1144.5082818392602
 20
1273.2860059795423
 40
24
 41
1
 50
0
  1
Ａ
  0
CIRCLE
  8
_0-0_
  6
DASHED2
 62
    1
 10
1192.2988423981888
 20
966.97909039324827
 40
80
  0
TEXT
  8
_0-0_
 62
    7
 10
1179.9042955631912
 20
1035.0581136290523
 40
24
 41
1
 50
0
  1
Ｂ
  0
LINE
  8
_0-0_
  6
CONTINUOUS
 62
    7
 10
1154.213611405803
 20
1293.2320897411093
 11
1158.5437384247252
 21
1295.7320897411093
  0
CIRCLE
  8
_0-0_
  6
DASHED2
 62
    1
 10
1156.8000271984147
 20
1217.974117707193
 40
67.350194333739935
  0
LINE
  8
_0-0_
  6
CONTINUOUS
 62
    7
 10
672.13606690525205
 20
1633.356554367115
 11
1706.8525777203686
 21
1633.356554367115
  0
LINE
  8
_0-0_
  6
CONTINUOUS
 62
    7
 10
672.13606690525205
 20
1553.356554367115
 11
1706.8525777203686
 21
1553.356554367115
  0
LINE
  8
_0-0_
  6
CONTINUOUS
 62
    7
 10
672.13606690525205
 20
1473.356554367115
 11
1706.8525777203686
 21
1473.356554367115
  0
LINE
  8
_0-0_
  6
CONTINUOUS
 62
    7
 10
1189.4943223128103
 20
1633.356554367115
 11
1189.4943223128103
 21
1473.356554367115
  0
TEXT
  8
_0-0_
 62
    7
 10
696.13606690525023
 20
1497.356554367115
 40
20
 41
1
 50
0
  1
施工部位：トップライト
  0
TEXT
  8
_0-0_
 62
    7
 10
1213.4943223128103
 20
1577.356554367115
 40
20
 41
1
 50
0
  1
構造：ＲＣ造
  0
TEXT
  8
_0-0_
 62
    7
 10
1213.4943223128103
 20
1497.356554367115
 40
20
 41
1
 50
0
  1
下地：コンクリートスラブ
  0
TEXT
  8
_0-0_
 62
    7
 10
696.13606690525012
 20
1577.356554367115
 40
20
 41
1
 50
0
  1
図面番号：UPM-10C-top-01
  0
ENDSEC
  0
EOF
