  0
SECTION
  2
HEADER
  9
$ACADVER
  1
AC1009
  9
$INSBASE
 10
0
 20
0
 30
0
  9
$EXTMIN
 10
0
 20
0
  9
$EXTMAX
 10
2378
 20
1682
  9
$LIMMIN
 10
0
 20
0
  9
$LIMMAX
 10
2378
 20
1682
  9
$LTSCALE
 40
1
  0
ENDSEC
  0
SECTION
  2
TABLES
  0
TABLE
  2
LTYPE
 70
     9
  0
LTYPE
  2
CONTINUOUS
 70
    64
  3
実線
 72
    65
 73
     0
 40
0.0
  0
LTYPE
  2
DASHED1
 70
    64
  3
--  --  --  --  --  --  --  --  
 72
    65
 73
     2
 40
2.5
 49
1.25
 49
-1.25
  0
LTYPE
  2
DASHED2
 70
    64
  3
----    ----    ----    ----    
 72
    65
 73
     2
 40
5.0
 49
2.5
 49
-2.5
  0
LTYPE
  2
DASHED3
 70
    64
  3
------  ------  ------  ------  
 72
    65
 73
     2
 40
5.0
 49
3.75
 49
-1.25
  0
LTYPE
  2
CENTER1
 70
    64
  3
----- - ----- - ----- - ----- - 
 72
    65
 73
     4
 40
10.0
 49
6.25
 49
-1.25
 49
1.25
 49
-1.25
  0
LTYPE
  2
CENTER2
 70
    64
  3
----------  --  ----------  --  
 72
    65
 73
     4
 40
20.0
 49
12.5
 49
-2.5
 49
2.5
 49
-2.5
  0
LTYPE
  2
PHANTOM1
 70
    64
  3
--- - - --- - - --- - - --- - - 
 72
    65
 73
     6
 40
10.0
 49
3.25
 49
-1.25
 49
1.25
 49
-1.25
 49
1.25
 49
-1.25
  0
LTYPE
  2
PHANTOM2
 70
    64
  3
--------  -  -  --------  -  -  
 72
    65
 73
     6
 40
20.0
 49
10.0
 49
-2.5
 49
1.25
 49
-2.5
 49
1.25
 49
-2.5
  0
LTYPE
  2
DOT
 70
    64
  3
-   -   -   -   -   -   -   -   
 72
    65
 73
     2
 40
2.5
 49
0.625
 49
-1.875
  0
LTYPE
  2
DUMMY
 70
    64
  3
ダミー
 72
    65
 73
     0
 40
0.0
  0
LTYPE
  2
RAND1
 70
    64
  3
ランダム線1
 72
    65
 73
     4
 40
10.0
 49
1.0
 49
-2.0
 49
3.0
 49
-4.0
  0
LTYPE
  2
RAND2
 70
    64
  3
ランダム線2
 72
    65
 73
     4
 40
14.0
 49
2.0
 49
-3.0
 49
4.0
 49
-5.0
  0
LTYPE
  2
RAND3
 70
    64
  3
ランダム線3
 72
    65
 73
     4
 40
18.0
 49
3.0
 49
-4.0
 49
5.0
 49
-6.0
  0
LTYPE
  2
RAND4
 70
    64
  3
ランダム線4
 72
    65
 73
     4
 40
22.0
 49
4.0
 49
-5.0
 49
6.0
 49
-7.0
  0
LTYPE
  2
RAND5
 70
    64
  3
ランダム線5
 72
    65
 73
     4
 40
26.0
 49
5.0
 49
-6.0
 49
7.0
 49
-8.0
  0
LTYPE
  2
LONG1
 70
    64
  3
----------  --  ----------  --  
 72
    65
 73
     4
 40
40.0
 49
32.5
 49
-2.5
 49
2.5
 49
-2.5
  0
LTYPE
  2
LONG2
 70
    64
  3
--------  -  -  --------  -  -  
 72
    65
 73
     6
 40
40.0
 49
30.0
 49
-2.5
 49
1.25
 49
-2.5
 49
1.25
 49
-2.5
  0
LTYPE
  2
LONG3
 70
    64
  3
+++++++++++++++..+++++++++++++++
 72
    65
 73
     2
 40
40.0
 49
37.5
 49
-2.5
  0
LTYPE
  2
LONG4
 70
    64
  3
+++++++++++++++..+++++++++++++++
 72
    65
 73
     2
 40
80.0
 49
75.0
 49
-5.0
  0
LTYPE
  2
LONG5
 70
    64
  3
----------  --  ----------  --  
 72
    65
 73
     4
 40
60.0
 49
37.5
 49
-7.5
 49
7.5
 49
-7.5
  0
LTYPE
  2
dashed
 70
   64
  3
-------   -------------   ------
 72
   65
 73
    2
 40
7.5
 49
6
 49
-1.5
  0
LTYPE
  2
dashed_spaced
 70
   64
  3
----        --------        ----
 72
   65
 73
    2
 40
12
 49
6
 49
-6
  0
LTYPE
  2
long_dashed_dotted
 70
   64
  3
------------- --- --------------
 72
   65
 73
    4
 40
15.25
 49
12
 49
-1.5
 49
0.25
 49
-1.5
  0
LTYPE
  2
long_dashed_double-dotted
 70
   64
  3
----------- --- --- ------------
 72
   65
 73
    6
 40
17
 49
12
 49
-1.5
 49
0.25
 49
-1.5
 49
0.25
 49
-1.5
  0
LTYPE
  2
long_dashed_triplicate-dotted
 70
   64
  3
--------- --- --- --- ----------
 72
   65
 73
    8
 40
18.75
 49
12
 49
-1.5
 49
0.25
 49
-1.5
 49
0.25
 49
-1.5
 49
0.25
 49
-1.5
  0
LTYPE
  2
dotted
 70
   64
  3
   -       -       -       -    
 72
   65
 73
    2
 40
1.75
 49
0.25
 49
-1.5
  0
LTYPE
  2
chain
 70
   64
  3
-------------- -- --------------
 72
   65
 73
    4
 40
18.5
 49
12
 49
-1.5
 49
3.5
 49
-1.5
  0
LTYPE
  2
chain_double_dash
 70
   64
  3
------------ -- -- -------------
 72
   65
 73
    6
 40
23.5
 49
12
 49
-1.5
 49
3.5
 49
-1.5
 49
3.5
 49
-1.5
  0
LTYPE
  2
dashed_dotted
 70
   64
  3
-----------     -     ----------
 72
   65
 73
    4
 40
9.25
 49
6
 49
-1.5
 49
0.25
 49
-1.5
  0
LTYPE
  2
double-dashed_dotted
 70
   64
  3
------   -----------   -   -----
 72
   65
 73
    6
 40
16.75
 49
6
 49
-1.5
 49
6
 49
-1.5
 49
0.25
 49
-1.5
  0
LTYPE
  2
dashed_double-dotted
 70
   64
  3
---------    -    -    ---------
 72
   65
 73
    6
 40
11
 49
6
 49
-1.5
 49
0.25
 49
-1.5
 49
0.25
 49
-1.5
  0
LTYPE
  2
double-dashed_double-dotted
 70
   64
  3
-----   ---------   -   -   ----
 72
   65
 73
    8
 40
18.5
 49
6
 49
-1.5
 49
6
 49
-1.5
 49
0.25
 49
-1.5
 49
0.25
 49
-1.5
  0
LTYPE
  2
dashed_triplicate-dotted
 70
   64
  3
-------    -    -    -    ------
 72
   65
 73
    8
 40
12.75
 49
6
 49
-1.5
 49
0.25
 49
-1.5
 49
0.25
 49
-1.5
 49
0.25
 49
-1.5
  0
LTYPE
  2
double-dashed_triplicate-dotted
 70
   64
  3
-----  ---------  -  -  -  -----
 72
   65
 73
   10
 40
20.25
 49
6
 49
-1.5
 49
6
 49
-1.5
 49
0.25
 49
-1.5
 49
0.25
 49
-1.5
 49
0.25
 49
-1.5
  0
LTYPE
  2
undefined
 70
   64
  3
--------------------------------
 72
   65
 73
    0
 40
0
  0
ENDTAB
  0
TABLE
  2
STYLE
  5
3
100
AcDbSymbolTable
 70
     1
  0
STYLE
  5
10
100
AcDbSymbolTableRecord
100
AcDbTextStyleTableRecord
  2
STANDARD
 70
     0
 40
0.0
 41
1.0
 50
0.0
 71
     0
 42
0.2
  3
txt
  4
bigfont.shx
  0
STYLE
  5
26
100
AcDbSymbolTableRecord
100
AcDbTextStyleTableRecord
  2
TATEGAKI
 70
    68
 40
0.0
 41
1.0
 50
0.0
 71
     0
 42
1.0
  3
txt
  4
bigfont.shx
  0
ENDTAB
  0
TABLE
  2
LAYER
 70
    2
  0
LAYER
  2
_0-0_
 70
   64
 62
    7
  6
CONTINUOUS
  0
LAYER
  2
ADD_LINE
 70
   64
 62
    7
  6
CONTINUOUS
  0
ENDTAB
  0
ENDSEC
  0
SECTION
  2
BLOCKS
  0
ENDSEC
  0
SECTION
  2
ENTITIES
  0
LINE
  8
_0-0_
  6
CONTINUOUS
 62
    7
 10
672.13606690525205
 20
1633.356554367115
 11
672.13606690525205
 21
167.53106997205509
  0
LINE
  8
_0-0_
  6
CONTINUOUS
 62
    7
 10
1246.7101308514902
 20
1158.4308759007229
 11
1246.7101308514902
 21
1407.9188809007258
  0
LINE
  8
_0-0_
  6
CONTINUOUS
 62
    7
 10
1234.7577348514897
 20
1158.4308759007229
 11
1219.7577478514904
 21
1158.4308759007229
  0
LINE
  8
_0-0_
  6
CONTINUOUS
 62
    7
 10
1227.7577248514899
 20
1202.8308589007258
 11
1227.7577248514899
 21
1188.8308989007248
  0
LINE
  8
_0-0_
  6
CONTINUOUS
 62
    7
 10
1199.7578058514919
 20
1188.8308989007248
 11
1199.7578058514919
 21
1202.8308589007258
  0
LINE
  8
_0-0_
  6
CONTINUOUS
 62
    7
 10
1218.7527088514908
 20
1162.8897409007234
 11
1218.2577678514899
 21
1159.9308559007234
  0
LINE
  8
_0-0_
  6
CONTINUOUS
 62
    7
 10
1224.8271708514912
 20
1158.4308759007229
 11
1224.7577638514904
 21
1158.3614689007238
  0
LINE
  8
_0-0_
  6
CONTINUOUS
 62
    2
 10
1290.8584366317336
 20
1117.4315592129471
 11
1292.2578008514902
 21
1118.8309234327037
  0
LINE
  8
_0-0_
  6
CONTINUOUS
 62
    2
 10
1288.6827866533313
 20
1118.0843363592915
 11
1292.2578008514902
 21
1121.6593505574467
  0
LINE
  8
_0-0_
  6
CONTINUOUS
 62
    2
 10
1286.3354227919044
 20
1118.5653996226076
 11
1292.2578008514902
 21
1124.4877776821934
  0
LINE
  8
_0-0_
  6
CONTINUOUS
 62
    2
 10
1283.7904937724852
 20
1118.8488977279351
 11
1292.2578008514902
 21
1127.31620480694
  0
LINE
  8
_0-0_
  6
CONTINUOUS
 62
    2
 10
1281.0032744238306
 20
1118.8901055040271
 11
1292.2578008514902
 21
1130.1446319316867
  0
LINE
  8
_0-0_
  6
CONTINUOUS
 62
    2
 10
1277.8897504679371
 20
1118.6050086728803
 11
1292.2578008514902
 21
1132.9730590564334
  0
LINE
  8
_0-0_
  6
CONTINUOUS
 62
    2
 10
1234.1488606690491
 20
1142.7463698678996
 11
1234.6512779960431
 21
1143.2487871948954
  0
LINE
  8
_0-0_
  6
CONTINUOUS
 62
    2
 10
1231.6467906053094
 20
1143.0727269289066
 11
1234.178881823038
 21
1145.6048181466369
  0
LINE
  8
_0-0_
  6
CONTINUOUS
 62
    2
 10
1229.1447205415716
 20
1143.3990839899172
 11
1233.878946400615
 21
1148.1333098489606
  0
LINE
  8
_0-0_
  6
CONTINUOUS
 62
    2
 10
1226.6426504778337
 20
1143.7254410509242
 11
1233.7828777669201
 21
1150.8656683400088
  0
LINE
  8
_0-0_
  6
CONTINUOUS
 62
    2
 10
1224.7577638514904
 20
1144.6689815493276
 11
1233.9448988117474
 21
1153.8561165095828
  0
LINE
  8
_0-0_
  6
CONTINUOUS
 62
    2
 10
1224.7577638514886
 20
1147.4974086740706
 11
1234.47003285348
 21
1157.2096776760638
  0
LINE
  8
_0-0_
  6
CONTINUOUS
 62
    2
 10
1224.7577638514904
 20
1150.3258357988173
 11
1232.862803953396
 21
1158.4308759007229
  0
LINE
  8
_0-0_
  6
CONTINUOUS
 62
    2
 10
1224.7577638514904
 20
1153.1542629235639
 11
1230.0343768286493
 21
1158.4308759007229
  0
LINE
  8
_0-0_
  6
CONTINUOUS
 62
    2
 10
1224.7577638514886
 20
1155.9826900483106
 11
1227.2059497039027
 21
1158.4308759007229
  0
LINE
  8
_0-0_
  6
CONTINUOUS
 62
    2
 10
1234.7577348514906
 20
1158.4308759007247
 11
1234.0242643880733
 21
1154.5601293686836
  0
LINE
  8
_0-0_
  6
CONTINUOUS
 62
    2
 10
1234.0242643880733
 20
1154.5601293686836
 11
1233.7820427615941
 21
1150.5698760409016
  0
LINE
  8
_0-0_
  6
CONTINUOUS
 62
    2
 10
1233.7820427615941
 20
1150.5698760409016
 11
1234.0384297536036
 21
1146.5813577455776
  0
LINE
  8
_0-0_
  6
CONTINUOUS
 62
    2
 10
1234.0384297536036
 20
1146.5813577455776
 11
1234.7856351750877
 21
1142.7157635928274
  0
LINE
  8
_0-0_
  6
CONTINUOUS
 62
    2
 10
1234.7856351750877
 20
1142.7157635928274
 11
1234.7999205922001
 21
1142.6614489833348
  0
LINE
  8
_0-0_
  6
CONTINUOUS
 62
    2
 10
1224.7577638514904
 20
1153.9206659007225
 11
1224.7577638514904
 21
1158.3614689007238
  0
TEXT
  8
_0-0_
 62
    7
 10
1429.6891920142098
 20
576.02721287347799
 40
40
 41
1
 50
0
  1
Ｂ
  0
LINE
  8
_0-0_
  6
CONTINUOUS
 62
    7
 10
672.13606690525205
 20
567.531069972056
 11
1706.8525777203686
 21
567.531069972056
  0
LINE
  8
_0-0_
  6
CONTINUOUS
 62
    7
 10
672.13606690525205
 20
167.53106997205509
 11
1706.8525777203686
 21
167.53106997205509
  0
LINE
  8
_0-0_
  6
CONTINUOUS
 62
    7
 10
672.13606690525205
 20
627.531069972056
 11
1706.8525777203686
 21
627.531069972056
  0
LINE
  8
_0-0_
  6
CONTINUOUS
 62
    7
 10
1189.4943223128103
 20
627.531069972056
 11
1189.4943223128103
 21
167.53106997205509
  0
LINE
  8
_0-0_
  6
CONTINUOUS
 62
    7
 10
1706.8525777203686
 20
1633.356554367115
 11
1706.8525777203686
 21
167.53106997205509
  0
TEXT
  8
_0-0_
 62
    7
 10
906.73245032900388
 20
575.67973412101333
 40
40
 41
1
 50
0
  1
Ａ
  0
LINE
  8
_0-0_
  6
CONTINUOUS
 62
    7
 10
1227.7577248514899
 20
1261.8306569007229
 11
1227.7577248514899
 21
1203.8308869007244
  0
LINE
  8
_0-0_
  6
CONTINUOUS
 62
    7
 10
1199.7578058514919
 20
1261.8306569007229
 11
1199.7578058514919
 21
1203.8308869007244
  0
LINE
  8
_0-0_
  6
CONTINUOUS
 62
    7
 10
1227.7577248514899
 20
1291.8307559007237
 11
1227.7577248514899
 21
1262.8308089007235
  0
LINE
  8
_0-0_
  6
CONTINUOUS
 62
    7
 10
1199.7578058514919
 20
1291.8307559007237
 11
1199.7578058514919
 21
1262.8308089007235
  0
TEXT
  8
_0-0_
 62
    7
 10
1331.295700049488
 20
1362.9522484540259
 40
24
 41
1
 50
0
  1
屋外側
  0
LINE
  8
_0-0_
  6
CONTINUOUS
 62
    2
 10
1277.7101508514897
 20
1124.0822633059263
 11
1287.8562358039126
 21
1134.2283482583491
  0
LINE
  8
_0-0_
  6
CONTINUOUS
 62
    2
 10
1277.7101508514897
 20
1126.910690430673
 11
1285.3541657443602
 21
1134.5547053235398
  0
LINE
  8
_0-0_
  6
CONTINUOUS
 62
    2
 10
1277.7101508514897
 20
1129.7391175554196
 11
1282.8520956848042
 21
1134.8810623887341
  0
LINE
  8
_0-0_
  6
CONTINUOUS
 62
    2
 10
1277.7101508514897
 20
1132.5675446801627
 11
1280.3500256252501
 21
1135.2074194539248
  0
LINE
  8
_0-0_
  6
CONTINUOUS
 62
    2
 10
1277.7101508514897
 20
1135.3959718049093
 11
1277.8479555656959
 21
1135.5337765191155
  0
LINE
  8
_0-0_
  6
CONTINUOUS
 62
    2
 10
1277.7101508514897
 20
1121.2538361811796
 11
1290.3583058634649
 21
1133.9019911931548
  0
LINE
  8
_0-0_
  6
CONTINUOUS
 62
    2
 10
1292.257806551477
 20
1116.8933563878663
 11
1288.9219918256699
 21
1118.0227373127204
  0
LINE
  8
_0-0_
  6
CONTINUOUS
 62
    2
 10
1288.9219918256699
 20
1118.0227373127204
 11
1285.3753690350925
 21
1118.7005167924924
  0
LINE
  8
_0-0_
  6
CONTINUOUS
 62
    2
 10
1285.3753690350925
 20
1118.7005167924924
 11
1281.7257005185588
 21
1118.9061008406629
  0
LINE
  8
_0-0_
  6
CONTINUOUS
 62
    2
 10
1281.7257005185588
 20
1118.9061008406629
 11
1278.0838796071223
 21
1118.6332428899582
  0
LINE
  8
_0-0_
  6
CONTINUOUS
 62
    2
 10
1278.0838796071223
 20
1118.6332428899582
 11
1277.710150851492
 21
1118.5776172159342
  0
LINE
  8
_0-0_
  6
CONTINUOUS
 62
    2
 10
842.74235731494639
 20
451.85146659662973
 11
841.27541638811181
 21
444.1099735325476
  0
LINE
  8
_0-0_
  6
CONTINUOUS
 62
    2
 10
841.27541638811181
 20
444.1099735325476
 11
840.79097313515354
 21
436.12946687698349
  0
LINE
  8
_0-0_
  6
CONTINUOUS
 62
    2
 10
840.79097313515354
 20
436.12946687698349
 11
841.3037471191725
 21
428.15243028633546
  0
LINE
  8
_0-0_
  6
CONTINUOUS
 62
    2
 10
841.3037471191725
 20
428.15243028633546
 11
842.79815796214052
 21
420.42124198083508
  0
LINE
  8
_0-0_
  6
CONTINUOUS
 62
    2
 10
842.79815796214052
 20
420.42124198083508
 11
842.82672879636539
 21
420.31261276184995
  0
LINE
  8
_0-0_
  6
CONTINUOUS
 62
    2
 10
822.7424153149442
 20
446.95509489180517
 11
827.63878701977058
 21
451.85146659662973
  0
LINE
  8
_0-0_
  6
CONTINUOUS
 62
    2
 10
822.74241531494602
 20
441.29824064231184
 11
833.29564126926391
 21
451.85146659662973
  0
LINE
  8
_0-0_
  6
CONTINUOUS
 62
    2
 10
822.74241531494602
 20
435.6413863928185
 11
838.95249551875725
 21
451.85146659662973
  0
LINE
  8
_0-0_
  6
CONTINUOUS
 62
    2
 10
822.7424153149442
 20
429.98453214332517
 11
842.16695331892527
 21
449.40907014730806
  0
LINE
  8
_0-0_
  6
CONTINUOUS
 62
    2
 10
822.74241531494602
 20
424.32767789383547
 11
841.11668523546007
 21
442.70194781434952
  0
LINE
  8
_0-0_
  6
CONTINUOUS
 62
    2
 10
826.51218856763273
 20
422.44059689702885
 11
840.79264314580553
 21
436.72105147520165
  0
LINE
  8
_0-0_
  6
CONTINUOUS
 62
    2
 10
831.51632869510843
 20
421.78788277501485
 11
840.98478041319697
 21
431.25633449310521
  0
LINE
  8
_0-0_
  6
CONTINUOUS
 62
    2
 10
836.52046882258412
 20
421.13516865299721
 11
841.58465125803934
 21
426.19935108845425
  0
LINE
  8
_0-0_
  6
CONTINUOUS
 62
    2
 10
841.52460895006345
 20
420.4824545309832
 11
842.52944360405138
 21
421.48728918497113
  0
LINE
  8
_0-0_
  6
CONTINUOUS
 62
    2
 10
929.00638854783949
 20
372.19973214094102
 11
957.7424893149456
 21
400.93583290804713
  0
LINE
  8
_0-0_
  6
CONTINUOUS
 62
    2
 10
935.23343645962461
 20
372.76992580323463
 11
957.74248931494378
 21
395.2789786585538
  0
LINE
  8
_0-0_
  6
CONTINUOUS
 62
    2
 10
940.80787515693385
 20
372.68751025105416
 11
957.74248931494378
 21
389.62212440906046
  0
LINE
  8
_0-0_
  6
CONTINUOUS
 62
    2
 10
945.89773319577409
 20
372.12051404039926
 11
957.74248931494378
 21
383.96527015957076
  0
LINE
  8
_0-0_
  6
CONTINUOUS
 62
    2
 10
950.59246091862963
 20
371.15838751376327
 11
957.74248931494378
 21
378.30841591007743
  0
LINE
  8
_0-0_
  6
CONTINUOUS
 62
    2
 10
954.94376087543071
 20
369.85283322107466
 11
957.74248931494742
 21
372.65156166059137
  0
LINE
  8
_0-0_
  6
CONTINUOUS
 62
    2
 10
928.64718931494656
 20
405.78165840500264
 11
928.92279874335702
 21
406.05726783341493
  0
LINE
  8
_0-0_
  6
CONTINUOUS
 62
    2
 10
928.64718931494656
 20
400.12480415551295
 11
933.92693886246536
 21
405.40455370302993
  0
LINE
  8
_0-0_
  6
CONTINUOUS
 62
    2
 10
928.64718931494656
 20
394.46794990601961
 11
938.93107898157552
 21
404.75183957264858
  0
LINE
  8
_0-0_
  6
CONTINUOUS
 62
    2
 10
928.64718931494656
 20
388.81109565652628
 11
943.93521910068387
 21
404.09912544226358
  0
LINE
  8
_0-0_
  6
CONTINUOUS
 62
    2
 10
928.64718931494656
 20
383.15424140703658
 11
948.93935921978857
 21
403.44641131187859
  0
LINE
  8
_0-0_
  6
CONTINUOUS
 62
    2
 10
928.64718931494656
 20
377.49738715754324
 11
953.94349933889691
 21
402.7936971814936
  0
LINE
  8
_0-0_
  6
CONTINUOUS
 62
    2
 10
957.74250071491758
 20
368.77642757091314
 11
951.07087126330327
 21
371.03518942062112
  0
LINE
  8
_0-0_
  6
CONTINUOUS
 62
    2
 10
951.07087126330327
 20
371.03518942062112
 11
943.97762568214853
 21
372.39074838016535
  0
LINE
  8
_0-0_
  6
CONTINUOUS
 62
    2
 10
943.97762568214853
 20
372.39074838016535
 11
936.6782886490812
 21
372.80191647650605
  0
LINE
  8
_0-0_
  6
CONTINUOUS
 62
    2
 10
936.6782886490812
 20
372.80191647650605
 11
929.39464682620815
 21
372.25620057509695
  0
LINE
  8
_0-0_
  6
CONTINUOUS
 62
    2
 10
929.39464682620815
 20
372.25620057509695
 11
928.64718931494747
 21
372.14494922704893
  0
LINE
  8
_0-0_
  6
CONTINUOUS
 62
    4
 10
928.64718931494656
 20
214.67089664052514
 11
928.64718931494656
 21
406.05726783341493
  0
POINT
  8
_0-0_
 62
    7
 10
942.75965935177749
 20
388.05603718148382
  0
POINT
  8
_0-0_
 62
    7
 10
831.68997338364727
 20
436.45852422688154
  0
LINE
  8
_0-0_
  6
CONTINUOUS
 62
    7
 10
831.68997338364727
 20
436.45852422688154
 11
996.14633613430863
 21
480.52447381608113
  0
LINE
  8
_0-0_
  6
CONTINUOUS
 62
    7
 10
942.75965935177749
 20
388.05603718148382
 11
996.14633613430863
 21
480.52447381608113
  0
POINT
  8
_0-0_
 62
    7
 10
1286.903082906887
 20
1123.6868402357752
  0
POINT
  8
_0-0_
 62
    7
 10
1229.1151358979714
 20
1151.5106665733995
  0
LINE
  8
_0-0_
  6
CONTINUOUS
 62
    7
 10
1229.1151358979714
 20
1151.5106665733995
 11
1316.4830380296335
 21
1174.9208253939807
  0
LINE
  8
_0-0_
  6
CONTINUOUS
 62
    7
 10
1286.903082906887
 20
1123.6868402357752
 11
1316.4830380296335
 21
1174.9208253939807
  0
POINT
  8
_0-0_
 62
    7
 10
1261.8511876595694
 20
1138.4931934640565
  0
LINE
  8
_0-0_
  6
CONTINUOUS
 62
    7
 10
1261.8511876595694
 20
1138.4931934640565
 11
1327.7826796257596
 21
1252.6898873683178
  0
CIRCLE
  8
_0-0_
  6
DASHED2
 62
    1
 10
1258.5714548320211
 20
1144.3159067424906
 40
52.755020399010462
  0
TEXT
  8
_0-0_
 62
    7
 10
1253.8413721441866
 20
1193.8341614730282
 40
24
 41
1
 50
0
  1
Ａ
  0
TEXT
  8
_0-0_
 62
    7
 10
946.89278712563839
 20
1361.7621465564309
 40
24
 41
1
 50
0
  1
ＰＨ屋内側
  0
TEXT
  8
_0-0_
 62
    7
 10
1324.4513888072288
 20
1254.1932942301949
 40
30
 41
1
 50
0
  1
水切板
  0
TEXT
  8
_0-0_
 62
    7
 10
1323.2880865791667
 20
1165.3036745014554
 40
30
 41
1
 50
0
  1
ｼｰﾘﾝｸﾞ
  0
LINE
  8
_0-0_
  6
CONTINUOUS
 62
    7
 10
809.30481685149073
 20
823.43079690072614
 11
998.75777785148978
 21
823.43079690072614
  0
LINE
  8
_0-0_
  6
CONTINUOUS
 62
    7
 10
1398.7577778514897
 20
823.43079690072614
 11
1533.1415198514915
 21
823.43079690072614
  0
LINE
  8
_0-0_
  6
CONTINUOUS
 62
    7
 10
998.75777785148978
 20
756.46821290072535
 11
998.75777785148978
 21
823.43079690072614
  0
LINE
  8
_0-0_
  6
CONTINUOUS
 62
    7
 10
1398.7577778514897
 20
756.46821290072535
 11
1398.7577778514897
 21
823.43079690072614
  0
LINE
  8
_0-0_
  6
CONTINUOUS
 62
    7
 10
1136.7101388514893
 20
1093.4307849007248
 11
1271.7101508514897
 21
1082.180809900726
  0
LINE
  8
_0-0_
  6
CONTINUOUS
 62
    7
 10
1136.7101388514893
 20
1093.4307849007248
 11
1136.7101388514893
 21
928.43079690072614
  0
LINE
  8
_0-0_
  6
CONTINUOUS
 62
    7
 10
924.71006985149154
 20
1085.4308079007253
 11
924.71006985149154
 21
928.43079690072614
  0
LINE
  8
_0-0_
  6
CONTINUOUS
 62
    7
 10
924.71006985149154
 20
1085.4308079007253
 11
1136.7101388514893
 21
1085.4308079007253
  0
LINE
  8
_0-0_
  6
CONTINUOUS
 62
    7
 10
906.71009385149239
 20
1093.430846900724
 11
906.71009385149239
 21
963.43078890072252
  0
LINE
  8
_0-0_
  6
CONTINUOUS
 62
    7
 10
909.7100258514912
 20
963.43078890072252
 11
909.7100258514912
 21
1093.430846900724
  0
LINE
  8
_0-0_
  6
CONTINUOUS
 62
    7
 10
896.71002685149153
 20
953.43078990072286
 11
809.30481685149073
 21
953.43078990072286
  0
LINE
  8
_0-0_
  6
CONTINUOUS
 62
    7
 10
896.71002685149153
 20
950.43078990072286
 11
809.30481685149073
 21
950.43078990072286
  0
LINE
  8
_0-0_
  6
CONTINUOUS
 62
    7
 10
916.71009285149205
 20
1103.4308459007236
 11
1108.7101578514903
 21
1103.4308459007236
  0
LINE
  8
_0-0_
  6
CONTINUOUS
 62
    7
 10
1108.7101578514903
 20
1100.4307899007229
 11
916.71009285149205
 21
1100.4307899007229
  0
ARC
  8
_0-0_
  6
CONTINUOUS
 62
    7
 10
896.71002685149153
 20
963.43078890072252
 40
10.000067000000399
 50
270
 51
0
  0
ARC
  8
_0-0_
  6
CONTINUOUS
 62
    7
 10
896.71002685149153
 20
963.43078890072252
 40
12.999999000000116
 50
270
 51
0
  0
ARC
  8
_0-0_
  6
CONTINUOUS
 62
    7
 10
916.71009285149205
 20
1093.430846900724
 40
9.9999990000001162
 50
90
 51
180
  0
ARC
  8
_0-0_
  6
CONTINUOUS
 62
    7
 10
916.71009285149205
 20
1093.430846900724
 40
6.9999990000001162
 50
89.770816709356467
 51
180
  0
ARC
  8
_0-0_
  6
CONTINUOUS
 62
    7
 10
1108.7101578514903
 20
1113.4307889007225
 40
9.9999990000001162
 50
270
 51
0
  0
ARC
  8
_0-0_
  6
CONTINUOUS
 62
    7
 10
1108.7101578514903
 20
1113.4307889007225
 40
12.999999000000116
 50
270
 51
0
  0
LINE
  8
_0-0_
  6
CONTINUOUS
 62
    7
 10
1112.7101458514917
 20
1173.4308629007257
 11
1128.5798848514896
 21
1173.4308629007257
  0
LINE
  8
_0-0_
  6
CONTINUOUS
 62
    7
 10
1114.2101258514904
 20
1174.9308429007226
 11
1114.2101258514904
 21
1201.930857900724
  0
LINE
  8
_0-0_
  6
CONTINUOUS
 62
    7
 10
1112.7101458514917
 20
1203.4308379007246
 11
1112.7101458514917
 21
1173.4308629007257
  0
LINE
  8
_0-0_
  6
CONTINUOUS
 62
    7
 10
1114.2101258514904
 20
1201.930857900724
 11
1187.7101458514917
 21
1201.930857900724
  0
LINE
  8
_0-0_
  6
CONTINUOUS
 62
    7
 10
1136.7101388514893
 20
1407.9188809007258
 11
1136.7101388514893
 21
1203.4308379007246
  0
LINE
  8
_0-0_
  6
CONTINUOUS
 62
    7
 10
1187.7101458514917
 20
1407.9188809007258
 11
1187.7101458514917
 21
1201.930857900724
  0
LINE
  8
_0-0_
  6
CONTINUOUS
 62
    7
 10
1112.7101458514917
 20
1203.4308379007246
 11
1187.7101458514917
 21
1203.4308379007246
  0
LINE
  8
_0-0_
  6
CONTINUOUS
 62
    7
 10
1118.7101568514918
 20
1113.4307889007225
 11
1118.7101568514918
 21
1173.4308629007257
  0
LINE
  8
_0-0_
  6
CONTINUOUS
 62
    7
 10
1121.7101568514918
 20
1113.4307889007225
 11
1121.7101568514918
 21
1173.4308629007257
  0
LINE
  8
_0-0_
  6
CONTINUOUS
 62
    7
 10
1174.7577228514892
 20
1197.4308559007234
 11
1174.7577228514892
 21
1182.4308679007238
  0
LINE
  8
_0-0_
  6
CONTINUOUS
 62
    7
 10
1173.2577428514905
 20
1195.9308759007229
 11
1173.2577428514905
 21
1181.1391079007237
  0
LINE
  8
_0-0_
  6
CONTINUOUS
 62
    7
 10
1174.7577228514892
 20
1182.4308679007238
 11
1234.7577348514897
 21
1173.4308629007257
  0
LINE
  8
_0-0_
  6
CONTINUOUS
 62
    7
 10
1173.2577428514905
 20
1181.1391079007237
 11
1233.2577548514892
 21
1172.1391039007224
  0
LINE
  8
_0-0_
  6
CONTINUOUS
 62
    7
 10
1218.2577678514899
 20
1159.9308559007234
 11
1233.2577548514892
 21
1159.9308559007234
  0
LINE
  8
_0-0_
  6
CONTINUOUS
 62
    7
 10
1234.7577348514897
 20
1173.4308629007257
 11
1234.7577348514897
 21
1158.4308759007229
  0
LINE
  8
_0-0_
  6
CONTINUOUS
 62
    7
 10
1233.2577548514892
 20
1172.1391039007224
 11
1233.2577548514892
 21
1159.9308559007234
  0
LINE
  8
_0-0_
  6
CONTINUOUS
 62
    7
 10
1218.2577678514899
 20
1159.9308559007234
 11
1218.2577678514899
 21
1143.4308879007233
  0
LINE
  8
_0-0_
  6
CONTINUOUS
 62
    7
 10
1219.7577478514904
 20
1158.4308759007229
 11
1219.7577478514904
 21
1143.4308879007233
  0
LINE
  8
_0-0_
  6
CONTINUOUS
 62
    7
 10
1218.2577678514899
 20
1143.4308879007233
 11
1219.7577478514904
 21
1143.4308879007233
  0
LINE
  8
_0-0_
  6
CONTINUOUS
 62
    7
 10
1224.7577638514904
 20
1153.9206659007225
 11
1223.2577838514917
 21
1153.9206659007225
  0
LINE
  8
_0-0_
  6
CONTINUOUS
 62
    7
 10
1223.2577838514917
 20
1153.9206659007225
 11
1223.2577838514917
 21
1142.6542359007228
  0
LINE
  8
_0-0_
  6
CONTINUOUS
 62
    7
 10
1224.7577638514904
 20
1153.9206659007225
 11
1224.7577638514904
 21
1143.971295900724
  0
LINE
  8
_0-0_
  6
CONTINUOUS
 62
    7
 10
1224.7577638514904
 20
1143.971295900724
 11
1293.757781851491
 21
1134.971290900726
  0
LINE
  8
_0-0_
  6
CONTINUOUS
 62
    7
 10
1223.2577838514917
 20
1142.6542359007228
 11
1292.2578008514902
 21
1133.6542309007248
  0
LINE
  8
_0-0_
  6
CONTINUOUS
 62
    7
 10
1293.757781851491
 20
1134.971290900726
 11
1293.757781851491
 21
1113.9713209007252
  0
LINE
  8
_0-0_
  6
CONTINUOUS
 62
    7
 10
1292.2578008514902
 20
1133.6542309007248
 11
1292.2578008514902
 21
1113.9713209007252
  0
LINE
  8
_0-0_
  6
CONTINUOUS
 62
    7
 10
1292.2578008514902
 20
1113.9713209007252
 11
1293.757781851491
 21
1113.9713209007252
  0
LINE
  8
_0-0_
  6
CONTINUOUS
 62
    7
 10
1271.7101508514897
 20
928.43079690072614
 11
1271.7101508514897
 21
1136.3343599902303
  0
CIRCLE
  8
_0-0_
  6
CONTINUOUS
 62
    7
 10
1198.7577778514897
 20
1375.1677459007235
 40
1.25
  0
CIRCLE
  8
_0-0_
  6
CONTINUOUS
 62
    7
 10
1198.7577778514897
 20
1375.1677459007235
 40
2.5
  0
LINE
  8
_0-0_
  6
CONTINUOUS
 62
    7
 10
1084.9669458514909
 20
1375.1677459007235
 11
1306.0883878514906
 21
1375.1677459007235
  0
LINE
  8
_0-0_
  6
CONTINUOUS
 62
    7
 10
1099.4557848514905
 20
1379.0500769007242
 11
1084.9669458514909
 21
1375.1677459007235
  0
LINE
  8
_0-0_
  6
CONTINUOUS
 62
    7
 10
1084.9669458514909
 20
1375.1677459007235
 11
1099.4557848514905
 21
1371.2854159007231
  0
LINE
  8
_0-0_
  6
CONTINUOUS
 62
    7
 10
1291.5994878514903
 20
1379.0500769007242
 11
1306.0883878514906
 21
1375.1677459007235
  0
LINE
  8
_0-0_
  6
CONTINUOUS
 62
    7
 10
1306.0883878514906
 20
1375.1677459007235
 11
1291.5994878514903
 21
1371.2854159007231
  0
LINE
  8
_0-0_
  6
CONTINUOUS
 62
    7
 10
1234.7577348514897
 20
1158.4308759007229
 11
1246.7101308514902
 21
1158.4308759007229
  0
LINE
  8
_0-0_
  6
CONTINUOUS
 62
    7
 10
1234.7577348514897
 20
1158.4308759007229
 11
1234.7577348514897
 21
1407.9188809007258
  0
LINE
  8
_0-0_
  6
CONTINUOUS
 62
    7
 10
1199.7578058514919
 20
1188.8308989007248
 11
1227.7577248514899
 21
1188.8308989007248
  0
LINE
  8
_0-0_
  6
CONTINUOUS
 62
    7
 10
1198.7577778514897
 20
1187.8308709007226
 11
1228.7577528514903
 21
1187.8308709007226
  0
ARC
  8
_0-0_
  6
CONTINUOUS
 62
    7
 10
1213.7577648514889
 20
1202.8308599007225
 40
3.999999072974235
 50
112.02387131587876
 51
67.976128684080152
  0
ARC
  8
_0-0_
  6
CONTINUOUS
 62
    7
 10
1213.7577648514889
 20
1202.8308599007225
 40
5.0000285827050082
 50
112.02387131587513
 51
67.976128684075547
  0
LINE
  8
_0-0_
  6
CONTINUOUS
 62
    7
 10
1211.8827898514901
 20
1207.4660249007259
 11
1212.257793773766
 21
1206.5389698437768
  0
LINE
  8
_0-0_
  6
CONTINUOUS
 62
    7
 10
1215.6327398514914
 20
1207.4660249007222
 11
1215.2577359292136
 21
1206.5389698437768
  0
ARC
  8
_0-0_
  6
CONTINUOUS
 62
    7
 10
1213.7577648514907
 20
1262.8308089007235
 40
4.000000000000596
 50
292.02386499999767
 51
247.97613500000236
  0
ARC
  8
_0-0_
  6
CONTINUOUS
 62
    7
 10
1213.7577648514907
 20
1262.8308089007235
 40
5.0000000000003864
 50
292.02386499999795
 51
247.9761350000021
  0
LINE
  8
_0-0_
  6
CONTINUOUS
 62
    7
 10
1215.6327286222331
 20
1258.1956701909978
 11
1215.2577358680865
 21
1259.1226979329433
  0
LINE
  8
_0-0_
  6
CONTINUOUS
 62
    7
 10
1211.8828010807483
 20
1258.1956701909978
 11
1212.2577938348968
 21
1259.1226979329433
  0
CIRCLE
  8
_0-0_
  6
CONTINUOUS
 62
    7
 10
1183.8053922128856
 20
1192.8886145037916
 40
1.2843322407210123
  0
CIRCLE
  8
_0-0_
  6
CONTINUOUS
 62
    7
 10
1183.8053922128856
 20
1192.8886145037916
 40
2.5331176404733706
  0
CIRCLE
  8
_0-0_
  6
CONTINUOUS
 62
    7
 10
1183.8053922128856
 20
1192.8886145037916
 40
7.6084332730519142
  0
LINE
  8
_0-0_
  6
CONTINUOUS
 62
    7
 10
1210.7577396793858
 20
1286.4132203389684
 11
1216.7577900235956
 21
1286.4132203389684
  0
LINE
  8
_0-0_
  6
CONTINUOUS
 62
    7
 10
1210.7577396793858
 20
1286.4132203389684
 11
1210.7577396793858
 21
1407.9188809007258
  0
LINE
  8
_0-0_
  6
CONTINUOUS
 62
    7
 10
1216.7577900235956
 20
1286.4132203389684
 11
1216.7577900235956
 21
1407.9188809007258
  0
ARC
  8
_0-0_
  6
CONTINUOUS
 62
    7
 10
1213.7577648514907
 20
1292.330831900724
 40
6.6346271657932299
 50
184.32269107201483
 51
243.11656212723824
  0
ARC
  8
_0-0_
  6
CONTINUOUS
 62
    7
 10
1213.7577648514907
 20
1292.330831900724
 40
6.6346271657932299
 50
296.88343787276705
 51
355.67730892798511
  0
ARC
  8
_0-0_
  6
CONTINUOUS
 62
    7
 10
1213.7577648514907
 20
1292.330831900724
 40
6.6346271657932299
 50
4.322691072014865
 51
63.11656212723296
  0
ARC
  8
_0-0_
  6
CONTINUOUS
 62
    7
 10
1213.7577648514907
 20
1292.330831900724
 40
6.6346271657932299
 50
116.88343787276175
 51
175.67730892798517
  0
LINE
  8
_0-0_
  6
CONTINUOUS
 62
    7
 10
762.16355773024782
 20
312.22494080962247
 11
916.64718931494656
 21
299.35133459663234
  0
LINE
  8
_0-0_
  6
CONTINUOUS
 62
    7
 10
762.16355773024782
 20
493.93826483187263
 11
842.74235731494639
 21
481.85144059663185
  0
LINE
  8
_0-0_
  6
CONTINUOUS
 62
    7
 10
842.74235731494639
 20
481.85144059663185
 11
842.74235731494639
 21
451.85146659662973
  0
LINE
  8
_0-0_
  6
CONTINUOUS
 62
    7
 10
842.74235731494639
 20
451.85146659662973
 11
812.7423833149461
 21
451.85146659662973
  0
LINE
  8
_0-0_
  6
CONTINUOUS
 62
    7
 10
812.7423833149461
 20
451.85146659662973
 11
812.7423833149461
 21
421.85149059663058
  0
LINE
  8
_0-0_
  6
CONTINUOUS
 62
    7
 10
762.16355773024782
 20
490.90475137889121
 11
839.74239731494538
 21
479.26792259662875
  0
LINE
  8
_0-0_
  6
CONTINUOUS
 62
    7
 10
839.74239731494538
 20
479.26792259662875
 11
839.74239731494538
 21
454.85142659663074
  0
LINE
  8
_0-0_
  6
CONTINUOUS
 62
    7
 10
960.74245131494547
 20
404.93229659663234
 11
822.74241531494602
 21
422.93230659663209
  0
LINE
  8
_0-0_
  6
CONTINUOUS
 62
    7
 10
957.7424893149456
 20
402.2981765966299
 11
957.7424893149456
 21
362.93235659663083
  0
LINE
  8
_0-0_
  6
CONTINUOUS
 62
    7
 10
960.74245131494547
 20
404.93229659663234
 11
960.74245131494547
 21
362.93235659663083
  0
LINE
  8
_0-0_
  6
CONTINUOUS
 62
    7
 10
960.74245131494547
 20
362.93235659663083
 11
957.7424893149456
 21
362.93235659663083
  0
LINE
  8
_0-0_
  6
CONTINUOUS
 62
    7
 10
819.74245531494682
 20
420.29818659662965
 11
819.74245531494682
 21
442.83104659662899
  0
LINE
  8
_0-0_
  6
CONTINUOUS
 62
    7
 10
819.74245531494682
 20
442.83104659662899
 11
822.74241531494602
 21
442.83104659662899
  0
LINE
  8
_0-0_
  6
CONTINUOUS
 62
    7
 10
822.74241531494602
 20
442.83104659662899
 11
822.74241531494602
 21
422.93230659663209
  0
LINE
  8
_0-0_
  6
CONTINUOUS
 62
    7
 10
809.7424233149469
 20
421.85149059663058
 11
812.7423833149461
 21
421.85149059663058
  0
LINE
  8
_0-0_
  6
CONTINUOUS
 62
    2
 10
822.88122931494593
 20
451.85146659662973
 11
822.74241531494602
 21
451.71265259663164
  0
LINE
  8
_0-0_
  6
CONTINUOUS
 62
    2
 10
822.74241531494602
 20
442.83104659662899
 11
822.74241531494602
 21
451.85146659662973
  0
LINE
  8
_0-0_
  6
CONTINUOUS
 62
    7
 10
839.74239731494538
 20
454.85142659663074
 11
809.7424233149469
 21
454.85142659663074
  0
LINE
  8
_0-0_
  6
CONTINUOUS
 62
    7
 10
809.7424233149469
 20
421.85149059663058
 11
809.7424233149469
 21
454.85142659663074
  0
LINE
  8
_0-0_
  6
CONTINUOUS
 62
    7
 10
819.74245531494682
 20
420.29818659662965
 11
957.7424893149456
 21
402.2981765966299
  0
LINE
  8
_0-0_
  6
CONTINUOUS
 62
    7
 10
916.64718931494656
 20
214.67089664052514
 11
916.64718931494656
 21
407.65846659663043
  0
LINE
  8
_0-0_
  6
CONTINUOUS
 62
    7
 10
1136.7101388514893
 20
928.43079690072614
 11
809.30481685149073
 21
928.43079690072614
  0
LINE
  8
_0-0_
  6
CONTINUOUS
 62
    7
 10
1114.2101258514904
 20
1174.9308429007226
 11
1128.5798848514896
 21
1174.9308429007226
  0
LINE
  8
_0-0_
  6
CONTINUOUS
 62
    7
 10
1128.5798848514896
 20
1173.4308629007257
 11
1128.5798848514896
 21
1174.9308429007226
  0
LINE
  8
_0-0_
  6
CONTINUOUS
 62
    7
 10
1209.7577148514902
 20
1291.8307559007237
 11
1199.7578058514919
 21
1291.8307559007237
  0
LINE
  8
_0-0_
  6
CONTINUOUS
 62
    7
 10
1209.7577148514902
 20
1292.8309079007242
 11
1209.7577148514902
 21
1291.8307559007237
  0
LINE
  8
_0-0_
  6
CONTINUOUS
 62
    7
 10
1217.7578148514913
 20
1292.8309079007242
 11
1217.7578148514913
 21
1291.8307559007237
  0
LINE
  8
_0-0_
  6
CONTINUOUS
 62
    7
 10
1217.7578148514913
 20
1291.8307559007237
 11
1227.7577248514899
 21
1291.8307559007237
  0
LINE
  8
_0-0_
  6
CONTINUOUS
 62
    7
 10
1217.7578148514913
 20
1292.8309079007242
 11
1228.7577528514903
 21
1292.8309079007242
  0
LINE
  8
_0-0_
  6
CONTINUOUS
 62
    7
 10
1209.7577148514902
 20
1292.8309079007242
 11
1198.7577778514897
 21
1292.8309079007242
  0
LINE
  8
_0-0_
  6
CONTINUOUS
 62
    7
 10
1198.7577778514897
 20
1187.8308709007226
 11
1198.7577778514897
 21
1407.9188809007258
  0
LINE
  8
_0-0_
  6
CONTINUOUS
 62
    7
 10
1228.7577528514903
 20
1187.8308709007226
 11
1228.7577528514903
 21
1407.9188809007258
  0
LINE
  8
_0-0_
  6
CONTINUOUS
 62
    7
 10
1208.7577648514907
 20
1262.8308089007235
 11
1198.7577778514897
 21
1262.8308089007235
  0
LINE
  8
_0-0_
  6
CONTINUOUS
 62
    7
 10
1208.8588163952518
 20
1261.8306569007229
 11
1198.7577778514897
 21
1261.8306569007229
  0
LINE
  8
_0-0_
  6
CONTINUOUS
 62
    7
 10
1228.7577528514903
 20
1262.8308089007235
 11
1218.7577648514925
 21
1262.8308089007235
  0
LINE
  8
_0-0_
  6
CONTINUOUS
 62
    7
 10
1228.7577528514903
 20
1261.8306569007229
 11
1218.6567133077315
 21
1261.8306569007229
  0
LINE
  8
_0-0_
  6
CONTINUOUS
 62
    7
 10
1142.7101208514905
 20
1197.4308559007234
 11
1174.7577228514892
 21
1197.4308559007234
  0
LINE
  8
_0-0_
  6
CONTINUOUS
 62
    7
 10
1173.2577428514905
 20
1195.9308759007229
 11
1142.7101208514905
 21
1195.9308759007229
  0
LINE
  8
_0-0_
  6
CONTINUOUS
 62
    7
 10
1142.7101208514905
 20
1197.4308559007234
 11
1142.7101208514905
 21
1195.9308759007229
  0
LINE
  8
_0-0_
  6
CONTINUOUS
 62
    7
 10
1198.7577778514897
 20
1203.8308869007244
 11
1208.858791081484
 21
1203.8308869007244
  0
LINE
  8
_0-0_
  6
CONTINUOUS
 62
    7
 10
1198.7577778514897
 20
1202.8308589007258
 11
1208.7577362687844
 21
1202.8308589007258
  0
LINE
  8
_0-0_
  6
CONTINUOUS
 62
    7
 10
1218.6567679977561
 20
1203.8308869007244
 11
1228.7577528514903
 21
1203.8308869007244
  0
LINE
  8
_0-0_
  6
CONTINUOUS
 62
    7
 10
1228.7577528514903
 20
1202.8308589007258
 11
1218.7577648514907
 21
1202.8308589007258
  0
LINE
  8
_0-0_
  6
CONTINUOUS
 62
    7
 10
1288.731341912513
 20
756.46821290072535
 11
1460.6939259125138
 21
928.43079690072614
  0
LINE
  8
_0-0_
  6
CONTINUOUS
 62
    7
 10
1281.6602741006463
 20
756.46821290072535
 11
1453.6228581006471
 21
928.4307969007225
  0
LINE
  8
_0-0_
  6
CONTINUOUS
 62
    7
 10
1274.5892062887815
 20
756.46821290072535
 11
1446.5517902887823
 21
928.43079690072614
  0
LINE
  8
_0-0_
  6
CONTINUOUS
 62
    7
 10
1062.4571719328178
 20
756.46821290072535
 11
1271.7101508514897
 21
965.7211918193982
  0
LINE
  8
_0-0_
  6
CONTINUOUS
 62
    7
 10
1055.386104120953
 20
756.46821290072535
 11
1271.7101508514916
 21
972.79225963126305
  0
LINE
  8
_0-0_
  6
CONTINUOUS
 62
    7
 10
1048.3150363090863
 20
756.46821290072535
 11
1271.7101508514897
 21
979.8633274431279
  0
LINE
  8
_0-0_
  6
CONTINUOUS
 62
    7
 10
903.14558595312349
 20
823.43079690072614
 11
1008.1455859531235
 21
928.43079690072614
  0
LINE
  8
_0-0_
  6
CONTINUOUS
 62
    7
 10
1136.7101388514893
 20
1056.9953497990912
 11
1170.3428541552239
 21
1090.6280651028239
  0
LINE
  8
_0-0_
  6
CONTINUOUS
 62
    7
 10
896.07451814125682
 20
823.43079690072614
 11
1001.0745181412568
 21
928.4307969007225
  0
LINE
  8
_0-0_
  6
CONTINUOUS
 62
    7
 10
1136.7101388514911
 20
1064.0664176109578
 11
1163.8157134761968
 21
1091.1719922356635
  0
LINE
  8
_0-0_
  6
CONTINUOUS
 62
    7
 10
889.00345032939379
 20
823.43079690072614
 11
994.00345032939379
 21
928.43079690072614
  0
LINE
  8
_0-0_
  6
CONTINUOUS
 62
    7
 10
1136.7101388514911
 20
1071.1374854228227
 11
1157.2885727971734
 21
1091.715919368505
  0
LINE
  8
_0-0_
  6
CONTINUOUS
 62
    7
 10
924.71006985148972
 20
985.01417794187114
 11
981.29345089263745
 21
928.4307969007225
  0
LINE
  8
_0-0_
  6
CONTINUOUS
 62
    7
 10
924.71006985149154
 20
992.08524575373599
 11
988.3645187045023
 21
928.43079690072614
  0
LINE
  8
_0-0_
  6
CONTINUOUS
 62
    7
 10
1050.5676098723306
 20
1085.4308079007253
 11
1136.7101388514911
 21
999.28827892156482
  0
LINE
  8
_0-0_
  6
CONTINUOUS
 62
    7
 10
1057.6386776841991
 20
1085.4308079007235
 11
1136.7101388514893
 21
1006.3593467334333
  0
TEXT
  8
_0-0_
 62
    7
 10
1001.0988581212915
 20
476.35378049866017
 40
21.617968000000001
 41
1
 50
0
  1
ｼｰﾘﾝｸﾞ
  0
LINE
  8
_0-0_
  6
CONTINUOUS
 62
    7
 10
1615.2866476222516
 20
242.04057733962077
 11
1295.7715703592385
 21
242.04057733962077
  0
LINE
  8
_0-0_
  6
CONTINUOUS
 62
    7
 10
1295.7715703592385
 20
242.04057733962077
 11
1295.7715703592385
 21
474.08927348903785
  0
LINE
  8
_0-0_
  6
CONTINUOUS
 62
    7
 10
1354.2715703592385
 20
310.05809018520563
 11
1397.5390832048233
 21
266.79057733962077
  0
LINE
  8
_0-0_
  6
CONTINUOUS
 62
    5
 10
1354.2715703592385
 20
446.79057733962441
 11
1354.2715703592385
 21
266.79057733962441
  0
LINE
  8
_0-0_
  6
CONTINUOUS
 62
    5
 10
1309.2715703592385
 20
446.79057733962441
 11
1354.2715703592385
 21
446.79057733962441
  0
LINE
  8
_0-0_
  6
CONTINUOUS
 62
    5
 10
1309.2715703592385
 20
278.93669223933216
 11
1321.417685258948
 21
266.79057733962441
  0
LINE
  8
_0-0_
  6
CONTINUOUS
 62
    5
 10
1309.2715703592403
 20
291.66461430068853
 11
1334.1456073203044
 21
266.79057733962077
  0
LINE
  8
_0-0_
  6
CONTINUOUS
 62
    5
 10
1309.2715703592385
 20
304.39253636204489
 11
1346.8735293816608
 21
266.79057733962441
  0
LINE
  8
_0-0_
  6
CONTINUOUS
 62
    5
 10
1309.2715703592385
 20
317.1204584234049
 11
1354.2715703592385
 21
272.1204584234049
  0
LINE
  8
_0-0_
  6
CONTINUOUS
 62
    5
 10
1309.2715703592385
 20
329.8483804847649
 11
1354.2715703592385
 21
284.8483804847649
  0
LINE
  8
_0-0_
  6
CONTINUOUS
 62
    5
 10
1309.2715703592385
 20
342.57630254612127
 11
1354.2715703592385
 21
297.57630254612127
  0
LINE
  8
_0-0_
  6
CONTINUOUS
 62
    5
 10
1309.2715703592403
 20
355.30422460748127
 11
1354.2715703592385
 21
310.30422460748127
  0
LINE
  8
_0-0_
  6
CONTINUOUS
 62
    5
 10
1309.2715703592385
 20
368.03214666883764
 11
1354.2715703592385
 21
323.03214666883764
  0
LINE
  8
_0-0_
  6
CONTINUOUS
 62
    5
 10
1309.2715703592385
 20
380.76006873019037
 11
1354.2715703592403
 21
335.76006873019037
  0
LINE
  8
_0-0_
  6
CONTINUOUS
 62
    5
 10
1309.2715703592403
 20
393.48799079154674
 11
1354.2715703592385
 21
348.48799079154674
  0
LINE
  8
_0-0_
  6
CONTINUOUS
 62
    5
 10
1309.2715703592385
 20
406.21591285290674
 11
1354.2715703592403
 21
361.21591285290674
  0
LINE
  8
_0-0_
  6
CONTINUOUS
 62
    5
 10
1309.2715703592385
 20
418.94383491426674
 11
1354.2715703592385
 21
373.94383491427038
  0
LINE
  8
_0-0_
  6
CONTINUOUS
 62
    5
 10
1309.2715703592403
 20
431.67175697562675
 11
1354.2715703592403
 21
386.67175697562675
  0
LINE
  8
_0-0_
  6
CONTINUOUS
 62
    5
 10
1309.2715703592385
 20
444.39967903698675
 11
1354.2715703592385
 21
399.39967903698312
  0
LINE
  8
_0-0_
  6
CONTINUOUS
 62
    5
 10
1319.6085941179554
 20
446.79057733962077
 11
1354.2715703592403
 21
412.12760109833948
  0
LINE
  8
_0-0_
  6
CONTINUOUS
 62
    5
 10
1332.3365161793154
 20
446.79057733962441
 11
1354.2715703592385
 21
424.85552315969949
  0
LINE
  8
_0-0_
  6
CONTINUOUS
 62
    5
 10
1345.0644382406736
 20
446.79057733962077
 11
1354.2715703592385
 21
437.58344522105585
  0
LINE
  8
_0-0_
  6
CONTINUOUS
 62
    7
 10
1354.2715703592385
 20
341.87789533860018
 11
1429.3588883582197
 21
266.79057733962077
  0
LINE
  8
_0-0_
  6
CONTINUOUS
 62
    7
 10
1354.2715703592385
 20
325.96799276190109
 11
1413.4489857815206
 21
266.79057733962077
  0
LINE
  8
_0-0_
  6
CONTINUOUS
 62
    4
 10
1309.2715703592385
 20
474.08927348903785
 11
1309.2715703592385
 21
262.29057733962077
  0
LINE
  8
_0-0_
  6
CONTINUOUS
 62
    7
 10
1615.2866476222516
 20
446.79057733962441
 11
1309.2715703592385
 21
446.79057733962441
  0
LINE
  8
_0-0_
  6
CONTINUOUS
 62
    7
 10
1309.2715703592385
 20
266.79057733962077
 11
1615.2866476222516
 21
266.79057733962077
  0
LINE
  8
_0-0_
  6
CONTINUOUS
 62
    5
 10
1309.2715703592385
 20
264.54057733962077
 11
1615.2866476222516
 21
264.54057733962077
  0
LINE
  8
_0-0_
  6
CONTINUOUS
 62
    4
 10
1309.2715703592385
 20
262.29057733962077
 11
1615.2866476222516
 21
262.29057733962077
  0
LINE
  8
_0-0_
  6
CONTINUOUS
 62
    7
 10
1481.0199515107452
 20
182.04057733962077
 11
1541.0199515107433
 21
242.04057733962077
  0
LINE
  8
_0-0_
  6
CONTINUOUS
 62
    7
 10
1496.9298540874388
 20
182.04057733962077
 11
1556.929854087437
 21
242.04057733962077
  0
LINE
  8
_0-0_
  6
CONTINUOUS
 62
    7
 10
1512.8397566641361
 20
182.04057733962077
 11
1572.8397566641343
 21
242.04057733962077
  0
LINE
  8
_0-0_
  6
CONTINUOUS
 62
    7
 10
1235.7715703592385
 20
414.08927348903785
 11
1295.7715703592385
 21
474.08927348903785
  0
LINE
  8
_0-0_
  6
CONTINUOUS
 62
    7
 10
1235.7715703592385
 20
429.99917606573695
 11
1279.8616677825412
 21
474.08927348903785
  0
LINE
  8
_0-0_
  6
CONTINUOUS
 62
    7
 10
1235.7715703592385
 20
445.90907864243241
 11
1263.9517652058457
 21
474.08927348903785
  0
LINE
  8
_0-0_
  6
CONTINUOUS
 62
    7
 10
1337.0070913603486
 20
422.22473321758775
 11
1365.4419782495916
 21
471.47540201723064
  0
TEXT
  8
_0-0_
 62
    7
 10
1366.8950263163933
 20
463.87287575175401
 40
21.617968000000001
 41
1
 50
0
  1
成型緩衝材
  0
LINE
  8
_0-0_
  6
CONTINUOUS
 62
    7
 10
1572.8397566641343
 20
242.04057733962077
 11
1616.3326564561739
 21
317.3724895479329
  0
POINT
  8
_0-0_
 62
    7
 10
1572.8397566641343
 20
242.04057733962077
  0
TEXT
  8
_0-0_
 62
    7
 10
1621.6964622078849
 20
305.72367738381695
 40
21.617968000000001
 41
1
 50
0
  1
ﾌﾟﾗｲﾏｰ
  0
TEXT
  8
_0-0_
 62
    7
 10
1588.3909703165573
 20
366.58225282264652
 40
21.617968000000001
 41
1
 50
0
  1
ｳﾚﾀﾝ防水
  0
LINE
  8
_0-0_
  6
CONTINUOUS
 62
    7
 10
1516.3921602392893
 20
254.43026020228831
 11
1585.435480011136
 21
374.01679797035217
  0
POINT
  8
_0-0_
 62
    7
 10
1516.3921602392893
 20
254.43026020228831
  0
LINE
  8
_0-0_
  6
CONTINUOUS
 62
    7
 10
1477.172328267794
 20
264.54057733962077
 11
1590.6412247006592
 21
461.07447104011703
  0
POINT
  8
_0-0_
 62
    7
 10
1477.172328267794
 20
264.54057733962077
  0
TEXT
  8
_0-0_
 62
    7
 10
1592.8916308680964
 20
454.45757659927881
 40
21.617968000000001
 41
1
 50
0
  1
絶縁ﾌｨﾙﾑ
  0
POINT
  8
_0-0_
 62
    7
 10
1337.0070913603486
 20
422.22473321758775
  0
POINT
  8
_0-0_
 62
    7
 10
1475.9891043148255
 20
422.22473321758775
  0
LINE
  8
_0-0_
  6
CONTINUOUS
 62
    7
 10
1475.9891043148255
 20
422.22473321758775
 11
1517.8884669606759
 21
494.79655812495298
  0
TEXT
  8
_0-0_
 62
    7
 10
1519.0584562028725
 20
488.06113686358117
 40
21.617968000000001
 41
1
 50
0
  1
保護ｺﾝｸﾘｰﾄ
  0
POINT
  8
_0-0_
 62
    7
 10
1319.6085941179554
 20
446.79057733962077
  0
LINE
  8
_0-0_
  6
CONTINUOUS
 62
    7
 10
1309.2715703592385
 20
464.6948276887681
 11
1345.5799527993968
 21
527.58279081576461
  0
POINT
  8
_0-0_
 62
    7
 10
1309.2715703592385
 20
464.6948276887681
  0
TEXT
  8
_0-0_
 62
    7
 10
1348.4538791280356
 20
522.25566099564935
 40
21.617968000000001
 41
1
 50
0
  1
ﾄｯﾌﾟｺｰﾄ(露出部のみ)
  0
LINE
  8
_0-0_
  6
CONTINUOUS
 62
    7
 10
1433.7016634304182
 20
1019.4307969007252
 11
1277.7101508514897
 21
1019.4307969007252
  0
LINE
  8
_0-0_
  6
CONTINUOUS
 62
    7
 10
1297.7101508514897
 20
958.66080260987223
 11
1316.9401565606386
 21
939.43079690072523
  0
LINE
  8
_0-0_
  6
CONTINUOUS
 62
    7
 10
1297.7101508514897
 20
951.58973479800738
 11
1309.8690887487719
 21
939.43079690072523
  0
LINE
  8
_0-0_
  6
CONTINUOUS
 62
    7
 10
1297.7101508514897
 20
944.51866698614072
 11
1302.7980209369071
 21
939.43079690072523
  0
LINE
  8
_0-0_
  6
CONTINUOUS
 62
    5
 10
1457.7016634304182
 20
1015.9307969007252
 11
1457.7016634304182
 21
939.43079690072523
  0
LINE
  8
_0-0_
  6
CONTINUOUS
 62
    5
 10
1437.7016634304182
 20
1015.9307969007252
 11
1457.7016634304182
 21
1015.9307969007252
  0
LINE
  8
_0-0_
  6
CONTINUOUS
 62
    5
 10
1437.7016634304182
 20
939.43079690072523
 11
1437.7016634304182
 21
1015.9307969007252
  0
LINE
  8
_0-0_
  6
CONTINUOUS
 62
    5
 10
1436.7016634304182
 20
1017.4307969007252
 11
1458.7016634304182
 21
1017.4307969007252
  0
LINE
  8
_0-0_
  6
CONTINUOUS
 62
    5
 10
1436.7016634304182
 20
1016.4307969007252
 11
1436.7016634304182
 21
1017.4307969007252
  0
LINE
  8
_0-0_
  6
CONTINUOUS
 62
    5
 10
1438.7016634304182
 20
1016.4307969007252
 11
1436.7016634304182
 21
1016.4307969007252
  0
LINE
  8
_0-0_
  6
CONTINUOUS
 62
    5
 10
1438.7016634304182
 20
1015.9307969007252
 11
1438.7016634304182
 21
1016.4307969007252
  0
LINE
  8
_0-0_
  6
CONTINUOUS
 62
    5
 10
1436.7016634304182
 20
1015.9307969007252
 11
1438.7016634304182
 21
1015.9307969007252
  0
LINE
  8
_0-0_
  6
CONTINUOUS
 62
    5
 10
1436.7016634304182
 20
1004.4307969007252
 11
1436.7016634304182
 21
1015.9307969007252
  0
LINE
  8
_0-0_
  6
CONTINUOUS
 62
    5
 10
1437.2016634304182
 20
1004.4307969007252
 11
1436.7016634304182
 21
1004.4307969007252
  0
LINE
  8
_0-0_
  6
CONTINUOUS
 62
    5
 10
1436.7016634304182
 20
1003.4307969007252
 11
1437.2016634304182
 21
1004.4307969007252
  0
LINE
  8
_0-0_
  6
CONTINUOUS
 62
    5
 10
1436.7016634304182
 20
990.43079690072523
 11
1436.7016634304182
 21
1003.4307969007252
  0
LINE
  8
_0-0_
  6
CONTINUOUS
 62
    5
 10
1437.2016634304182
 20
990.43079690072523
 11
1436.7016634304182
 21
990.43079690072523
  0
LINE
  8
_0-0_
  6
CONTINUOUS
 62
    5
 10
1436.7016634304182
 20
989.43079690072523
 11
1437.2016634304182
 21
990.43079690072523
  0
LINE
  8
_0-0_
  6
CONTINUOUS
 62
    5
 10
1435.7016634304182
 20
989.43079690072523
 11
1436.7016634304182
 21
989.43079690072523
  0
LINE
  8
_0-0_
  6
CONTINUOUS
 62
    5
 10
1435.7016634304182
 20
1015.9307969007252
 11
1435.7016634304182
 21
989.43079690072523
  0
LINE
  8
_0-0_
  6
CONTINUOUS
 62
    5
 10
1435.2016634304182
 20
1015.9307969007252
 11
1435.7016634304182
 21
1015.9307969007252
  0
LINE
  8
_0-0_
  6
CONTINUOUS
 62
    5
 10
1435.2016634304182
 20
1017.9307969007252
 11
1435.2016634304182
 21
1015.9307969007252
  0
LINE
  8
_0-0_
  6
CONTINUOUS
 62
    5
 10
1460.2016634304182
 20
1017.9307969007252
 11
1435.2016634304182
 21
1017.9307969007252
  0
LINE
  8
_0-0_
  6
CONTINUOUS
 62
    5
 10
1460.2016634304182
 20
1015.9307969007252
 11
1460.2016634304182
 21
1017.9307969007252
  0
LINE
  8
_0-0_
  6
CONTINUOUS
 62
    5
 10
1459.7016634304182
 20
1015.9307969007252
 11
1460.2016634304182
 21
1015.9307969007252
  0
LINE
  8
_0-0_
  6
CONTINUOUS
 62
    5
 10
1459.7016634304182
 20
989.43079690072523
 11
1459.7016634304182
 21
1015.9307969007252
  0
LINE
  8
_0-0_
  6
CONTINUOUS
 62
    5
 10
1458.7016634304182
 20
989.43079690072523
 11
1459.7016634304182
 21
989.43079690072523
  0
LINE
  8
_0-0_
  6
CONTINUOUS
 62
    5
 10
1458.2016634304182
 20
990.43079690072523
 11
1458.7016634304182
 21
989.43079690072523
  0
LINE
  8
_0-0_
  6
CONTINUOUS
 62
    5
 10
1458.7016634304182
 20
990.43079690072523
 11
1458.2016634304182
 21
990.43079690072523
  0
LINE
  8
_0-0_
  6
CONTINUOUS
 62
    5
 10
1458.7016634304182
 20
1003.4307969007252
 11
1458.7016634304182
 21
990.43079690072523
  0
LINE
  8
_0-0_
  6
CONTINUOUS
 62
    5
 10
1458.2016634304182
 20
1004.4307969007252
 11
1458.7016634304182
 21
1003.4307969007252
  0
LINE
  8
_0-0_
  6
CONTINUOUS
 62
    5
 10
1458.7016634304182
 20
1004.4307969007252
 11
1458.2016634304182
 21
1004.4307969007252
  0
LINE
  8
_0-0_
  6
CONTINUOUS
 62
    5
 10
1458.7016634304182
 20
1015.9307969007252
 11
1458.7016634304182
 21
1004.4307969007252
  0
LINE
  8
_0-0_
  6
CONTINUOUS
 62
    5
 10
1456.7016634304182
 20
1015.9307969007252
 11
1458.7016634304182
 21
1015.9307969007252
  0
LINE
  8
_0-0_
  6
CONTINUOUS
 62
    5
 10
1456.7016634304182
 20
1016.4307969007252
 11
1456.7016634304182
 21
1015.9307969007252
  0
LINE
  8
_0-0_
  6
CONTINUOUS
 62
    5
 10
1458.7016634304182
 20
1016.4307969007252
 11
1456.7016634304182
 21
1016.4307969007252
  0
LINE
  8
_0-0_
  6
CONTINUOUS
 62
    5
 10
1458.7016634304182
 20
1017.4307969007252
 11
1458.7016634304182
 21
1016.4307969007252
  0
LINE
  8
_0-0_
  6
CONTINUOUS
 62
    5
 10
1447.7016634304182
 20
1018.9307969007252
 11
1460.2016634304182
 21
1018.9307969007252
  0
LINE
  8
_0-0_
  6
CONTINUOUS
 62
    5
 10
1435.2016634304182
 20
1018.9307969007252
 11
1447.7016634304182
 21
1018.9307969007252
  0
LINE
  8
_0-0_
  6
CONTINUOUS
 62
    5
 10
1434.7016634304182
 20
1019.4307969007252
 11
1435.2016634304182
 21
1018.9307969007252
  0
LINE
  8
_0-0_
  6
CONTINUOUS
 62
    5
 10
1433.7016634304182
 20
1019.4307969007252
 11
1434.7016634304182
 21
1019.4307969007252
  0
LINE
  8
_0-0_
  6
CONTINUOUS
 62
    5
 10
1433.7016634304182
 20
1016.4307969007252
 11
1433.7016634304182
 21
1019.4307969007252
  0
LINE
  8
_0-0_
  6
CONTINUOUS
 62
    5
 10
1434.2016634304182
 20
1016.4307969007252
 11
1433.7016634304182
 21
1016.4307969007252
  0
LINE
  8
_0-0_
  6
CONTINUOUS
 62
    5
 10
1434.2016634304182
 20
1001.4307969007252
 11
1434.2016634304182
 21
1016.4307969007252
  0
LINE
  8
_0-0_
  6
CONTINUOUS
 62
    5
 10
1433.7016634304109
 20
1001.4307969007252
 11
1434.2016634304182
 21
1001.4307969007252
  0
LINE
  8
_0-0_
  6
CONTINUOUS
 62
    5
 10
1433.7016634304182
 20
999.43079690072523
 11
1433.7016634304109
 21
1001.4307969007252
  0
LINE
  8
_0-0_
  6
CONTINUOUS
 62
    5
 10
1435.2016634304182
 20
999.43079690072523
 11
1433.7016634304182
 21
999.43079690072523
  0
LINE
  8
_0-0_
  6
CONTINUOUS
 62
    5
 10
1435.2016634304182
 20
1017.9307969007252
 11
1435.2016634304182
 21
999.43079690072523
  0
LINE
  8
_0-0_
  6
CONTINUOUS
 62
    5
 10
1460.2016634304182
 20
1017.9307969007252
 11
1435.2016634304182
 21
1017.9307969007252
  0
LINE
  8
_0-0_
  6
CONTINUOUS
 62
    5
 10
1460.2016634304182
 20
999.43079690072523
 11
1460.2016634304182
 21
1017.9307969007252
  0
LINE
  8
_0-0_
  6
CONTINUOUS
 62
    5
 10
1461.7016634304182
 20
999.43079690072523
 11
1460.2016634304182
 21
999.43079690072523
  0
LINE
  8
_0-0_
  6
CONTINUOUS
 62
    5
 10
1461.7016634304237
 20
1001.4307969007252
 11
1461.7016634304182
 21
999.43079690072523
  0
LINE
  8
_0-0_
  6
CONTINUOUS
 62
    5
 10
1461.2016634304182
 20
1001.4307969007252
 11
1461.7016634304237
 21
1001.4307969007252
  0
LINE
  8
_0-0_
  6
CONTINUOUS
 62
    5
 10
1461.2016634304182
 20
1016.4307969007252
 11
1461.2016634304182
 21
1001.4307969007252
  0
LINE
  8
_0-0_
  6
CONTINUOUS
 62
    5
 10
1461.7016634304182
 20
1016.4307969007252
 11
1461.2016634304182
 21
1016.4307969007252
  0
LINE
  8
_0-0_
  6
CONTINUOUS
 62
    5
 10
1461.7016634304182
 20
1019.4307969007252
 11
1461.7016634304182
 21
1016.4307969007252
  0
LINE
  8
_0-0_
  6
CONTINUOUS
 62
    5
 10
1460.7016634304182
 20
1019.4307969007252
 11
1461.7016634304182
 21
1019.4307969007252
  0
LINE
  8
_0-0_
  6
CONTINUOUS
 62
    5
 10
1460.2016634304182
 20
1018.9307969007252
 11
1460.7016634304182
 21
1019.4307969007252
  0
LINE
  8
_0-0_
  6
CONTINUOUS
 62
    5
 10
1440.9157485290252
 20
939.43079690072523
 11
1440.9157485290252
 21
1015.9307969007252
  0
LINE
  8
_0-0_
  6
CONTINUOUS
 62
    5
 10
1444.6657485290252
 20
939.43079690072523
 11
1444.6657485290252
 21
1015.9307969007252
  0
LINE
  8
_0-0_
  6
CONTINUOUS
 62
    5
 10
1448.4157485290252
 20
939.43079690072523
 11
1448.4157485290252
 21
1015.9307969007252
  0
LINE
  8
_0-0_
  6
CONTINUOUS
 62
    5
 10
1452.1657485290252
 20
939.43079690072523
 11
1452.1657485290252
 21
1015.9307969007252
  0
LINE
  8
_0-0_
  6
CONTINUOUS
 62
    5
 10
1455.9157485290252
 20
939.43079690072523
 11
1455.9157485290252
 21
1015.9307969007252
  0
LINE
  8
_0-0_
  6
CONTINUOUS
 62
    5
 10
1297.7101508514897
 20
1019.4307969007252
 11
1297.7101508514897
 21
939.43079690072523
  0
LINE
  8
_0-0_
  6
CONTINUOUS
 62
    5
 10
1277.7101508514897
 20
1019.4307969007252
 11
1297.7101508514897
 21
1019.4307969007252
  0
LINE
  8
_0-0_
  6
CONTINUOUS
 62
    5
 10
1277.7101508514897
 20
944.82907018948504
 11
1283.1084241402496
 21
939.43079690072523
  0
LINE
  8
_0-0_
  6
CONTINUOUS
 62
    5
 10
1277.7101508514897
 20
950.48592443897473
 11
1288.7652783897411
 21
939.43079690072523
  0
LINE
  8
_0-0_
  6
CONTINUOUS
 62
    5
 10
1277.7101508514897
 20
956.14277868846807
 11
1294.4221326392326
 21
939.43079690072523
  0
LINE
  8
_0-0_
  6
CONTINUOUS
 62
    5
 10
1277.7101508514897
 20
961.79963293796141
 11
1297.7101508514897
 21
941.79963293796141
  0
LINE
  8
_0-0_
  6
CONTINUOUS
 62
    5
 10
1277.7101508514897
 20
967.45648718745474
 11
1297.7101508514897
 21
947.45648718745474
  0
LINE
  8
_0-0_
  6
CONTINUOUS
 62
    5
 10
1277.7101508514897
 20
973.11334143694444
 11
1297.7101508514897
 21
953.11334143694626
  0
LINE
  8
_0-0_
  6
CONTINUOUS
 62
    5
 10
1277.7101508514897
 20
978.77019568643777
 11
1297.7101508514897
 21
958.77019568643777
  0
LINE
  8
_0-0_
  6
CONTINUOUS
 62
    5
 10
1277.7101508514897
 20
984.42704993593111
 11
1297.7101508514897
 21
964.42704993593111
  0
LINE
  8
_0-0_
  6
CONTINUOUS
 62
    5
 10
1277.7101508514897
 20
990.08390418542081
 11
1297.7101508514897
 21
970.08390418542081
  0
LINE
  8
_0-0_
  6
CONTINUOUS
 62
    5
 10
1277.7101508514897
 20
995.74075843491414
 11
1297.7101508514897
 21
975.74075843491414
  0
LINE
  8
_0-0_
  6
CONTINUOUS
 62
    5
 10
1277.7101508514897
 20
1001.3976126844075
 11
1297.7101508514897
 21
981.39761268440748
  0
LINE
  8
_0-0_
  6
CONTINUOUS
 62
    5
 10
1277.7101508514897
 20
1007.0544669339008
 11
1297.7101508514897
 21
987.05446693390081
  0
LINE
  8
_0-0_
  6
CONTINUOUS
 62
    5
 10
1277.7101508514897
 20
1012.7113211833941
 11
1297.7101508514897
 21
992.71132118339415
  0
LINE
  8
_0-0_
  6
CONTINUOUS
 62
    5
 10
1277.7101508514897
 20
1018.3681754328857
 11
1297.7101508514897
 21
998.36817543288566
  0
LINE
  8
_0-0_
  6
CONTINUOUS
 62
    5
 10
1282.3043836331417
 20
1019.4307969007252
 11
1297.7101508514897
 21
1004.0250296823772
  0
LINE
  8
_0-0_
  6
CONTINUOUS
 62
    5
 10
1287.961237882635
 20
1019.4307969007252
 11
1297.7101508514897
 21
1009.6818839318705
  0
LINE
  8
_0-0_
  6
CONTINUOUS
 62
    5
 10
1293.6180921321284
 20
1019.4307969007252
 11
1297.7101508514897
 21
1015.3387381813602
  0
LINE
  8
_0-0_
  6
CONTINUOUS
 62
    7
 10
1444.9447430371438
 20
1008.2284885922138
 11
1526.996357244112
 21
1150.3460532417259
  0
POINT
  8
_0-0_
 62
    7
 10
1444.9447430371438
 20
1008.2284885922138
  0
LINE
  8
_0-0_
  6
CONTINUOUS
 62
    7
 10
1286.4614035934974
 20
1012.3085733650053
 11
1328.4070094483959
 21
1084.9604938599452
  0
POINT
  8
_0-0_
 62
    7
 10
1286.4614035934974
 20
1012.3085733650053
  0
TEXT
  8
_0-0_
 62
    7
 10
1532.3269499036542
 20
1135.5991630078054
 40
30
 41
1
 50
0
  1
伸縮目地
  0
TEXT
  8
_0-0_
 62
    7
 10
1317.2639111059761
 20
1089.9619536485636
 40
30
 41
1
 50
0
  1
成型緩衝材
  0
CIRCLE
  8
_0-0_
  6
DASHED2
 62
    1
 10
1277.7101508514897
 20
978.77019568643777
 40
80
  0
TEXT
  8
_0-0_
 62
    7
 10
1236.5860290893288
 20
1040.5002955491848
 40
24
 41
1
 50
0
  1
Ｂ
  0
LINE
  8
_0-0_
  6
CONTINUOUS
 62
    4
 10
1277.7101508514897
 20
937.43079690072614
 11
1277.7101508514897
 21
1135.5517510526126
  0
POINT
  8
_0-0_
 62
    7
 10
1533.1415198514915
 20
823.43079690072614
  0
LINE
  8
_0-0_
  6
CONTINUOUS
 62
    7
 10
1461.7016634304182
 20
1019.4307969007252
 11
1533.1415198514915
 21
1019.4307969007252
  0
LINE
  8
_0-0_
  6
CONTINUOUS
 62
    7
 10
1491.498597787795
 20
1019.4307969007252
 11
1533.1415198514915
 21
977.78787483702877
  0
LINE
  8
_0-0_
  6
CONTINUOUS
 62
    7
 10
1484.4275299759283
 20
1019.4307969007252
 11
1533.1415198514915
 21
970.7168070251621
  0
LINE
  8
_0-0_
  6
CONTINUOUS
 62
    7
 10
1477.3564621640635
 20
1019.4307969007252
 11
1533.1415198514915
 21
963.64573921329543
  0
LINE
  8
_0-0_
  6
CONTINUOUS
 62
    7
 10
1271.7101508514897
 20
928.43079690072614
 11
1533.1415198514915
 21
928.43079690072614
  0
LINE
  8
_0-0_
  6
CONTINUOUS
 62
    4
 10
1277.7101508514897
 20
937.43079690072614
 11
1533.1415198514915
 21
937.43079690072614
  0
LINE
  8
_0-0_
  6
CONTINUOUS
 62
    5
 10
1277.7101508514897
 20
938.43079690072614
 11
1533.1415198514915
 21
938.43079690072614
  0
LINE
  8
_0-0_
  6
CONTINUOUS
 62
    7
 10
1277.7101508514897
 20
939.43079690072523
 11
1533.1415198514915
 21
939.43079690072523
  0
POINT
  8
_0-0_
 62
    7
 10
1466.8089396247979
 20
931.84068327648697
  0
LINE
  8
_0-0_
  6
CONTINUOUS
 62
    7
 10
1466.8089396247979
 20
931.84068327648697
 11
1560.1469200457705
 21
1093.5068076414784
  0
TEXT
  8
_0-0_
 62
    7
 10
1564.6168400385159
 20
1081.3994028781538
 40
30
 41
1
 50
0
  1
防水層
  0
LINE
  8
_0-0_
  6
CONTINUOUS
 62
    7
 10
672.13606690525205
 20
1633.356554367115
 11
1706.8525777203686
 21
1633.356554367115
  0
LINE
  8
_0-0_
  6
CONTINUOUS
 62
    7
 10
672.13606690525205
 20
1553.356554367115
 11
1706.8525777203686
 21
1553.356554367115
  0
LINE
  8
_0-0_
  6
CONTINUOUS
 62
    7
 10
672.13606690525205
 20
1473.356554367115
 11
1706.8525777203686
 21
1473.356554367115
  0
LINE
  8
_0-0_
  6
CONTINUOUS
 62
    7
 10
1189.4943223128103
 20
1633.356554367115
 11
1189.4943223128103
 21
1473.356554367115
  0
TEXT
  8
_0-0_
 62
    7
 10
1213.4943223128103
 20
1577.356554367115
 40
20
 41
1
 50
0
  1
構造：ＲＣ造
  0
TEXT
  8
_0-0_
 62
    7
 10
1213.4943223128103
 20
1497.356554367115
 40
20
 41
1
 50
0
  1
下地：コンクリートスラブ
  0
TEXT
  8
_0-0_
 62
    7
 10
696.13606690525205
 20
1577.356554367115
 40
20
 41
1
 50
0
  1
図面番号：UPM-10C-sash-01
  0
TEXT
  8
_0-0_
 62
    7
 10
696.13606690525205
 20
1497.356554367115
 40
20
 41
1
 50
0
  1
施工部位：サッシ廻り
  0
ENDSEC
  0
EOF
