  0
SECTION
  2
HEADER
  9
$ACADVER
  1
AC1009
  9
$INSBASE
 10
0
 20
0
 30
0
  9
$EXTMIN
 10
0
 20
0
  9
$EXTMAX
 10
2378
 20
1682
  9
$LIMMIN
 10
0
 20
0
  9
$LIMMAX
 10
2378
 20
1682
  9
$LTSCALE
 40
1
  0
ENDSEC
  0
SECTION
  2
TABLES
  0
TABLE
  2
LTYPE
 70
     9
  0
LTYPE
  2
CONTINUOUS
 70
    64
  3
実線
 72
    65
 73
     0
 40
0.0
  0
LTYPE
  2
DASHED1
 70
    64
  3
--  --  --  --  --  --  --  --  
 72
    65
 73
     2
 40
2.5
 49
1.25
 49
-1.25
  0
LTYPE
  2
DASHED2
 70
    64
  3
----    ----    ----    ----    
 72
    65
 73
     2
 40
5.0
 49
2.5
 49
-2.5
  0
LTYPE
  2
DASHED3
 70
    64
  3
------  ------  ------  ------  
 72
    65
 73
     2
 40
5.0
 49
3.75
 49
-1.25
  0
LTYPE
  2
CENTER1
 70
    64
  3
----- - ----- - ----- - ----- - 
 72
    65
 73
     4
 40
10.0
 49
6.25
 49
-1.25
 49
1.25
 49
-1.25
  0
LTYPE
  2
CENTER2
 70
    64
  3
----------  --  ----------  --  
 72
    65
 73
     4
 40
20.0
 49
12.5
 49
-2.5
 49
2.5
 49
-2.5
  0
LTYPE
  2
PHANTOM1
 70
    64
  3
--- - - --- - - --- - - --- - - 
 72
    65
 73
     6
 40
10.0
 49
3.25
 49
-1.25
 49
1.25
 49
-1.25
 49
1.25
 49
-1.25
  0
LTYPE
  2
PHANTOM2
 70
    64
  3
--------  -  -  --------  -  -  
 72
    65
 73
     6
 40
20.0
 49
10.0
 49
-2.5
 49
1.25
 49
-2.5
 49
1.25
 49
-2.5
  0
LTYPE
  2
DOT
 70
    64
  3
-   -   -   -   -   -   -   -   
 72
    65
 73
     2
 40
2.5
 49
0.625
 49
-1.875
  0
LTYPE
  2
DUMMY
 70
    64
  3
ダミー
 72
    65
 73
     0
 40
0.0
  0
LTYPE
  2
RAND1
 70
    64
  3
ランダム線1
 72
    65
 73
     4
 40
10.0
 49
1.0
 49
-2.0
 49
3.0
 49
-4.0
  0
LTYPE
  2
RAND2
 70
    64
  3
ランダム線2
 72
    65
 73
     4
 40
14.0
 49
2.0
 49
-3.0
 49
4.0
 49
-5.0
  0
LTYPE
  2
RAND3
 70
    64
  3
ランダム線3
 72
    65
 73
     4
 40
18.0
 49
3.0
 49
-4.0
 49
5.0
 49
-6.0
  0
LTYPE
  2
RAND4
 70
    64
  3
ランダム線4
 72
    65
 73
     4
 40
22.0
 49
4.0
 49
-5.0
 49
6.0
 49
-7.0
  0
LTYPE
  2
RAND5
 70
    64
  3
ランダム線5
 72
    65
 73
     4
 40
26.0
 49
5.0
 49
-6.0
 49
7.0
 49
-8.0
  0
LTYPE
  2
LONG1
 70
    64
  3
----------  --  ----------  --  
 72
    65
 73
     4
 40
40.0
 49
32.5
 49
-2.5
 49
2.5
 49
-2.5
  0
LTYPE
  2
LONG2
 70
    64
  3
--------  -  -  --------  -  -  
 72
    65
 73
     6
 40
40.0
 49
30.0
 49
-2.5
 49
1.25
 49
-2.5
 49
1.25
 49
-2.5
  0
LTYPE
  2
LONG3
 70
    64
  3
+++++++++++++++..+++++++++++++++
 72
    65
 73
     2
 40
40.0
 49
37.5
 49
-2.5
  0
LTYPE
  2
LONG4
 70
    64
  3
+++++++++++++++..+++++++++++++++
 72
    65
 73
     2
 40
80.0
 49
75.0
 49
-5.0
  0
LTYPE
  2
LONG5
 70
    64
  3
----------  --  ----------  --  
 72
    65
 73
     4
 40
60.0
 49
37.5
 49
-7.5
 49
7.5
 49
-7.5
  0
LTYPE
  2
dashed
 70
   64
  3
-------   -------------   ------
 72
   65
 73
    2
 40
7.5
 49
6
 49
-1.5
  0
LTYPE
  2
dashed_spaced
 70
   64
  3
----        --------        ----
 72
   65
 73
    2
 40
12
 49
6
 49
-6
  0
LTYPE
  2
long_dashed_dotted
 70
   64
  3
------------- --- --------------
 72
   65
 73
    4
 40
15.25
 49
12
 49
-1.5
 49
0.25
 49
-1.5
  0
LTYPE
  2
long_dashed_double-dotted
 70
   64
  3
----------- --- --- ------------
 72
   65
 73
    6
 40
17
 49
12
 49
-1.5
 49
0.25
 49
-1.5
 49
0.25
 49
-1.5
  0
LTYPE
  2
long_dashed_triplicate-dotted
 70
   64
  3
--------- --- --- --- ----------
 72
   65
 73
    8
 40
18.75
 49
12
 49
-1.5
 49
0.25
 49
-1.5
 49
0.25
 49
-1.5
 49
0.25
 49
-1.5
  0
LTYPE
  2
dotted
 70
   64
  3
   -       -       -       -    
 72
   65
 73
    2
 40
1.75
 49
0.25
 49
-1.5
  0
LTYPE
  2
chain
 70
   64
  3
-------------- -- --------------
 72
   65
 73
    4
 40
18.5
 49
12
 49
-1.5
 49
3.5
 49
-1.5
  0
LTYPE
  2
chain_double_dash
 70
   64
  3
------------ -- -- -------------
 72
   65
 73
    6
 40
23.5
 49
12
 49
-1.5
 49
3.5
 49
-1.5
 49
3.5
 49
-1.5
  0
LTYPE
  2
dashed_dotted
 70
   64
  3
-----------     -     ----------
 72
   65
 73
    4
 40
9.25
 49
6
 49
-1.5
 49
0.25
 49
-1.5
  0
LTYPE
  2
double-dashed_dotted
 70
   64
  3
------   -----------   -   -----
 72
   65
 73
    6
 40
16.75
 49
6
 49
-1.5
 49
6
 49
-1.5
 49
0.25
 49
-1.5
  0
LTYPE
  2
dashed_double-dotted
 70
   64
  3
---------    -    -    ---------
 72
   65
 73
    6
 40
11
 49
6
 49
-1.5
 49
0.25
 49
-1.5
 49
0.25
 49
-1.5
  0
LTYPE
  2
double-dashed_double-dotted
 70
   64
  3
-----   ---------   -   -   ----
 72
   65
 73
    8
 40
18.5
 49
6
 49
-1.5
 49
6
 49
-1.5
 49
0.25
 49
-1.5
 49
0.25
 49
-1.5
  0
LTYPE
  2
dashed_triplicate-dotted
 70
   64
  3
-------    -    -    -    ------
 72
   65
 73
    8
 40
12.75
 49
6
 49
-1.5
 49
0.25
 49
-1.5
 49
0.25
 49
-1.5
 49
0.25
 49
-1.5
  0
LTYPE
  2
double-dashed_triplicate-dotted
 70
   64
  3
-----  ---------  -  -  -  -----
 72
   65
 73
   10
 40
20.25
 49
6
 49
-1.5
 49
6
 49
-1.5
 49
0.25
 49
-1.5
 49
0.25
 49
-1.5
 49
0.25
 49
-1.5
  0
LTYPE
  2
undefined
 70
   64
  3
--------------------------------
 72
   65
 73
    0
 40
0
  0
ENDTAB
  0
TABLE
  2
STYLE
  5
3
100
AcDbSymbolTable
 70
     1
  0
STYLE
  5
10
100
AcDbSymbolTableRecord
100
AcDbTextStyleTableRecord
  2
STANDARD
 70
     0
 40
0.0
 41
1.0
 50
0.0
 71
     0
 42
0.2
  3
txt
  4
bigfont.shx
  0
STYLE
  5
26
100
AcDbSymbolTableRecord
100
AcDbTextStyleTableRecord
  2
TATEGAKI
 70
    68
 40
0.0
 41
1.0
 50
0.0
 71
     0
 42
1.0
  3
txt
  4
bigfont.shx
  0
ENDTAB
  0
TABLE
  2
LAYER
 70
    2
  0
LAYER
  2
_0-0_
 70
   64
 62
    7
  6
CONTINUOUS
  0
LAYER
  2
ADD_LINE
 70
   64
 62
    7
  6
CONTINUOUS
  0
ENDTAB
  0
ENDSEC
  0
SECTION
  2
BLOCKS
  0
ENDSEC
  0
SECTION
  2
ENTITIES
  0
LINE
  8
_0-0_
  6
CONTINUOUS
 62
    7
 10
1023.925499156113
 20
982.99224806201551
 11
1023.925499156113
 21
1257.3279057056282
  0
LINE
  8
_0-0_
  6
CONTINUOUS
 62
    2
 10
873.44191446582238
 20
416.90498708782548
 11
891.29690681604654
 21
434.75997943805055
  0
LINE
  8
_0-0_
  6
CONTINUOUS
 62
    3
 10
924.74627587860152
 20
1278.0365555609226
 11
866.42549915611301
 21
1278.0365555609226
  0
LINE
  8
_0-0_
  6
CONTINUOUS
 62
    7
 10
1013.505623599228
 20
1268.1180027107077
 11
1023.925499156113
 21
1257.3279057056282
  0
LINE
  8
_0-0_
  6
CONTINUOUS
 62
    4
 10
1016.1377012032918
 20
1274.0297458012049
 11
1029.9254991561129
 21
1259.7520630606389
  0
LINE
  8
_0-0_
  6
CONTINUOUS
 62
    3
 10
924.74627587860152
 20
1270.5365555609226
 11
873.92549915611301
 21
1270.5365555609226
  0
LINE
  8
_0-0_
  6
CONTINUOUS
 62
    3
 10
873.92549915611301
 20
1270.5365555609226
 11
873.92549915611301
 21
1188.0365555609226
  0
LINE
  8
_0-0_
  6
CONTINUOUS
 62
    3
 10
866.42549915611301
 20
1278.0365555609226
 11
866.42549915611301
 21
1188.0365555609226
  0
LINE
  8
_0-0_
  6
CONTINUOUS
 62
    3
 10
873.92549915611301
 20
1188.0365555609226
 11
866.42549915611301
 21
1188.0365555609226
  0
LINE
  8
_0-0_
  6
CONTINUOUS
 62
    3
 10
873.92549915611301
 20
1180.5365555609226
 11
866.42549915611301
 21
1180.5365555609226
  0
LINE
  8
_0-0_
  6
CONTINUOUS
 62
    3
 10
870.17549915611301
 20
1188.0365555609226
 11
870.17549915611301
 21
1180.5365555609226
  0
LINE
  8
_0-0_
  6
CONTINUOUS
 62
    7
 10
873.92549915611301
 20
1246.541307509626
 11
897.92074720740959
 21
1270.5365555609226
  0
LINE
  8
_0-0_
  6
CONTINUOUS
 62
    7
 10
873.92549915611301
 20
1239.4702396977611
 11
904.99181501927444
 21
1270.5365555609226
  0
LINE
  8
_0-0_
  6
CONTINUOUS
 62
    7
 10
873.92549915611391
 20
1232.3991718858972
 11
912.06288283113929
 21
1270.5365555609226
  0
LINE
  8
_0-0_
  6
CONTINUOUS
 62
    7
 10
939.74627587860152
 20
1270.6937358903208
 11
939.74627587860152
 21
1255.6937358903208
  0
LINE
  8
_0-0_
  6
CONTINUOUS
 62
    7
 10
939.74627587860152
 20
1255.6937358903208
 11
924.74627587860152
 21
1255.6937358903208
  0
LINE
  8
_0-0_
  6
CONTINUOUS
 62
    7
 10
924.74627587860152
 20
1255.6937358903208
 11
924.74627587860152
 21
1270.6937358903208
  0
LINE
  8
_0-0_
  6
CONTINUOUS
 62
    3
 10
924.74627587860152
 20
1278.0365555609226
 11
924.74627587860152
 21
1270.5365555609226
  0
LINE
  8
_0-0_
  6
CONTINUOUS
 62
    7
 10
1013.505623599228
 20
1268.1180027107077
 11
939.74627587860152
 21
1270.6937358903208
  0
LINE
  8
_0-0_
  6
CONTINUOUS
 62
    4
 10
935.74627587860152
 20
1276.8370762340812
 11
1016.1377012032918
 21
1274.0297458012049
  0
LINE
  8
_0-0_
  6
CONTINUOUS
 62
    4
 10
935.74627587860152
 20
1261.6937358903208
 11
924.74627587860152
 21
1261.6937358903208
  0
LINE
  8
_0-0_
  6
CONTINUOUS
 62
    4
 10
935.74627587860152
 20
1276.8370762340812
 11
935.74627587860152
 21
1261.6937358903208
  0
ARC
  8
_0-0_
  6
CONTINUOUS
 62
    2
 10
942.49073712220536
 20
1389.7264324549644
 40
113.0906472942477
 50
260.97271697893774
 51
266.5809851959296
  0
LINE
  8
_0-0_
  6
CONTINUOUS
 62
    2
 10
934.28415093775141
 20
1261.6937358903208
 11
935.74627587860152
 21
1263.1558608311709
  0
LINE
  8
_0-0_
  6
CONTINUOUS
 62
    2
 10
931.45572381300474
 20
1261.6937358903208
 11
935.74627587860152
 21
1265.9842879559176
  0
LINE
  8
_0-0_
  6
CONTINUOUS
 62
    2
 10
928.62729668825807
 20
1261.6937358903208
 11
935.74627587860152
 21
1268.8127150806642
  0
LINE
  8
_0-0_
  6
CONTINUOUS
 62
    2
 10
925.79886956351231
 20
1261.6937358903199
 11
935.74627587860152
 21
1271.6411422054091
  0
LINE
  8
_0-0_
  6
CONTINUOUS
 62
    2
 10
924.74627587860061
 20
1263.4695693301549
 11
935.74627587860152
 21
1274.4695693301558
  0
LINE
  8
_0-0_
  6
CONTINUOUS
 62
    2
 10
924.74627587860243
 20
1266.2979964549033
 11
935.31213117918207
 21
1276.863851755483
  0
LINE
  8
_0-0_
  6
CONTINUOUS
 62
    2
 10
924.74627587860152
 20
1269.1264235796482
 11
932.68182803425691
 21
1277.0619757353036
  0
LINE
  8
_0-0_
  6
CONTINUOUS
 62
    2
 10
924.74627587860152
 20
1271.9548507043939
 11
930.10725382804424
 21
1277.3158286538367
  0
LINE
  8
_0-0_
  6
CONTINUOUS
 62
    2
 10
924.74627587860061
 20
1274.7832778291397
 11
927.58535364371994
 21
1277.622355594259
  0
LINE
  8
_0-0_
  6
CONTINUOUS
 62
    2
 10
924.74627587860061
 20
1277.6117049538864
 11
925.11341626769183
 21
1277.9788453429776
  0
LINE
  8
_0-0_
  6
CONTINUOUS
 62
    3
 10
870.17549915611301
 20
775.53655556092258
 11
870.17549915611301
 21
768.03655556092258
  0
LINE
  8
_0-0_
  6
CONTINUOUS
 62
    7
 10
672.13606690525205
 20
567.53106997205509
 11
1706.8525777203677
 21
567.53106997205509
  0
LINE
  8
_0-0_
  6
CONTINUOUS
 62
    7
 10
672.13606690525205
 20
167.53106997205509
 11
1706.8525777203677
 21
167.53106997205509
  0
LINE
  8
_0-0_
  6
CONTINUOUS
 62
    7
 10
672.13606690525205
 20
627.53106997205509
 11
1706.8525777203677
 21
627.53106997205509
  0
LINE
  8
_0-0_
  6
CONTINUOUS
 62
    7
 10
1189.4943223128103
 20
627.53106997205509
 11
1189.4943223128103
 21
167.53106997205509
  0
LINE
  8
_0-0_
  6
CONTINUOUS
 62
    7
 10
672.13606690525205
 20
1633.3565543671132
 11
672.13606690525205
 21
167.53106997205509
  0
LINE
  8
_0-0_
  6
CONTINUOUS
 62
    7
 10
1706.8525777203677
 20
1633.3565543671132
 11
1706.8525777203677
 21
167.53106997205509
  0
LINE
  8
_0-0_
  6
CONTINUOUS
 62
    7
 10
873.92549915611391
 20
1006.125001906202
 11
1023.925499156113
 21
1156.1250019062011
  0
LINE
  8
_0-0_
  6
CONTINUOUS
 62
    7
 10
873.92549915611301
 20
1013.1960697180659
 11
1023.9254991561139
 21
1163.1960697180668
  0
LINE
  8
_0-0_
  6
CONTINUOUS
 62
    7
 10
873.92549915611301
 20
1020.2671375299308
 11
1023.925499156113
 21
1170.2671375299308
  0
LINE
  8
_0-0_
  6
CONTINUOUS
 62
    4
 10
1110.0951668402231
 20
395.81267592005247
 11
1110.0951668402231
 21
252.65735719276495
  0
LINE
  8
_0-0_
  6
CONTINUOUS
 62
    7
 10
1096.5951668402231
 20
252.65735719276495
 11
1096.5951668402231
 21
390.3583218712804
  0
TEXT
  8
_0-0_
 62
    7
 10
906.73245032900388
 20
575.6797341210106
 40
40
 41
1
 50
0
  1
Ａ
  0
TEXT
  8
_0-0_
 62
    7
 10
1429.6891920142098
 20
576.02721287347708
 40
40
 41
1
 50
0
  1
Ｂ
  0
LINE
  8
_0-0_
  6
CONTINUOUS
 62
    3
 10
873.92549915611301
 20
1105.5365555609226
 11
866.42549915611301
 21
1105.5365555609226
  0
LINE
  8
_0-0_
  6
CONTINUOUS
 62
    3
 10
873.92549915611301
 20
1098.0365555609226
 11
866.42549915611301
 21
1098.0365555609226
  0
LINE
  8
_0-0_
  6
CONTINUOUS
 62
    3
 10
873.92549915611301
 20
1023.0365555609226
 11
866.42549915611301
 21
1023.0365555609226
  0
LINE
  8
_0-0_
  6
CONTINUOUS
 62
    3
 10
873.92549915611301
 20
1015.5365555609226
 11
866.42549915611301
 21
1015.5365555609226
  0
LINE
  8
_0-0_
  6
CONTINUOUS
 62
    3
 10
873.92549915611301
 20
940.53655556092258
 11
866.42549915611301
 21
940.53655556092258
  0
LINE
  8
_0-0_
  6
CONTINUOUS
 62
    3
 10
873.92549915611301
 20
933.03655556092258
 11
866.42549915611301
 21
933.03655556092258
  0
LINE
  8
_0-0_
  6
CONTINUOUS
 62
    3
 10
873.92549915611301
 20
858.03655556092258
 11
866.42549915611301
 21
858.03655556092258
  0
LINE
  8
_0-0_
  6
CONTINUOUS
 62
    3
 10
873.92549915611301
 20
850.53655556092258
 11
866.42549915611301
 21
850.53655556092258
  0
LINE
  8
_0-0_
  6
CONTINUOUS
 62
    3
 10
873.92549915611301
 20
775.53655556092258
 11
866.42549915611301
 21
775.53655556092258
  0
LINE
  8
_0-0_
  6
CONTINUOUS
 62
    3
 10
866.42549915611301
 20
1180.5365555609226
 11
866.42549915611301
 21
1105.5365555609226
  0
LINE
  8
_0-0_
  6
CONTINUOUS
 62
    3
 10
866.42549915611301
 20
1098.0365555609226
 11
866.42549915611301
 21
1023.0365555609226
  0
LINE
  8
_0-0_
  6
CONTINUOUS
 62
    3
 10
873.92549915611301
 20
1180.5365555609226
 11
873.92549915611301
 21
1105.5365555609226
  0
LINE
  8
_0-0_
  6
CONTINUOUS
 62
    3
 10
873.92549915611301
 20
1098.0365555609226
 11
873.92549915611301
 21
1023.0365555609226
  0
LINE
  8
_0-0_
  6
CONTINUOUS
 62
    3
 10
873.92549915611301
 20
1015.5365555609226
 11
873.92549915611301
 21
940.53655556092258
  0
LINE
  8
_0-0_
  6
CONTINUOUS
 62
    3
 10
873.92549915611301
 20
933.03655556092258
 11
873.92549915611301
 21
858.03655556092258
  0
LINE
  8
_0-0_
  6
CONTINUOUS
 62
    3
 10
873.92549915611301
 20
850.53655556092258
 11
873.92549915611301
 21
775.53655556092258
  0
LINE
  8
_0-0_
  6
CONTINUOUS
 62
    3
 10
866.42549915611301
 20
1015.5365555609226
 11
866.42549915611301
 21
940.53655556092258
  0
LINE
  8
_0-0_
  6
CONTINUOUS
 62
    3
 10
866.42549915611301
 20
933.03655556092258
 11
866.42549915611301
 21
858.03655556092258
  0
LINE
  8
_0-0_
  6
CONTINUOUS
 62
    3
 10
866.42549915611301
 20
850.53655556092258
 11
866.42549915611301
 21
775.53655556092258
  0
LINE
  8
_0-0_
  6
CONTINUOUS
 62
    3
 10
870.17549915611301
 20
1105.5365555609226
 11
870.17549915611301
 21
1098.0365555609226
  0
LINE
  8
_0-0_
  6
CONTINUOUS
 62
    3
 10
870.17549915611301
 20
1023.0365555609226
 11
870.17549915611301
 21
1015.5365555609226
  0
LINE
  8
_0-0_
  6
CONTINUOUS
 62
    3
 10
870.17549915611301
 20
940.53655556092258
 11
870.17549915611301
 21
933.03655556092258
  0
LINE
  8
_0-0_
  6
CONTINUOUS
 62
    3
 10
870.17549915611301
 20
858.03655556092258
 11
870.17549915611301
 21
850.53655556092258
  0
LINE
  8
_0-0_
  6
CONTINUOUS
 62
    7
 10
873.92549915611301
 20
1270.5365555609226
 11
873.92549915611301
 21
772.99224806201551
  0
LINE
  8
_0-0_
  6
CONTINUOUS
 62
    3
 10
873.44191446582238
 20
436.95278404569331
 11
742.22016684022321
 21
436.95278404569331
  0
LINE
  8
_0-0_
  6
CONTINUOUS
 62
    7
 10
1073.1504468372323
 20
414.63604013270856
 11
1096.5951668402231
 21
390.3583218712804
  0
LINE
  8
_0-0_
  6
CONTINUOUS
 62
    4
 10
1079.0726214463757
 20
427.9374620863266
 11
1110.0951668402231
 21
395.81267592005247
  0
LINE
  8
_0-0_
  6
CONTINUOUS
 62
    3
 10
873.44191446582238
 20
420.07778404569331
 11
759.09516684022321
 21
420.07778404569331
  0
LINE
  8
_0-0_
  6
CONTINUOUS
 62
    7
 10
759.09516684022321
 20
366.08847593027463
 11
813.08447495564099
 21
420.07778404569331
  0
LINE
  8
_0-0_
  6
CONTINUOUS
 62
    7
 10
759.09516684022321
 20
350.17857335357917
 11
828.99437753233644
 21
420.07778404569331
  0
LINE
  8
_0-0_
  6
CONTINUOUS
 62
    7
 10
759.09516684022503
 20
334.26867077688371
 11
844.9042801090319
 21
420.07778404569331
  0
LINE
  8
_0-0_
  6
CONTINUOUS
 62
    7
 10
907.19191446582238
 20
420.4314397868377
 11
907.19191446582238
 21
386.6814397868377
  0
LINE
  8
_0-0_
  6
CONTINUOUS
 62
    7
 10
907.19191446582238
 20
386.6814397868377
 11
873.44191446582238
 21
386.6814397868377
  0
LINE
  8
_0-0_
  6
CONTINUOUS
 62
    7
 10
873.44191446582238
 20
386.6814397868377
 11
873.44191446582238
 21
420.4314397868377
  0
LINE
  8
_0-0_
  6
CONTINUOUS
 62
    3
 10
873.44191446582238
 20
436.95278404569331
 11
873.44191446582238
 21
420.07778404569331
  0
LINE
  8
_0-0_
  6
CONTINUOUS
 62
    7
 10
1073.1504468372323
 20
414.63604013270856
 11
907.19191446582238
 21
420.4314397868377
  0
LINE
  8
_0-0_
  6
CONTINUOUS
 62
    4
 10
898.19191446582238
 20
434.25395556029912
 11
1079.0726214463757
 21
427.9374620863266
  0
LINE
  8
_0-0_
  6
CONTINUOUS
 62
    4
 10
898.19191446582238
 20
400.1814397868377
 11
873.44191446582238
 21
400.1814397868377
  0
LINE
  8
_0-0_
  6
CONTINUOUS
 62
    4
 10
898.19191446582238
 20
434.25395556029912
 11
898.19191446582238
 21
400.1814397868377
  0
ARC
  8
_0-0_
  6
CONTINUOUS
 62
    2
 10
913.36695226393124
 20
688.25500705728632
 40
254.45395641205732
 50
260.97271697893774
 51
266.5809851959296
  0
LINE
  8
_0-0_
  6
CONTINUOUS
 62
    2
 10
894.90213334891007
 20
400.1814397868377
 11
898.19191446582238
 21
403.47122090375092
  0
LINE
  8
_0-0_
  6
CONTINUOUS
 62
    2
 10
888.53817231823007
 20
400.1814397868377
 11
898.19191446582238
 21
409.83518193443092
  0
LINE
  8
_0-0_
  6
CONTINUOUS
 62
    2
 10
882.17421128755007
 20
400.1814397868377
 11
898.19191446582238
 21
416.19914296511092
  0
LINE
  8
_0-0_
  6
CONTINUOUS
 62
    2
 10
875.81025025687188
 20
400.18143978683588
 11
898.19191446582238
 21
422.56310399578729
  0
LINE
  8
_0-0_
  6
CONTINUOUS
 62
    2
 10
873.44191446582056
 20
404.17706502646547
 11
898.19191446582238
 21
428.92706502646547
  0
LINE
  8
_0-0_
  6
CONTINUOUS
 62
    2
 10
873.4419144658242
 20
410.54102605714729
 11
897.21508889212885
 21
434.31420048345285
  0
LINE
  8
_0-0_
  6
CONTINUOUS
 62
    2
 10
873.44191446582238
 20
423.26894811850366
 11
885.50411485206871
 21
435.33114850474817
  0
LINE
  8
_0-0_
  6
CONTINUOUS
 62
    2
 10
873.44191446582056
 20
429.63290914918184
 11
879.82983943733882
 21
436.02083412069919
  0
LINE
  8
_0-0_
  6
CONTINUOUS
 62
    2
 10
873.44191446582056
 20
435.99687017986003
 11
874.2679803412758
 21
436.82293605531527
  0
LINE
  8
_0-0_
  6
CONTINUOUS
 62
    3
 10
742.22016684022321
 20
436.95278404569331
 11
742.22016684022321
 21
252.65735719276495
  0
LINE
  8
_0-0_
  6
CONTINUOUS
 62
    3
 10
759.09516684022321
 20
420.07778404569331
 11
759.09516684022321
 21
252.65735719276495
  0
LINE
  8
_0-0_
  6
CONTINUOUS
 62
    7
 10
884.24025387602444
 20
415.67031022546803
 11
941.65834394223486
 21
515.12135949370827
  0
POINT
  8
_0-0_
 62
    7
 10
884.24025387602444
 20
415.67031022546803
  0
TEXT
  8
_0-0_
 62
    7
 10
943.97157890153187
 20
508.37830427547237
 40
21.617968000000001
 41
1
 50
0
  1
ｼｰﾘﾝｸﾞ
  0
LINE
  8
_0-0_
  6
CONTINUOUS
 62
    7
 10
1614.3011562471474
 20
242.17181825305238
 11
1294.7860789841343
 21
242.17181825305238
  0
LINE
  8
_0-0_
  6
CONTINUOUS
 62
    7
 10
1294.7860789841343
 20
242.17181825305602
 11
1294.7860789841343
 21
474.22051440247128
  0
LINE
  8
_0-0_
  6
CONTINUOUS
 62
    7
 10
1353.2860789841343
 20
310.18933109863724
 11
1396.5535918297192
 21
266.92181825305602
  0
LINE
  8
_0-0_
  6
CONTINUOUS
 62
    5
 10
1353.2860789841343
 20
446.92181825305602
 11
1353.2860789841343
 21
266.92181825305602
  0
LINE
  8
_0-0_
  6
CONTINUOUS
 62
    5
 10
1308.2860789841343
 20
446.92181825305602
 11
1353.2860789841343
 21
446.92181825305602
  0
LINE
  8
_0-0_
  6
CONTINUOUS
 62
    5
 10
1308.2860789841343
 20
279.06793315276377
 11
1320.4321938838439
 21
266.92181825305602
  0
LINE
  8
_0-0_
  6
CONTINUOUS
 62
    5
 10
1308.2860789841361
 20
291.79585521412014
 11
1333.1601159452002
 21
266.92181825305602
  0
LINE
  8
_0-0_
  6
CONTINUOUS
 62
    5
 10
1308.2860789841343
 20
304.5237772754765
 11
1345.8880380065557
 21
266.92181825305602
  0
LINE
  8
_0-0_
  6
CONTINUOUS
 62
    5
 10
1308.2860789841343
 20
317.25169933683833
 11
1353.2860789841343
 21
272.25169933683833
  0
LINE
  8
_0-0_
  6
CONTINUOUS
 62
    5
 10
1308.2860789841343
 20
329.97962139819651
 11
1353.2860789841343
 21
284.97962139819651
  0
LINE
  8
_0-0_
  6
CONTINUOUS
 62
    5
 10
1308.2860789841343
 20
342.70754345955288
 11
1353.2860789841343
 21
297.7075434595547
  0
LINE
  8
_0-0_
  6
CONTINUOUS
 62
    5
 10
1308.2860789841361
 20
355.43546552091289
 11
1353.2860789841343
 21
310.43546552091289
  0
LINE
  8
_0-0_
  6
CONTINUOUS
 62
    5
 10
1308.2860789841343
 20
368.16338758226925
 11
1353.2860789841343
 21
323.16338758226925
  0
LINE
  8
_0-0_
  6
CONTINUOUS
 62
    5
 10
1308.2860789841343
 20
380.89130964362562
 11
1353.2860789841361
 21
335.8913096436238
  0
LINE
  8
_0-0_
  6
CONTINUOUS
 62
    5
 10
1308.2860789841361
 20
393.61923170498017
 11
1353.2860789841343
 21
348.61923170498198
  0
LINE
  8
_0-0_
  6
CONTINUOUS
 62
    5
 10
1308.2860789841343
 20
406.34715376634199
 11
1353.2860789841361
 21
361.34715376634017
  0
LINE
  8
_0-0_
  6
CONTINUOUS
 62
    5
 10
1308.2860789841343
 20
419.07507582770199
 11
1353.2860789841343
 21
374.07507582770199
  0
LINE
  8
_0-0_
  6
CONTINUOUS
 62
    5
 10
1308.2860789841361
 20
431.80299788906018
 11
1353.2860789841361
 21
386.80299788906018
  0
LINE
  8
_0-0_
  6
CONTINUOUS
 62
    5
 10
1308.2860789841343
 20
444.53091995041837
 11
1353.2860789841343
 21
399.53091995041837
  0
LINE
  8
_0-0_
  6
CONTINUOUS
 62
    5
 10
1318.6231027428512
 20
446.92181825305602
 11
1353.2860789841361
 21
412.25884201177109
  0
LINE
  8
_0-0_
  6
CONTINUOUS
 62
    5
 10
1331.3510248042112
 20
446.92181825305602
 11
1353.2860789841343
 21
424.98676407313292
  0
LINE
  8
_0-0_
  6
CONTINUOUS
 62
    5
 10
1344.0789468655694
 20
446.92181825305602
 11
1353.2860789841343
 21
437.71468613448747
  0
LINE
  8
_0-0_
  6
CONTINUOUS
 62
    7
 10
1353.2860789841343
 20
342.00913625203179
 11
1428.3733969831146
 21
266.92181825305602
  0
LINE
  8
_0-0_
  6
CONTINUOUS
 62
    7
 10
1353.2860789841343
 20
326.09923367533452
 11
1412.4634944064173
 21
266.92181825305602
  0
LINE
  8
_0-0_
  6
CONTINUOUS
 62
    4
 10
1308.2860789841343
 20
474.22051440247128
 11
1308.2860789841343
 21
262.42181825305602
  0
LINE
  8
_0-0_
  6
CONTINUOUS
 62
    7
 10
1614.3011562471474
 20
446.92181825305602
 11
1308.2860789841343
 21
446.92181825305602
  0
LINE
  8
_0-0_
  6
CONTINUOUS
 62
    7
 10
1308.2860789841343
 20
266.92181825305602
 11
1614.3011562471474
 21
266.92181825305602
  0
LINE
  8
_0-0_
  6
CONTINUOUS
 62
    5
 10
1308.2860789841343
 20
264.67181825305602
 11
1614.3011562471474
 21
264.67181825305602
  0
LINE
  8
_0-0_
  6
CONTINUOUS
 62
    4
 10
1308.2860789841343
 20
262.42181825305602
 11
1614.3011562471474
 21
262.42181825305602
  0
LINE
  8
_0-0_
  6
CONTINUOUS
 62
    7
 10
1480.034460135641
 20
182.17181825305602
 11
1540.0344601356392
 21
242.17181825305238
  0
LINE
  8
_0-0_
  6
CONTINUOUS
 62
    7
 10
1495.9443627123346
 20
182.17181825305602
 11
1555.9443627123328
 21
242.17181825305238
  0
LINE
  8
_0-0_
  6
CONTINUOUS
 62
    7
 10
1511.8542652890319
 20
182.17181825305602
 11
1571.8542652890301
 21
242.17181825305238
  0
LINE
  8
_0-0_
  6
CONTINUOUS
 62
    7
 10
1234.7860789841343
 20
414.2205144024731
 11
1294.7860789841343
 21
474.22051440247128
  0
LINE
  8
_0-0_
  6
CONTINUOUS
 62
    7
 10
1234.7860789841343
 20
430.13041697916856
 11
1278.876176407437
 21
474.22051440247128
  0
LINE
  8
_0-0_
  6
CONTINUOUS
 62
    7
 10
1234.7860789841343
 20
446.04031955586402
 11
1262.9662738307425
 21
474.22051440247128
  0
LINE
  8
_0-0_
  6
CONTINUOUS
 62
    7
 10
1336.0215999852444
 20
422.35597413101937
 11
1364.4564868744874
 21
471.60664293066407
  0
TEXT
  8
_0-0_
 62
    7
 10
1365.9095349412883
 20
464.00411666518744
 40
21.617968000000001
 41
1
 50
0
  1
成型緩衝材
  0
LINE
  8
_0-0_
  6
CONTINUOUS
 62
    7
 10
1571.8542652890301
 20
242.17181825305238
 11
1615.3471650810698
 21
317.50373046136633
  0
POINT
  8
_0-0_
 62
    7
 10
1571.8542652890301
 20
242.17181825305238
  0
TEXT
  8
_0-0_
 62
    7
 10
1620.7109708327798
 20
305.85491829724856
 40
21.617968000000001
 41
1
 50
0
  1
ﾌﾟﾗｲﾏｰ
  0
TEXT
  8
_0-0_
 62
    7
 10
1587.4054789414531
 20
366.71349373608177
 40
21.617968000000001
 41
1
 50
0
  1
ｳﾚﾀﾝ防水
  0
LINE
  8
_0-0_
  6
CONTINUOUS
 62
    7
 10
1515.4066688641851
 20
254.56150111572174
 11
1584.4499886360318
 21
374.1480388837856
  0
POINT
  8
_0-0_
 62
    7
 10
1515.4066688641851
 20
254.56150111572174
  0
LINE
  8
_0-0_
  6
CONTINUOUS
 62
    7
 10
1476.1868368926898
 20
264.67181825305602
 11
1589.655733325555
 21
461.20571195354864
  0
POINT
  8
_0-0_
 62
    7
 10
1476.1868368926898
 20
264.67181825305602
  0
TEXT
  8
_0-0_
 62
    7
 10
1591.9061394929922
 20
454.58881751271224
 40
21.617968000000001
 41
1
 50
0
  1
絶縁ﾌｨﾙﾑ
  0
POINT
  8
_0-0_
 62
    7
 10
1336.0215999852444
 20
422.35597413101937
  0
POINT
  8
_0-0_
 62
    7
 10
1475.0036129397213
 20
422.35597413101937
  0
LINE
  8
_0-0_
  6
CONTINUOUS
 62
    7
 10
1475.0036129397213
 20
422.35597413101937
 11
1516.9029755855718
 21
494.92779903838823
  0
TEXT
  8
_0-0_
 62
    7
 10
1518.0729648277684
 20
488.19237777701278
 40
21.617968000000001
 41
1
 50
0
  1
保護ｺﾝｸﾘｰﾄ
  0
POINT
  8
_0-0_
 62
    7
 10
1318.6231027428512
 20
446.92181825305602
  0
LINE
  8
_0-0_
  6
CONTINUOUS
 62
    7
 10
1308.2860789841343
 20
464.82606860219971
 11
1344.5944614242926
 21
527.71403172919531
  0
POINT
  8
_0-0_
 62
    7
 10
1308.2860789841343
 20
464.82606860219971
  0
TEXT
  8
_0-0_
 62
    7
 10
1347.4683877529305
 20
522.38690190908278
 40
21.617968000000001
 41
1
 50
0
  1
ﾄｯﾌﾟｺｰﾄ(露出部のみ)
  0
LINE
  8
_0-0_
  6
CONTINUOUS
 62
    7
 10
1023.925499156113
 20
982.99224806201551
 11
1523.9254991561129
 21
982.99224806201551
  0
LINE
  8
_0-0_
  6
CONTINUOUS
 62
    5
 10
1045.8334404367506
 20
1073.9922480620155
 11
1049.9254991561129
 21
1069.9001893426523
  0
LINE
  8
_0-0_
  6
CONTINUOUS
 62
    5
 10
1040.1765861872582
 20
1073.9922480620164
 11
1049.9254991561129
 21
1064.2433350931617
  0
LINE
  8
_0-0_
  6
CONTINUOUS
 62
    5
 10
1034.5197319377648
 20
1073.9922480620155
 11
1049.9254991561138
 21
1058.5864808436675
  0
LINE
  8
_0-0_
  6
CONTINUOUS
 62
    5
 10
1029.9254991561129
 20
1072.9296265941769
 11
1049.9254991561129
 21
1052.9296265941769
  0
LINE
  8
_0-0_
  6
CONTINUOUS
 62
    5
 10
1029.9254991561138
 20
1067.2727723446844
 11
1049.9254991561138
 21
1047.2727723446844
  0
LINE
  8
_0-0_
  6
CONTINUOUS
 62
    5
 10
1029.9254991561129
 20
1061.615918095192
 11
1049.9254991561129
 21
1041.615918095192
  0
LINE
  8
_0-0_
  6
CONTINUOUS
 62
    5
 10
1029.9254991561129
 20
1055.9590638456987
 11
1049.9254991561138
 21
1035.9590638456978
  0
LINE
  8
_0-0_
  6
CONTINUOUS
 62
    5
 10
1029.9254991561138
 20
1050.3022095962044
 11
1049.9254991561129
 21
1030.3022095962053
  0
LINE
  8
_0-0_
  6
CONTINUOUS
 62
    5
 10
1029.9254991561129
 20
1044.6453553467129
 11
1049.9254991561138
 21
1024.645355346712
  0
LINE
  8
_0-0_
  6
CONTINUOUS
 62
    5
 10
1029.9254991561129
 20
1038.9885010972223
 11
1049.9254991561129
 21
1018.9885010972223
  0
LINE
  8
_0-0_
  6
CONTINUOUS
 62
    5
 10
1029.9254991561138
 20
1033.3316468477299
 11
1049.9254991561129
 21
1013.3316468477299
  0
LINE
  8
_0-0_
  6
CONTINUOUS
 62
    5
 10
1029.9254991561129
 20
1027.6747925982365
 11
1049.9254991561129
 21
1007.6747925982374
  0
LINE
  8
_0-0_
  6
CONTINUOUS
 62
    5
 10
1029.9254991561129
 20
1022.017938348745
 11
1049.9254991561129
 21
1002.017938348745
  0
LINE
  8
_0-0_
  6
CONTINUOUS
 62
    5
 10
1029.9254991561129
 20
1016.3610840992526
 11
1049.9254991561129
 21
996.36108409925259
  0
LINE
  8
_0-0_
  6
CONTINUOUS
 62
    5
 10
1029.9254991561129
 20
1010.7042298497593
 11
1046.6374809438557
 21
993.99224806201642
  0
LINE
  8
_0-0_
  6
CONTINUOUS
 62
    5
 10
1029.9254991561138
 20
1005.0473756002668
 11
1040.9806266943642
 21
993.99224806201551
  0
LINE
  8
_0-0_
  6
CONTINUOUS
 62
    5
 10
1029.9254991561129
 20
999.39052135077532
 11
1035.3237724448727
 21
993.99224806201642
  0
LINE
  8
_0-0_
  6
CONTINUOUS
 62
    5
 10
1029.9254991561129
 20
1073.9922480620164
 11
1049.9254991561129
 21
1073.9922480620164
  0
LINE
  8
_0-0_
  6
CONTINUOUS
 62
    5
 10
1049.9254991561129
 20
1073.9922480620164
 11
1049.9254991561129
 21
993.99224806201642
  0
LINE
  8
_0-0_
  6
CONTINUOUS
 62
    5
 10
1208.1310968336484
 20
993.99224806201642
 11
1208.1310968336484
 21
1070.4922480620164
  0
LINE
  8
_0-0_
  6
CONTINUOUS
 62
    5
 10
1204.3810968336484
 20
993.99224806201642
 11
1204.3810968336484
 21
1070.4922480620164
  0
LINE
  8
_0-0_
  6
CONTINUOUS
 62
    5
 10
1200.6310968336484
 20
993.99224806201642
 11
1200.6310968336484
 21
1070.4922480620164
  0
LINE
  8
_0-0_
  6
CONTINUOUS
 62
    5
 10
1196.8810968336484
 20
993.99224806201642
 11
1196.8810968336484
 21
1070.4922480620164
  0
LINE
  8
_0-0_
  6
CONTINUOUS
 62
    5
 10
1193.1310968336484
 20
993.99224806201642
 11
1193.1310968336484
 21
1070.4922480620164
  0
LINE
  8
_0-0_
  6
CONTINUOUS
 62
    5
 10
1212.4170117350413
 20
1073.4922480620164
 11
1212.9170117350413
 21
1073.9922480620164
  0
LINE
  8
_0-0_
  6
CONTINUOUS
 62
    5
 10
1212.9170117350413
 20
1073.9922480620164
 11
1213.9170117350413
 21
1073.9922480620164
  0
LINE
  8
_0-0_
  6
CONTINUOUS
 62
    5
 10
1213.9170117350413
 20
1073.9922480620164
 11
1213.9170117350413
 21
1070.9922480620164
  0
LINE
  8
_0-0_
  6
CONTINUOUS
 62
    5
 10
1213.9170117350413
 20
1070.9922480620164
 11
1213.4170117350413
 21
1070.9922480620164
  0
LINE
  8
_0-0_
  6
CONTINUOUS
 62
    5
 10
1213.4170117350413
 20
1070.9922480620164
 11
1213.4170117350413
 21
1055.9922480620164
  0
LINE
  8
_0-0_
  6
CONTINUOUS
 62
    5
 10
1213.4170117350413
 20
1055.9922480620164
 11
1213.9170117350468
 21
1055.9922480620164
  0
LINE
  8
_0-0_
  6
CONTINUOUS
 62
    5
 10
1213.9170117350468
 20
1055.9922480620164
 11
1213.9170117350413
 21
1053.9922480620164
  0
LINE
  8
_0-0_
  6
CONTINUOUS
 62
    5
 10
1213.9170117350413
 20
1053.9922480620164
 11
1212.4170117350413
 21
1053.9922480620164
  0
LINE
  8
_0-0_
  6
CONTINUOUS
 62
    5
 10
1212.4170117350413
 20
1053.9922480620164
 11
1212.4170117350413
 21
1072.4922480620164
  0
LINE
  8
_0-0_
  6
CONTINUOUS
 62
    5
 10
1212.4170117350413
 20
1072.4922480620164
 11
1187.4170117350413
 21
1072.4922480620164
  0
LINE
  8
_0-0_
  6
CONTINUOUS
 62
    5
 10
1187.4170117350413
 20
1072.4922480620164
 11
1187.4170117350413
 21
1053.9922480620164
  0
LINE
  8
_0-0_
  6
CONTINUOUS
 62
    5
 10
1187.4170117350413
 20
1053.9922480620164
 11
1185.9170117350413
 21
1053.9922480620164
  0
LINE
  8
_0-0_
  6
CONTINUOUS
 62
    5
 10
1185.9170117350413
 20
1053.9922480620164
 11
1185.9170117350341
 21
1055.9922480620164
  0
LINE
  8
_0-0_
  6
CONTINUOUS
 62
    5
 10
1185.9170117350341
 20
1055.9922480620164
 11
1186.4170117350413
 21
1055.9922480620164
  0
LINE
  8
_0-0_
  6
CONTINUOUS
 62
    5
 10
1186.4170117350413
 20
1055.9922480620164
 11
1186.4170117350413
 21
1070.9922480620164
  0
LINE
  8
_0-0_
  6
CONTINUOUS
 62
    5
 10
1186.4170117350413
 20
1070.9922480620164
 11
1185.9170117350413
 21
1070.9922480620164
  0
LINE
  8
_0-0_
  6
CONTINUOUS
 62
    5
 10
1185.9170117350413
 20
1070.9922480620164
 11
1185.9170117350413
 21
1073.9922480620164
  0
LINE
  8
_0-0_
  6
CONTINUOUS
 62
    5
 10
1185.9170117350413
 20
1073.9922480620164
 11
1186.9170117350413
 21
1073.9922480620164
  0
LINE
  8
_0-0_
  6
CONTINUOUS
 62
    5
 10
1186.9170117350413
 20
1073.9922480620164
 11
1187.4170117350413
 21
1073.4922480620164
  0
LINE
  8
_0-0_
  6
CONTINUOUS
 62
    5
 10
1187.4170117350413
 20
1073.4922480620164
 11
1199.9170117350413
 21
1073.4922480620164
  0
LINE
  8
_0-0_
  6
CONTINUOUS
 62
    5
 10
1199.9170117350413
 20
1073.4922480620164
 11
1212.4170117350413
 21
1073.4922480620164
  0
LINE
  8
_0-0_
  6
CONTINUOUS
 62
    5
 10
1210.9170117350413
 20
1071.9922480620164
 11
1210.9170117350413
 21
1070.9922480620164
  0
LINE
  8
_0-0_
  6
CONTINUOUS
 62
    5
 10
1210.9170117350413
 20
1070.9922480620164
 11
1208.9170117350413
 21
1070.9922480620164
  0
LINE
  8
_0-0_
  6
CONTINUOUS
 62
    5
 10
1208.9170117350413
 20
1070.9922480620164
 11
1208.9170117350413
 21
1070.4922480620164
  0
LINE
  8
_0-0_
  6
CONTINUOUS
 62
    5
 10
1208.9170117350413
 20
1070.4922480620164
 11
1210.9170117350413
 21
1070.4922480620164
  0
LINE
  8
_0-0_
  6
CONTINUOUS
 62
    5
 10
1210.9170117350413
 20
1070.4922480620164
 11
1210.9170117350413
 21
1058.9922480620164
  0
LINE
  8
_0-0_
  6
CONTINUOUS
 62
    5
 10
1210.9170117350413
 20
1058.9922480620164
 11
1210.4170117350413
 21
1058.9922480620164
  0
LINE
  8
_0-0_
  6
CONTINUOUS
 62
    5
 10
1210.4170117350413
 20
1058.9922480620164
 11
1210.9170117350413
 21
1057.9922480620164
  0
LINE
  8
_0-0_
  6
CONTINUOUS
 62
    5
 10
1210.9170117350413
 20
1057.9922480620164
 11
1210.9170117350413
 21
1044.9922480620164
  0
LINE
  8
_0-0_
  6
CONTINUOUS
 62
    5
 10
1210.9170117350413
 20
1044.9922480620164
 11
1210.4170117350413
 21
1044.9922480620164
  0
LINE
  8
_0-0_
  6
CONTINUOUS
 62
    5
 10
1210.4170117350413
 20
1044.9922480620164
 11
1210.9170117350413
 21
1043.9922480620164
  0
LINE
  8
_0-0_
  6
CONTINUOUS
 62
    5
 10
1210.9170117350413
 20
1043.9922480620164
 11
1211.9170117350413
 21
1043.9922480620164
  0
LINE
  8
_0-0_
  6
CONTINUOUS
 62
    5
 10
1211.9170117350413
 20
1043.9922480620164
 11
1211.9170117350413
 21
1070.4922480620164
  0
LINE
  8
_0-0_
  6
CONTINUOUS
 62
    5
 10
1211.9170117350413
 20
1070.4922480620164
 11
1212.4170117350413
 21
1070.4922480620164
  0
LINE
  8
_0-0_
  6
CONTINUOUS
 62
    5
 10
1212.4170117350413
 20
1070.4922480620164
 11
1212.4170117350413
 21
1072.4922480620164
  0
LINE
  8
_0-0_
  6
CONTINUOUS
 62
    5
 10
1212.4170117350413
 20
1072.4922480620164
 11
1187.4170117350413
 21
1072.4922480620164
  0
LINE
  8
_0-0_
  6
CONTINUOUS
 62
    5
 10
1187.4170117350413
 20
1072.4922480620164
 11
1187.4170117350413
 21
1070.4922480620164
  0
LINE
  8
_0-0_
  6
CONTINUOUS
 62
    5
 10
1187.4170117350413
 20
1070.4922480620164
 11
1187.9170117350413
 21
1070.4922480620164
  0
LINE
  8
_0-0_
  6
CONTINUOUS
 62
    5
 10
1187.9170117350413
 20
1070.4922480620164
 11
1187.9170117350413
 21
1043.9922480620164
  0
LINE
  8
_0-0_
  6
CONTINUOUS
 62
    5
 10
1187.9170117350413
 20
1043.9922480620164
 11
1188.9170117350413
 21
1043.9922480620164
  0
LINE
  8
_0-0_
  6
CONTINUOUS
 62
    5
 10
1188.9170117350413
 20
1043.9922480620164
 11
1189.4170117350413
 21
1044.9922480620164
  0
LINE
  8
_0-0_
  6
CONTINUOUS
 62
    5
 10
1189.4170117350413
 20
1044.9922480620164
 11
1188.9170117350413
 21
1044.9922480620164
  0
LINE
  8
_0-0_
  6
CONTINUOUS
 62
    5
 10
1188.9170117350413
 20
1044.9922480620164
 11
1188.9170117350413
 21
1057.9922480620164
  0
LINE
  8
_0-0_
  6
CONTINUOUS
 62
    5
 10
1188.9170117350413
 20
1057.9922480620164
 11
1189.4170117350413
 21
1058.9922480620164
  0
LINE
  8
_0-0_
  6
CONTINUOUS
 62
    5
 10
1189.4170117350413
 20
1058.9922480620164
 11
1188.9170117350413
 21
1058.9922480620164
  0
LINE
  8
_0-0_
  6
CONTINUOUS
 62
    5
 10
1188.9170117350413
 20
1058.9922480620164
 11
1188.9170117350413
 21
1070.4922480620164
  0
LINE
  8
_0-0_
  6
CONTINUOUS
 62
    5
 10
1188.9170117350413
 20
1070.4922480620164
 11
1190.9170117350413
 21
1070.4922480620164
  0
LINE
  8
_0-0_
  6
CONTINUOUS
 62
    5
 10
1190.9170117350413
 20
1070.4922480620164
 11
1190.9170117350413
 21
1070.9922480620164
  0
LINE
  8
_0-0_
  6
CONTINUOUS
 62
    5
 10
1190.9170117350413
 20
1070.9922480620164
 11
1188.9170117350413
 21
1070.9922480620164
  0
LINE
  8
_0-0_
  6
CONTINUOUS
 62
    5
 10
1188.9170117350413
 20
1070.9922480620164
 11
1188.9170117350413
 21
1071.9922480620164
  0
LINE
  8
_0-0_
  6
CONTINUOUS
 62
    5
 10
1188.9170117350413
 20
1071.9922480620164
 11
1210.9170117350413
 21
1071.9922480620164
  0
LINE
  8
_0-0_
  6
CONTINUOUS
 62
    5
 10
1189.9170117350413
 20
993.99224806201642
 11
1189.9170117350413
 21
1070.4922480620164
  0
LINE
  8
_0-0_
  6
CONTINUOUS
 62
    5
 10
1189.9170117350413
 20
1070.4922480620164
 11
1209.9170117350413
 21
1070.4922480620164
  0
LINE
  8
_0-0_
  6
CONTINUOUS
 62
    5
 10
1209.9170117350413
 20
1070.4922480620164
 11
1209.9170117350413
 21
993.99224806201642
  0
LINE
  8
_0-0_
  6
CONTINUOUS
 62
    7
 10
1049.9254991561129
 20
999.08011814743281
 11
1055.0133692415302
 21
993.99224806201642
  0
LINE
  8
_0-0_
  6
CONTINUOUS
 62
    7
 10
1049.9254991561129
 20
1006.1511859592977
 11
1062.084437053395
 21
993.99224806201642
  0
LINE
  8
_0-0_
  6
CONTINUOUS
 62
    7
 10
1049.9254991561129
 20
1013.2222537711634
 11
1069.1555048652617
 21
993.99224806201551
  0
LINE
  8
_0-0_
  6
CONTINUOUS
 62
    7
 10
1498.2723873195746
 20
1073.9922480620164
 11
1523.9254991561129
 21
1048.3391362254772
  0
LINE
  8
_0-0_
  6
CONTINUOUS
 62
    7
 10
1491.2013195077097
 20
1073.9922480620155
 11
1523.9254991561129
 21
1041.2680684136124
  0
LINE
  8
_0-0_
  6
CONTINUOUS
 62
    7
 10
1484.130251695844
 20
1073.9922480620155
 11
1523.9254991561129
 21
1034.1970006017466
  0
LINE
  8
_0-0_
  6
CONTINUOUS
 62
    7
 10
1213.9170117350413
 20
1073.9922480620164
 11
1523.9254991561129
 21
1073.9922480620164
  0
LINE
  8
_0-0_
  6
CONTINUOUS
 62
    7
 10
1229.5718104686866
 20
1073.9922480620155
 11
1309.5718104686866
 21
993.99224806201551
  0
LINE
  8
_0-0_
  6
CONTINUOUS
 62
    7
 10
1236.6428782805515
 20
1073.9922480620164
 11
1316.6428782805515
 21
993.99224806201642
  0
LINE
  8
_0-0_
  6
CONTINUOUS
 62
    7
 10
1243.7139460924182
 20
1073.9922480620164
 11
1323.7139460924182
 21
993.99224806201642
  0
LINE
  8
_0-0_
  6
CONTINUOUS
 62
    7
 10
1185.9170117350413
 20
1073.9922480620164
 11
1029.9254991561129
 21
1073.9922480620164
  0
LINE
  8
_0-0_
  6
CONTINUOUS
 62
    7
 10
1029.9254991561129
 20
993.99224806201551
 11
1523.9254991561129
 21
993.99224806201551
  0
LINE
  8
_0-0_
  6
CONTINUOUS
 62
    5
 10
1029.9254991561129
 20
992.99224806201551
 11
1523.9254991561129
 21
992.99224806201551
  0
LINE
  8
_0-0_
  6
CONTINUOUS
 62
    4
 10
1029.9254991561129
 20
991.99224806201551
 11
1523.9254991561129
 21
991.99224806201551
  0
LINE
  8
_0-0_
  6
CONTINUOUS
 62
    4
 10
1029.9254991561129
 20
1259.7520630606389
 11
1029.9254991561129
 21
991.99224806201551
  0
LINE
  8
_0-0_
  6
CONTINUOUS
 62
    7
 10
1223.9254991561129
 20
802.99224806201551
 11
1523.9254991561129
 21
802.99224806201551
  0
LINE
  8
_0-0_
  6
CONTINUOUS
 62
    7
 10
873.92549915611301
 20
793.99296755023647
 11
1062.9247796678928
 21
982.99224806201551
  0
LINE
  8
_0-0_
  6
CONTINUOUS
 62
    7
 10
873.92549915611301
 20
786.92189973837071
 11
1069.9958474797577
 21
982.99224806201551
  0
LINE
  8
_0-0_
  6
CONTINUOUS
 62
    7
 10
873.92549915611391
 20
779.85083192650677
 11
1077.0669152916234
 21
982.99224806201551
  0
LINE
  8
_0-0_
  6
CONTINUOUS
 62
    7
 10
1079.1989496475881
 20
772.99224806201551
 11
1289.1989496475881
 21
982.99224806201551
  0
LINE
  8
_0-0_
  6
CONTINUOUS
 62
    7
 10
1086.2700174594529
 20
772.99224806201551
 11
1296.2700174594538
 21
982.99224806201551
  0
LINE
  8
_0-0_
  6
CONTINUOUS
 62
    7
 10
1093.3410852713168
 20
772.9922480620146
 11
1303.3410852713178
 21
982.99224806201551
  0
LINE
  8
_0-0_
  6
CONTINUOUS
 62
    7
 10
1223.9254991561129
 20
802.99224806201551
 11
1223.9254991561129
 21
772.99224806201551
  0
LINE
  8
_0-0_
  6
CONTINUOUS
 62
    7
 10
1335.4731196272833
 20
802.99224806201551
 11
1515.4731196272833
 21
982.99224806201551
  0
LINE
  8
_0-0_
  6
CONTINUOUS
 62
    7
 10
1342.5441874391481
 20
802.99224806201551
 11
1522.5441874391481
 21
982.99224806201551
  0
LINE
  8
_0-0_
  6
CONTINUOUS
 62
    7
 10
1349.6152552510121
 20
802.99224806201551
 11
1523.9254991561138
 21
977.30249196711543
  0
LINE
  8
_0-0_
  6
CONTINUOUS
 62
    7
 10
1199.3585013706106
 20
1058.4793415244396
 11
1281.4101155775797
 21
1200.5969061739518
  0
POINT
  8
_0-0_
 62
    7
 10
1199.3585013706106
 20
1058.4793415244396
  0
LINE
  8
_0-0_
  6
CONTINUOUS
 62
    7
 10
1040.8751619269651
 20
1062.5594262972311
 11
1082.8207677818627
 21
1135.2113467921711
  0
POINT
  8
_0-0_
 62
    7
 10
1040.8751619269651
 20
1062.5594262972311
  0
TEXT
  8
_0-0_
 62
    7
 10
1286.7407082371201
 20
1185.8500159400312
 40
30
 41
1
 50
0
  1
伸縮目地
  0
TEXT
  8
_0-0_
 62
    7
 10
1071.6776694394439
 20
1140.2128065807894
 40
30
 41
1
 50
0
  1
成型緩衝材
  0
POINT
  8
_0-0_
 62
    7
 10
1332.3336842818899
 20
987.54161313333066
  0
LINE
  8
_0-0_
  6
CONTINUOUS
 62
    7
 10
1332.3336842818899
 20
987.54161313333066
 11
1425.6716647028625
 21
1149.2077374983239
  0
TEXT
  8
_0-0_
 62
    7
 10
1430.1415846956079
 20
1137.1003327349983
 40
30
 41
1
 50
0
  1
防水層
  0
CIRCLE
  8
_0-0_
  6
DASHED2
 62
    1
 10
1029.9254991561138
 20
1033.3316468477299
 40
80
  0
CIRCLE
  8
_0-0_
  6
DASHED2
 62
    1
 10
949.32003385649944
 20
1270.0629980863835
 40
100
  0
TEXT
  8
_0-0_
 62
    7
 10
941.77254389102939
 20
1358.4764519675994
 40
24
 41
1
 50
0
  1
Ａ
  0
TEXT
  8
_0-0_
 62
    7
 10
989.21390938826801
 20
1093.5954946080212
 40
24
 41
1
 50
0
  1
Ｂ
  0
LINE
  8
_0-0_
  6
CONTINUOUS
 62
    7
 10
1124.4670144048614
 20
439.4193768810805
 11
1084.8728068387263
 21
402.49718100199607
  0
POINT
  8
_0-0_
 62
    7
 10
1084.8728068387263
 20
402.49718100199607
  0
TEXT
  8
_0-0_
 62
    7
 10
1099.5636361260752
 20
440.02526831073857
 40
21.617968000000001
 41
1
 50
0
  1
面取り
  0
LINE
  8
_0-0_
  6
CONTINUOUS
 62
    7
 10
672.13606690525205
 20
1633.3565543671132
 11
1706.8525777203677
 21
1633.3565543671132
  0
LINE
  8
_0-0_
  6
CONTINUOUS
 62
    7
 10
672.13606690525205
 20
1553.3565543671132
 11
1706.8525777203677
 21
1553.3565543671132
  0
LINE
  8
_0-0_
  6
CONTINUOUS
 62
    7
 10
672.13606690525205
 20
1473.3565543671132
 11
1706.8525777203677
 21
1473.3565543671132
  0
LINE
  8
_0-0_
  6
CONTINUOUS
 62
    7
 10
1189.4943223128103
 20
1633.3565543671132
 11
1189.4943223128103
 21
1473.3565543671132
  0
TEXT
  8
_0-0_
 62
    7
 10
696.13606690525205
 20
1497.3565543671132
 40
20
 41
1
 50
0
  1
施工部位：パラペット(外壁タイル)
  0
TEXT
  8
_0-0_
 62
    7
 10
1213.4943223128103
 20
1577.3565543671132
 40
20
 41
1
 50
0
  1
構造：ＲＣ造
  0
TEXT
  8
_0-0_
 62
    7
 10
1213.4943223128103
 20
1497.3565543671132
 40
20
 41
1
 50
0
  1
下地：コンクリートスラブ
  0
TEXT
  8
_0-0_
 62
    7
 10
696.13606690525205
 20
1577.3565543671132
 40
20
 41
1
 50
0
  1
図面番号：UPM-10C-para-02
  0
ENDSEC
  0
EOF
