  0
SECTION
  2
HEADER
  9
$ACADVER
  1
AC1009
  9
$INSBASE
 10
0
 20
0
 30
0
  9
$EXTMIN
 10
0
 20
0
  9
$EXTMAX
 10
2378
 20
1682
  9
$LIMMIN
 10
0
 20
0
  9
$LIMMAX
 10
2378
 20
1682
  9
$LTSCALE
 40
1
  0
ENDSEC
  0
SECTION
  2
TABLES
  0
TABLE
  2
LTYPE
 70
     9
  0
LTYPE
  2
CONTINUOUS
 70
    64
  3
実線
 72
    65
 73
     0
 40
0.0
  0
LTYPE
  2
DASHED1
 70
    64
  3
--  --  --  --  --  --  --  --  
 72
    65
 73
     2
 40
2.5
 49
1.25
 49
-1.25
  0
LTYPE
  2
DASHED2
 70
    64
  3
----    ----    ----    ----    
 72
    65
 73
     2
 40
5.0
 49
2.5
 49
-2.5
  0
LTYPE
  2
DASHED3
 70
    64
  3
------  ------  ------  ------  
 72
    65
 73
     2
 40
5.0
 49
3.75
 49
-1.25
  0
LTYPE
  2
CENTER1
 70
    64
  3
----- - ----- - ----- - ----- - 
 72
    65
 73
     4
 40
10.0
 49
6.25
 49
-1.25
 49
1.25
 49
-1.25
  0
LTYPE
  2
CENTER2
 70
    64
  3
----------  --  ----------  --  
 72
    65
 73
     4
 40
20.0
 49
12.5
 49
-2.5
 49
2.5
 49
-2.5
  0
LTYPE
  2
PHANTOM1
 70
    64
  3
--- - - --- - - --- - - --- - - 
 72
    65
 73
     6
 40
10.0
 49
3.25
 49
-1.25
 49
1.25
 49
-1.25
 49
1.25
 49
-1.25
  0
LTYPE
  2
PHANTOM2
 70
    64
  3
--------  -  -  --------  -  -  
 72
    65
 73
     6
 40
20.0
 49
10.0
 49
-2.5
 49
1.25
 49
-2.5
 49
1.25
 49
-2.5
  0
LTYPE
  2
DOT
 70
    64
  3
-   -   -   -   -   -   -   -   
 72
    65
 73
     2
 40
2.5
 49
0.625
 49
-1.875
  0
LTYPE
  2
DUMMY
 70
    64
  3
ダミー
 72
    65
 73
     0
 40
0.0
  0
LTYPE
  2
RAND1
 70
    64
  3
ランダム線1
 72
    65
 73
     4
 40
10.0
 49
1.0
 49
-2.0
 49
3.0
 49
-4.0
  0
LTYPE
  2
RAND2
 70
    64
  3
ランダム線2
 72
    65
 73
     4
 40
14.0
 49
2.0
 49
-3.0
 49
4.0
 49
-5.0
  0
LTYPE
  2
RAND3
 70
    64
  3
ランダム線3
 72
    65
 73
     4
 40
18.0
 49
3.0
 49
-4.0
 49
5.0
 49
-6.0
  0
LTYPE
  2
RAND4
 70
    64
  3
ランダム線4
 72
    65
 73
     4
 40
22.0
 49
4.0
 49
-5.0
 49
6.0
 49
-7.0
  0
LTYPE
  2
RAND5
 70
    64
  3
ランダム線5
 72
    65
 73
     4
 40
26.0
 49
5.0
 49
-6.0
 49
7.0
 49
-8.0
  0
LTYPE
  2
LONG1
 70
    64
  3
----------  --  ----------  --  
 72
    65
 73
     4
 40
40.0
 49
32.5
 49
-2.5
 49
2.5
 49
-2.5
  0
LTYPE
  2
LONG2
 70
    64
  3
--------  -  -  --------  -  -  
 72
    65
 73
     6
 40
40.0
 49
30.0
 49
-2.5
 49
1.25
 49
-2.5
 49
1.25
 49
-2.5
  0
LTYPE
  2
LONG3
 70
    64
  3
+++++++++++++++..+++++++++++++++
 72
    65
 73
     2
 40
40.0
 49
37.5
 49
-2.5
  0
LTYPE
  2
LONG4
 70
    64
  3
+++++++++++++++..+++++++++++++++
 72
    65
 73
     2
 40
80.0
 49
75.0
 49
-5.0
  0
LTYPE
  2
LONG5
 70
    64
  3
----------  --  ----------  --  
 72
    65
 73
     4
 40
60.0
 49
37.5
 49
-7.5
 49
7.5
 49
-7.5
  0
LTYPE
  2
dashed
 70
   64
  3
-------   -------------   ------
 72
   65
 73
    2
 40
7.5
 49
6
 49
-1.5
  0
LTYPE
  2
dashed_spaced
 70
   64
  3
----        --------        ----
 72
   65
 73
    2
 40
12
 49
6
 49
-6
  0
LTYPE
  2
long_dashed_dotted
 70
   64
  3
------------- --- --------------
 72
   65
 73
    4
 40
15.25
 49
12
 49
-1.5
 49
0.25
 49
-1.5
  0
LTYPE
  2
long_dashed_double-dotted
 70
   64
  3
----------- --- --- ------------
 72
   65
 73
    6
 40
17
 49
12
 49
-1.5
 49
0.25
 49
-1.5
 49
0.25
 49
-1.5
  0
LTYPE
  2
long_dashed_triplicate-dotted
 70
   64
  3
--------- --- --- --- ----------
 72
   65
 73
    8
 40
18.75
 49
12
 49
-1.5
 49
0.25
 49
-1.5
 49
0.25
 49
-1.5
 49
0.25
 49
-1.5
  0
LTYPE
  2
dotted
 70
   64
  3
   -       -       -       -    
 72
   65
 73
    2
 40
1.75
 49
0.25
 49
-1.5
  0
LTYPE
  2
chain
 70
   64
  3
-------------- -- --------------
 72
   65
 73
    4
 40
18.5
 49
12
 49
-1.5
 49
3.5
 49
-1.5
  0
LTYPE
  2
chain_double_dash
 70
   64
  3
------------ -- -- -------------
 72
   65
 73
    6
 40
23.5
 49
12
 49
-1.5
 49
3.5
 49
-1.5
 49
3.5
 49
-1.5
  0
LTYPE
  2
dashed_dotted
 70
   64
  3
-----------     -     ----------
 72
   65
 73
    4
 40
9.25
 49
6
 49
-1.5
 49
0.25
 49
-1.5
  0
LTYPE
  2
double-dashed_dotted
 70
   64
  3
------   -----------   -   -----
 72
   65
 73
    6
 40
16.75
 49
6
 49
-1.5
 49
6
 49
-1.5
 49
0.25
 49
-1.5
  0
LTYPE
  2
dashed_double-dotted
 70
   64
  3
---------    -    -    ---------
 72
   65
 73
    6
 40
11
 49
6
 49
-1.5
 49
0.25
 49
-1.5
 49
0.25
 49
-1.5
  0
LTYPE
  2
double-dashed_double-dotted
 70
   64
  3
-----   ---------   -   -   ----
 72
   65
 73
    8
 40
18.5
 49
6
 49
-1.5
 49
6
 49
-1.5
 49
0.25
 49
-1.5
 49
0.25
 49
-1.5
  0
LTYPE
  2
dashed_triplicate-dotted
 70
   64
  3
-------    -    -    -    ------
 72
   65
 73
    8
 40
12.75
 49
6
 49
-1.5
 49
0.25
 49
-1.5
 49
0.25
 49
-1.5
 49
0.25
 49
-1.5
  0
LTYPE
  2
double-dashed_triplicate-dotted
 70
   64
  3
-----  ---------  -  -  -  -----
 72
   65
 73
   10
 40
20.25
 49
6
 49
-1.5
 49
6
 49
-1.5
 49
0.25
 49
-1.5
 49
0.25
 49
-1.5
 49
0.25
 49
-1.5
  0
LTYPE
  2
undefined
 70
   64
  3
--------------------------------
 72
   65
 73
    0
 40
0
  0
ENDTAB
  0
TABLE
  2
STYLE
  5
3
100
AcDbSymbolTable
 70
     1
  0
STYLE
  5
10
100
AcDbSymbolTableRecord
100
AcDbTextStyleTableRecord
  2
STANDARD
 70
     0
 40
0.0
 41
1.0
 50
0.0
 71
     0
 42
0.2
  3
txt
  4
bigfont.shx
  0
STYLE
  5
26
100
AcDbSymbolTableRecord
100
AcDbTextStyleTableRecord
  2
TATEGAKI
 70
    68
 40
0.0
 41
1.0
 50
0.0
 71
     0
 42
1.0
  3
txt
  4
bigfont.shx
  0
ENDTAB
  0
TABLE
  2
LAYER
 70
    2
  0
LAYER
  2
_0-0_
 70
   64
 62
    7
  6
CONTINUOUS
  0
LAYER
  2
ADD_LINE
 70
   64
 62
    7
  6
CONTINUOUS
  0
ENDTAB
  0
ENDSEC
  0
SECTION
  2
BLOCKS
  0
ENDSEC
  0
SECTION
  2
ENTITIES
  0
LINE
  8
_0-0_
  6
CONTINUOUS
 62
    2
 10
1368.2476606424607
 20
1240.8714433297512
 11
1373.5979634723662
 21
1246.2217461596567
  0
LINE
  8
_0-0_
  6
CONTINUOUS
 62
    7
 10
1087.7843722939106
 20
1246.2217461596567
 11
1449.1896791582585
 21
1246.2217461596567
  0
LINE
  8
_0-0_
  6
CONTINUOUS
 62
    7
 10
1513.7531429877054
 20
732.17009188254292
 11
1514.7843722939142
 21
733.20132118875176
  0
LINE
  8
_0-0_
  6
CONTINUOUS
 62
    2
 10
1376.3499830577457
 20
1118.3004325817612
 11
1377.8877539518162
 21
1119.8382034758336
  0
LINE
  8
_0-0_
  6
CONTINUOUS
 62
    2
 10
1374.7884859574333
 20
1118.7188344687722
 11
1377.0359802294479
 21
1120.9663287407868
  0
LINE
  8
_0-0_
  6
CONTINUOUS
 62
    2
 10
1373.2269888571227
 20
1119.137236355785
 11
1376.2756400259295
 21
1122.18588752459
  0
LINE
  8
_0-0_
  6
CONTINUOUS
 62
    7
 10
1150.7843722939106
 20
1106.2217461596586
 11
1150.7843722939106
 21
700.86334575368369
  0
LINE
  8
_0-0_
  6
CONTINUOUS
 62
    7
 10
672.13606690525205
 20
567.531069972056
 11
1706.8525777203686
 21
567.531069972056
  0
LINE
  8
_0-0_
  6
CONTINUOUS
 62
    7
 10
672.13606690525205
 20
167.53106997205509
 11
1706.8525777203686
 21
167.53106997205509
  0
LINE
  8
_0-0_
  6
CONTINUOUS
 62
    7
 10
672.13606690525205
 20
627.531069972056
 11
1706.8525777203686
 21
627.531069972056
  0
LINE
  8
_0-0_
  6
CONTINUOUS
 62
    7
 10
1189.4943223128103
 20
627.531069972056
 11
1189.4943223128103
 21
167.53106997205509
  0
LINE
  8
_0-0_
  6
CONTINUOUS
 62
    7
 10
672.13606690525205
 20
1633.356554367115
 11
672.13606690525205
 21
167.53106997205509
  0
LINE
  8
_0-0_
  6
CONTINUOUS
 62
    7
 10
1706.8525777203686
 20
1633.356554367115
 11
1706.8525777203686
 21
167.53106997205509
  0
TEXT
  8
_0-0_
 62
    7
 10
906.73245032900388
 20
575.67973412101333
 40
40
 41
1
 50
0
  1
Ａ
  0
TEXT
  8
_0-0_
 62
    7
 10
1429.6891920142116
 20
576.02721287347799
 40
40
 41
1
 50
0
  1
Ｂ
  0
LINE
  8
_0-0_
  6
CONTINUOUS
 62
    7
 10
1497.895766268437
 20
1351.4764552103745
 11
1505.1896791582585
 21
1343.9233873068199
  0
LINE
  8
_0-0_
  6
CONTINUOUS
 62
    7
 10
1463.1896791582549
 20
1246.2217461596567
 11
1459.6896791582585
 21
1256.7217461596586
  0
LINE
  8
_0-0_
  6
CONTINUOUS
 62
    7
 10
1459.6896791582585
 20
1256.7217461596586
 11
1449.1896791582585
 21
1256.7217461596586
  0
LINE
  8
_0-0_
  6
CONTINUOUS
 62
    7
 10
1449.1896791582585
 20
1256.7217461596586
 11
1449.1896791582585
 21
1246.2217461596567
  0
LINE
  8
_0-0_
  6
CONTINUOUS
 62
    7
 10
1505.1896791582585
 20
1343.9233873068199
 11
1497.895766268437
 21
1351.4764552103745
  0
LINE
  8
_0-0_
  6
CONTINUOUS
 62
    7
 10
996.63744019746457
 20
1368.9807816709192
 11
1497.895766268437
 21
1351.4764552103745
  0
LINE
  8
_0-0_
  6
CONTINUOUS
 62
    7
 10
996.63744019746457
 20
1368.9807816709192
 11
989.08437229390995
 21
1361.6868687810995
  0
LINE
  8
_0-0_
  6
CONTINUOUS
 62
    7
 10
1505.1896791582585
 20
1253.6463673621158
 11
1505.1896791582585
 21
1343.9233873068199
  0
LINE
  8
_0-0_
  6
CONTINUOUS
 62
    7
 10
1497.7650579557994
 20
1246.2217461596567
 11
1463.1896791582549
 21
1246.2217461596567
  0
LINE
  8
_0-0_
  6
CONTINUOUS
 62
    7
 10
1505.1896791582585
 20
1253.6463673621158
 11
1497.7650579557994
 21
1246.2217461596567
  0
LINE
  8
_0-0_
  6
CONTINUOUS
 62
  136
 10
1322.2843722939106
 20
1212.6217461596582
 11
1326.4843722939113
 21
1212.6217461596582
  0
LINE
  8
_0-0_
  6
CONTINUOUS
 62
  136
 10
1322.2843722939106
 20
1198.6217461596582
 11
1322.2843722939106
 21
1212.6217461596582
  0
LINE
  8
_0-0_
  6
CONTINUOUS
 62
  136
 10
1326.4843722939113
 20
1198.6217461596582
 11
1326.4843722939113
 21
1212.6217461596582
  0
LINE
  8
_0-0_
  6
CONTINUOUS
 62
  136
 10
1269.7843722939106
 20
1198.6217461596582
 11
1322.2843722939106
 21
1198.6217461596582
  0
LINE
  8
_0-0_
  6
CONTINUOUS
 62
  136
 10
1269.7843722939106
 20
1125.8217461596589
 11
1322.2843722939106
 21
1125.8217461596589
  0
LINE
  8
_0-0_
  6
CONTINUOUS
 62
  136
 10
1322.2843722939106
 20
1125.8217461596589
 11
1322.2843722939106
 21
1111.8217461596589
  0
LINE
  8
_0-0_
  6
CONTINUOUS
 62
  136
 10
1322.2843722939106
 20
1111.8217461596589
 11
1326.4843722939113
 21
1111.8217461596589
  0
LINE
  8
_0-0_
  6
CONTINUOUS
 62
  136
 10
1326.4843722939113
 20
1125.8217461596589
 11
1326.4843722939113
 21
1111.8217461596589
  0
LINE
  8
_0-0_
  6
CONTINUOUS
 62
    7
 10
1357.9843722939113
 20
1194.4217461596593
 11
1368.4843722939113
 21
1190.2217461596586
  0
LINE
  8
_0-0_
  6
CONTINUOUS
 62
    7
 10
1368.4843722939113
 20
1194.4217461596593
 11
1357.9843722939113
 21
1190.2217461596586
  0
LINE
  8
_0-0_
  6
CONTINUOUS
 62
    7
 10
1357.9843722939113
 20
1134.2217461596586
 11
1368.4843722939113
 21
1130.0217461596578
  0
LINE
  8
_0-0_
  6
CONTINUOUS
 62
    7
 10
1368.4843722939113
 20
1134.2217461596586
 11
1357.9843722939113
 21
1130.0217461596578
  0
LINE
  8
_0-0_
  6
CONTINUOUS
 62
    7
 10
1357.9843722939113
 20
1134.2217461596586
 11
1357.9843722939113
 21
1130.0217461596578
  0
LINE
  8
_0-0_
  6
CONTINUOUS
 62
    7
 10
1368.4843722939113
 20
1134.2217461596586
 11
1368.4843722939113
 21
1130.0217461596578
  0
LINE
  8
_0-0_
  6
CONTINUOUS
 62
    7
 10
1368.4843722939113
 20
1194.4217461596593
 11
1368.4843722939113
 21
1190.2217461596586
  0
LINE
  8
_0-0_
  6
CONTINUOUS
 62
    7
 10
1357.9843722939113
 20
1194.4217461596593
 11
1357.9843722939113
 21
1190.2217461596586
  0
LINE
  8
_0-0_
  6
CONTINUOUS
 62
    2
 10
1370.2522057497408
 20
1130.0217461596596
 11
1374.4522057497416
 21
1134.2217461596586
  0
LINE
  8
_0-0_
  6
CONTINUOUS
 62
    2
 10
1368.4843722939113
 20
1130.2338116911535
 11
1372.4723067624182
 21
1134.2217461596586
  0
LINE
  8
_0-0_
  6
CONTINUOUS
 62
    2
 10
1368.4843722939113
 20
1132.2137106784733
 11
1370.4924077750948
 21
1134.2217461596586
  0
LINE
  8
_0-0_
  6
CONTINUOUS
 62
    2
 10
1368.4843722939113
 20
1134.1936096657967
 11
1368.512508787775
 21
1134.2217461596586
  0
LINE
  8
_0-0_
  6
CONTINUOUS
 62
    2
 10
1369.075337142749
 20
1190.2217461596604
 11
1373.2753371427498
 21
1194.4217461596593
  0
LINE
  8
_0-0_
  6
CONTINUOUS
 62
    2
 10
1368.4843722939113
 20
1191.6106802981424
 11
1371.2954381554264
 21
1194.4217461596575
  0
LINE
  8
_0-0_
  6
CONTINUOUS
 62
    2
 10
1368.4843722939113
 20
1193.5905792854658
 11
1369.315539168103
 21
1194.4217461596575
  0
LINE
  8
_0-0_
  6
CONTINUOUS
 62
    7
 10
1364.2843722939106
 20
1115.3217461596589
 11
1364.2843722939106
 21
1125.8217461596589
  0
LINE
  8
_0-0_
  6
CONTINUOUS
 62
    7
 10
1364.2843722939106
 20
1115.3217461596589
 11
1374.7843722939106
 21
1112.5082796391318
  0
LINE
  8
_0-0_
  6
CONTINUOUS
 62
  136
 10
1269.7843722939106
 20
1198.6217461596582
 11
1269.7843722939106
 21
1194.4217461596593
  0
LINE
  8
_0-0_
  6
CONTINUOUS
 62
  136
 10
1269.7843722939106
 20
1130.0217461596578
 11
1269.7843722939106
 21
1125.8217461596589
  0
LINE
  8
_0-0_
  6
CONTINUOUS
 62
    2
 10
1364.2843722939106
 20
1122.074013716506
 11
1368.0321047370635
 21
1125.8217461596571
  0
LINE
  8
_0-0_
  6
CONTINUOUS
 62
    2
 10
1364.2843722939142
 20
1124.0539127038312
 11
1366.0522057497437
 21
1125.8217461596589
  0
LINE
  8
_0-0_
  6
CONTINUOUS
 62
    7
 10
1364.2843722939106
 20
1235.7217461596567
 11
1364.2843722939106
 21
1246.2217461596567
  0
LINE
  8
_0-0_
  6
CONTINUOUS
 62
    7
 10
1364.2843722939106
 20
1235.7217461596567
 11
1374.7843722939106
 21
1232.9082796391315
  0
LINE
  8
_0-0_
  6
CONTINUOUS
 62
  136
 10
1374.7843722939106
 20
1130.0217461596578
 11
1374.7843722939106
 21
1125.8217461596589
  0
LINE
  8
_0-0_
  6
CONTINUOUS
 62
  136
 10
1374.7843722939106
 20
1198.6217461596582
 11
1374.7843722939106
 21
1194.4217461596593
  0
LINE
  8
_0-0_
  6
CONTINUOUS
 62
  136
 10
1326.4843722939113
 20
1198.6217461596582
 11
1374.7843722939106
 21
1198.6217461596582
  0
LINE
  8
_0-0_
  6
CONTINUOUS
 62
  136
 10
1269.7843722939106
 20
1194.4217461596593
 11
1374.7843722939106
 21
1194.4217461596593
  0
LINE
  8
_0-0_
  6
CONTINUOUS
 62
  136
 10
1269.7843722939106
 20
1130.0217461596578
 11
1374.7843722939106
 21
1130.0217461596578
  0
LINE
  8
_0-0_
  6
CONTINUOUS
 62
  136
 10
1326.4843722939113
 20
1125.8217461596589
 11
1374.7843722939106
 21
1125.8217461596589
  0
ARC
  8
_0-0_
  6
CONTINUOUS
 62
    2
 10
1387.1289294274357
 20
1132.1217461596582
 40
12.521904440733111
 50
170.34552531892481
 51
189.65447468107519
  0
LINE
  8
_0-0_
  6
CONTINUOUS
 62
    2
 10
1372.2321047370642
 20
1130.0217461596578
 11
1374.6101114688609
 21
1132.3997528914563
  0
LINE
  8
_0-0_
  6
CONTINUOUS
 62
    2
 10
1374.212003724384
 20
1130.0217461596578
 11
1374.7099334296327
 21
1130.5196758649047
  0
ARC
  8
_0-0_
  6
CONTINUOUS
 62
    2
 10
1384.7671180513389
 20
1192.3217461596589
 40
10.201235849513667
 50
168.12030433418508
 51
191.87969566581492
  0
LINE
  8
_0-0_
  6
CONTINUOUS
 62
    2
 10
1373.0351351173922
 20
1190.2217461596567
 11
1374.5809466415012
 21
1191.7675576837657
  0
LINE
  8
_0-0_
  6
CONTINUOUS
 62
    2
 10
1371.0552361300688
 20
1190.2217461596567
 11
1374.6805631171774
 21
1193.8470731467653
  0
LINE
  8
_0-0_
  6
CONTINUOUS
 62
    7
 10
1364.2843722939106
 20
1209.1217461596582
 11
1364.2843722939106
 21
1198.6217461596582
  0
LINE
  8
_0-0_
  6
CONTINUOUS
 62
    7
 10
1364.2843722939106
 20
1209.1217461596582
 11
1374.7843722939106
 21
1211.9352126801853
  0
LINE
  8
_0-0_
  6
CONTINUOUS
 62
    2
 10
1364.2843722939106
 20
1242.8478519431676
 11
1367.6582665103997
 21
1246.2217461596586
  0
LINE
  8
_0-0_
  6
CONTINUOUS
 62
    2
 10
1364.2843722939106
 20
1244.827750930491
 11
1365.6783675230799
 21
1246.2217461596586
  0
LINE
  8
_0-0_
  6
CONTINUOUS
 62
    7
 10
1374.7843722939106
 20
1232.9082796391315
 11
1374.7843722939106
 21
1211.9352126801853
  0
CIRCLE
  8
_0-0_
  6
DASHED2
 62
    1
 10
1350.9106371874441
 20
1161.6510549350471
 40
67.350194333739935
  0
TEXT
  8
_0-0_
 62
    7
 10
1329.720462786765
 20
1218.0037741454555
 40
24
 41
1
 50
0
  1
Ａ
  0
LINE
  8
_0-0_
  6
CONTINUOUS
 62
  136
 10
1269.7843722939106
 20
1198.6217461596582
 11
1269.7843722939106
 21
1194.4217461596593
  0
LINE
  8
_0-0_
  6
CONTINUOUS
 62
  136
 10
1269.7843722939106
 20
1130.0217461596578
 11
1269.7843722939106
 21
1125.8217461596589
  0
LINE
  8
_0-0_
  6
CONTINUOUS
 62
    7
 10
1079.4484222181381
 20
732.17009188254292
 11
1087.7843722939106
 21
740.50604195831534
  0
LINE
  8
_0-0_
  6
CONTINUOUS
 62
    7
 10
1084.398169686443
 20
732.17009188254292
 11
1087.7843722939106
 21
735.55629449001049
  0
LINE
  8
_0-0_
  6
CONTINUOUS
 62
    7
 10
1087.7843722939106
 20
732.17009188254292
 11
1087.7843722939106
 21
1246.2217461596567
  0
LINE
  8
_0-0_
  6
CONTINUOUS
 62
    7
 10
1269.7843722939106
 20
1194.4217461596593
 11
1269.7843722939106
 21
1246.2217461596567
  0
LINE
  8
_0-0_
  6
CONTINUOUS
 62
    7
 10
1269.7843722939106
 20
734.10069188254261
 11
1269.7843722939106
 21
1130.0217461596578
  0
LINE
  8
_0-0_
  6
CONTINUOUS
 62
    7
 10
1440.3785802167149
 20
732.17009188254292
 11
1584.7843722939106
 21
876.57588395973858
  0
LINE
  8
_0-0_
  6
CONTINUOUS
 62
    7
 10
1433.3075124048482
 20
732.17009188254292
 11
1584.7843722939106
 21
883.64695177160525
  0
LINE
  8
_0-0_
  6
CONTINUOUS
 62
    7
 10
1426.2364445929816
 20
732.17009188254292
 11
1584.7843722939106
 21
890.71801958347191
  0
LINE
  8
_0-0_
  6
CONTINUOUS
 62
    7
 10
987.83024025732277
 20
732.17009188254292
 11
1087.7843722939106
 21
832.12422391913265
  0
LINE
  8
_0-0_
  6
CONTINUOUS
 62
    7
 10
1269.7843722939106
 20
1014.1242239191317
 11
1369.5665415484109
 21
1113.9063931736321
  0
LINE
  8
_0-0_
  6
CONTINUOUS
 62
    7
 10
980.75917244545792
 20
732.17009188254292
 11
1087.7843722939087
 21
839.19529173099568
  0
LINE
  8
_0-0_
  6
CONTINUOUS
 62
    7
 10
1269.7843722939106
 20
1021.1952917309966
 11
1364.2843722939106
 21
1115.6952917309984
  0
LINE
  8
_0-0_
  6
CONTINUOUS
 62
    7
 10
1494.8108267225725
 20
1246.2217461596586
 11
1505.1896791582585
 21
1256.6005985953427
  0
LINE
  8
_0-0_
  6
CONTINUOUS
 62
    7
 10
973.68810463359125
 20
732.17009188254292
 11
1087.7843722939106
 21
846.26635954285871
  0
LINE
  8
_0-0_
  6
CONTINUOUS
 62
    7
 10
1269.7843722939106
 20
1028.2663595428614
 11
1364.2843722939106
 21
1122.7663595428614
  0
LINE
  8
_0-0_
  6
CONTINUOUS
 62
    7
 10
1487.7397589107059
 20
1246.2217461596567
 11
1505.1896791582585
 21
1263.6716664072076
  0
LINE
  8
_0-0_
  6
CONTINUOUS
 62
    7
 10
989.08437229390813
 20
959.69839389882259
 11
1087.7843722939106
 21
1058.3983938988251
  0
LINE
  8
_0-0_
  6
CONTINUOUS
 62
    7
 10
1269.7843722939106
 20
1240.3983938988251
 11
1384.8114257923517
 21
1355.4254473972662
  0
LINE
  8
_0-0_
  6
CONTINUOUS
 62
    7
 10
989.08437229390813
 20
966.76946171068926
 11
1087.7843722939087
 21
1065.46946171069
  0
LINE
  8
_0-0_
  6
CONTINUOUS
 62
    7
 10
1268.5366567428773
 20
1246.2217461596586
 11
1377.9789531815841
 21
1355.6640425983653
  0
LINE
  8
_0-0_
  6
CONTINUOUS
 62
    7
 10
989.08437229390995
 20
973.84052952255411
 11
1087.7843722939106
 21
1072.5405295225548
  0
LINE
  8
_0-0_
  6
CONTINUOUS
 62
    7
 10
1261.4655889310125
 20
1246.2217461596586
 11
1371.1464805708201
 21
1355.9026377994644
  0
LINE
  8
_0-0_
  6
CONTINUOUS
 62
    7
 10
989.08437229390995
 20
1185.9725638785196
 11
1166.1723022478327
 21
1363.0604938324443
  0
LINE
  8
_0-0_
  6
CONTINUOUS
 62
    7
 10
989.08437229390995
 20
1193.0436316903845
 11
1159.3398296370651
 21
1363.2990890335434
  0
LINE
  8
_0-0_
  6
CONTINUOUS
 62
    7
 10
989.08437229390995
 20
1200.1146995022511
 11
1152.5073570263012
 21
1363.5376842346425
  0
LINE
  8
_0-0_
  6
CONTINUOUS
 62
    7
 10
1206.7843722939106
 20
1106.2217461596586
 11
1206.7843722939106
 21
700.86341575368556
  0
LINE
  8
_0-0_
  6
CONTINUOUS
 62
    7
 10
1143.7843722939106
 20
1106.2217461596586
 11
1213.7843722939106
 21
1106.2217461596586
  0
LINE
  8
_0-0_
  6
CONTINUOUS
 62
    7
 10
1234.7843722939106
 20
1197.2217461596586
 11
1234.7843722939106
 21
1127.2217461596586
  0
LINE
  8
_0-0_
  6
CONTINUOUS
 62
    7
 10
1206.7843722939106
 20
700.86341575368556
 11
1205.6039132939113
 21
699.11111975368317
  0
LINE
  8
_0-0_
  6
CONTINUOUS
 62
    7
 10
1204.2059432939095
 20
697.52805575368461
 11
1202.6141502939099
 21
696.14027075368563
  0
LINE
  8
_0-0_
  6
CONTINUOUS
 62
    7
 10
1200.8556172939097
 20
694.97145975368608
 11
1198.9598002939092
 21
694.04118775368465
  0
LINE
  8
_0-0_
  6
CONTINUOUS
 62
    7
 10
1196.9591022939094
 20
693.36537975368469
 11
1194.8877392939103
 21
692.95552275368595
  0
LINE
  8
_0-0_
  6
CONTINUOUS
 62
    7
 10
1192.7883272939107
 20
692.81845575368266
 11
1190.6809982939121
 21
692.95552275368595
  0
LINE
  8
_0-0_
  6
CONTINUOUS
 62
    7
 10
1188.6096352939094
 20
693.36537975368469
 11
1186.6089372939095
 21
694.04118775368465
  0
LINE
  8
_0-0_
  6
CONTINUOUS
 62
    7
 10
1184.7131202939127
 20
694.97145975368608
 11
1182.9545872939125
 21
696.14027075368563
  0
LINE
  8
_0-0_
  6
CONTINUOUS
 62
    7
 10
1181.3627942939092
 20
697.52805575368461
 11
1179.9648242939111
 21
699.11111975368317
  0
LINE
  8
_0-0_
  6
CONTINUOUS
 62
    7
 10
1178.7843722939106
 20
700.86341575368556
 11
1177.6039132939113
 21
702.61563475368371
  0
LINE
  8
_0-0_
  6
CONTINUOUS
 62
    7
 10
1176.2059432939095
 20
704.1986987536859
 11
1174.6141502939099
 21
705.58648375368489
  0
LINE
  8
_0-0_
  6
CONTINUOUS
 62
    7
 10
1172.8556172939097
 20
706.75529475368444
 11
1170.9598002939092
 21
707.68556675368586
  0
LINE
  8
_0-0_
  6
CONTINUOUS
 62
    7
 10
1168.9591022939094
 20
708.36137475368582
 11
1166.8877392939103
 21
708.77123175368456
  0
LINE
  8
_0-0_
  6
CONTINUOUS
 62
    7
 10
1164.7804102939117
 20
708.90829875368422
 11
1162.6809982939085
 21
708.77123175368456
  0
LINE
  8
_0-0_
  6
CONTINUOUS
 62
    7
 10
1160.6096352939094
 20
708.36137475368582
 11
1158.6089372939095
 21
707.68556675368586
  0
LINE
  8
_0-0_
  6
CONTINUOUS
 62
    7
 10
1156.7131202939127
 20
706.75529475368444
 11
1154.9545872939125
 21
705.58648375368489
  0
LINE
  8
_0-0_
  6
CONTINUOUS
 62
    7
 10
1153.3627942939092
 20
704.1986987536859
 11
1151.9648242939111
 21
702.61563475368371
  0
LINE
  8
_0-0_
  6
CONTINUOUS
 62
    7
 10
1178.7843722939106
 20
700.86341575368556
 11
1179.9648242939111
 21
699.11111975368317
  0
LINE
  8
_0-0_
  6
CONTINUOUS
 62
    7
 10
1181.3627942939092
 20
697.52805575368461
 11
1182.9545872939125
 21
696.14027075368563
  0
LINE
  8
_0-0_
  6
CONTINUOUS
 62
    7
 10
1184.7131202939127
 20
694.97145975368608
 11
1186.6089372939095
 21
694.04118775368465
  0
LINE
  8
_0-0_
  6
CONTINUOUS
 62
    7
 10
1188.6096352939094
 20
693.36537975368469
 11
1190.6809982939121
 21
692.95552275368595
  0
LINE
  8
_0-0_
  6
CONTINUOUS
 62
    7
 10
1192.7883272939107
 20
692.81845575368266
 11
1194.8877392939103
 21
692.95552275368595
  0
LINE
  8
_0-0_
  6
CONTINUOUS
 62
    7
 10
1196.9591022939094
 20
693.36537975368469
 11
1198.9598002939092
 21
694.04118775368465
  0
LINE
  8
_0-0_
  6
CONTINUOUS
 62
    7
 10
1200.8556172939097
 20
694.97145975368608
 11
1202.6141502939099
 21
696.14027075368563
  0
LINE
  8
_0-0_
  6
CONTINUOUS
 62
    7
 10
1204.2059432939095
 20
697.52805575368461
 11
1205.6039132939113
 21
699.11111975368317
  0
LINE
  8
_0-0_
  6
CONTINUOUS
 62
    7
 10
1150.7843722939106
 20
700.86334575368369
 11
1151.9648242939111
 21
702.61563475368371
  0
LINE
  8
_0-0_
  6
CONTINUOUS
 62
    7
 10
1153.3627942939092
 20
704.1986987536859
 11
1154.9545872939125
 21
705.58648375368489
  0
LINE
  8
_0-0_
  6
CONTINUOUS
 62
    7
 10
1156.7131202939127
 20
706.75529475368444
 11
1158.6089372939095
 21
707.68556675368586
  0
LINE
  8
_0-0_
  6
CONTINUOUS
 62
    7
 10
1160.6096352939094
 20
708.36137475368582
 11
1162.6809982939085
 21
708.77123175368456
  0
LINE
  8
_0-0_
  6
CONTINUOUS
 62
    7
 10
1164.7804102939117
 20
708.90829875368422
 11
1166.8877392939103
 21
708.77123175368456
  0
LINE
  8
_0-0_
  6
CONTINUOUS
 62
    7
 10
1168.9591022939094
 20
708.36137475368582
 11
1170.9598002939092
 21
707.68556675368586
  0
LINE
  8
_0-0_
  6
CONTINUOUS
 62
    7
 10
1172.8556172939097
 20
706.75529475368444
 11
1174.6141502939099
 21
705.58648375368489
  0
LINE
  8
_0-0_
  6
CONTINUOUS
 62
    7
 10
1176.2059432939095
 20
704.1986987536859
 11
1177.6039132939113
 21
702.61563475368371
  0
LINE
  8
_0-0_
  6
CONTINUOUS
 62
    7
 10
1178.7843722939106
 20
700.86341575368556
 11
1177.6039132939113
 21
699.11111975368317
  0
LINE
  8
_0-0_
  6
CONTINUOUS
 62
    7
 10
1176.2059432939095
 20
697.52805575368461
 11
1174.6141502939099
 21
696.14027075368563
  0
LINE
  8
_0-0_
  6
CONTINUOUS
 62
    7
 10
1172.8556172939097
 20
694.97145975368608
 11
1170.9598002939092
 21
694.04118775368465
  0
LINE
  8
_0-0_
  6
CONTINUOUS
 62
    7
 10
1168.9591022939094
 20
693.36537975368469
 11
1166.8877392939103
 21
692.95552275368595
  0
LINE
  8
_0-0_
  6
CONTINUOUS
 62
    7
 10
1164.7883272939107
 20
692.81845575368266
 11
1162.6809982939085
 21
692.95552275368595
  0
LINE
  8
_0-0_
  6
CONTINUOUS
 62
    7
 10
1160.6096352939094
 20
693.36537975368469
 11
1158.6089372939095
 21
694.04118775368465
  0
LINE
  8
_0-0_
  6
CONTINUOUS
 62
    7
 10
1156.7131202939127
 20
694.97145975368608
 11
1154.9545872939125
 21
696.14027075368563
  0
LINE
  8
_0-0_
  6
CONTINUOUS
 62
    7
 10
1153.3627942939092
 20
697.52805575368461
 11
1151.9648242939111
 21
699.11111975368317
  0
LINE
  8
_0-0_
  6
CONTINUOUS
 62
    7
 10
1150.7843722939106
 20
700.86341575368556
 11
1150.7841570239761
 21
700.86341901643959
  0
LINE
  8
_0-0_
  6
CONTINUOUS
 62
    7
 10
1150.7843722939106
 20
700.86341575368556
 11
1151.9648242939111
 21
699.11111975368317
  0
LINE
  8
_0-0_
  6
CONTINUOUS
 62
    7
 10
1177.6039132939113
 20
699.11111975368317
 11
1176.2059432939095
 21
697.52805575368461
  0
LINE
  8
_0-0_
  6
CONTINUOUS
 62
    7
 10
1174.6141502939099
 20
696.14027075368563
 11
1172.8556172939097
 21
694.97145975368608
  0
LINE
  8
_0-0_
  6
CONTINUOUS
 62
    7
 10
1170.9598002939092
 20
694.04118775368465
 11
1168.9591022939094
 21
693.36537975368469
  0
LINE
  8
_0-0_
  6
CONTINUOUS
 62
    7
 10
1166.8877392939103
 20
692.95552275368595
 11
1164.7883272939107
 21
692.81845575368266
  0
LINE
  8
_0-0_
  6
CONTINUOUS
 62
    7
 10
1162.6809982939085
 20
692.95552275368595
 11
1160.6096352939094
 21
693.36537975368469
  0
LINE
  8
_0-0_
  6
CONTINUOUS
 62
    7
 10
1158.6089372939095
 20
694.04118775368465
 11
1156.7131202939127
 21
694.97145975368608
  0
LINE
  8
_0-0_
  6
CONTINUOUS
 62
    7
 10
1154.9545872939125
 20
696.14027075368563
 11
1153.3627942939092
 21
697.52805575368461
  0
LINE
  8
_0-0_
  6
CONTINUOUS
 62
    7
 10
1234.7843722939106
 20
1197.2217461596586
 11
1206.7843722939106
 21
1197.2217461596586
  0
LINE
  8
_0-0_
  6
CONTINUOUS
 62
    7
 10
1143.7843722939106
 20
1134.2217461596586
 11
1143.7843722939106
 21
1106.2217461596586
  0
ARC
  8
_0-0_
  6
CONTINUOUS
 62
    7
 10
1206.7843722939106
 20
1134.2217461596586
 40
63
 50
90
 51
180
  0
ARC
  8
_0-0_
  6
CONTINUOUS
 62
    7
 10
1234.5966946156714
 20
1106.2217461596586
 40
21.000838623990937
 50
89.487959400031784
 51
180
  0
LINE
  8
_0-0_
  6
CONTINUOUS
 62
    7
 10
1234.7843722939106
 20
1190.2217461596586
 11
1441.3392857260842
 21
1190.2217461596586
  0
LINE
  8
_0-0_
  6
CONTINUOUS
 62
    7
 10
1449.1896791582585
 20
1256.7217461596586
 11
1459.6896791582585
 21
1256.7217461596586
  0
LINE
  8
_0-0_
  6
CONTINUOUS
 62
    7
 10
1459.6896791582585
 20
1256.7217461596586
 11
1463.1896791582549
 21
1246.2217461596567
  0
LINE
  8
_0-0_
  6
CONTINUOUS
 62
    7
 10
1441.3394257260843
 20
1134.2217461596586
 11
1439.5902587260862
 21
1135.3997761596577
  0
LINE
  8
_0-0_
  6
CONTINUOUS
 62
    7
 10
1438.0068517260843
 20
1136.7973611596583
 11
1436.6186817260859
 21
1138.3888181596587
  0
LINE
  8
_0-0_
  6
CONTINUOUS
 62
    7
 10
1435.449436726085
 20
1140.1470641596582
 11
1434.5187027260836
 21
1142.0426501596587
  0
LINE
  8
_0-0_
  6
CONTINUOUS
 62
    7
 10
1433.8424117260838
 20
1144.0431871596568
 11
1433.4320507260854
 21
1146.1144521596591
  0
LINE
  8
_0-0_
  6
CONTINUOUS
 62
    7
 10
1433.294465726085
 20
1148.2217461596586
 11
1433.4320507260854
 21
1150.3290331596593
  0
LINE
  8
_0-0_
  6
CONTINUOUS
 62
    7
 10
1433.8424117260838
 20
1152.400298159658
 11
1434.5187027260836
 21
1154.4008351596578
  0
LINE
  8
_0-0_
  6
CONTINUOUS
 62
    7
 10
1435.449436726085
 20
1156.2964211596584
 11
1436.6186817260859
 21
1158.0546671596578
  0
LINE
  8
_0-0_
  6
CONTINUOUS
 62
    7
 10
1438.0068517260843
 20
1159.6461241596583
 11
1439.5902587260862
 21
1161.0437091596589
  0
LINE
  8
_0-0_
  6
CONTINUOUS
 62
    7
 10
1441.3394257260843
 20
1162.2217461596567
 11
1443.0884457260836
 21
1163.3997761596595
  0
LINE
  8
_0-0_
  6
CONTINUOUS
 62
    7
 10
1444.6718527260855
 20
1164.7973611596583
 11
1446.0600227260838
 21
1166.3888181596569
  0
LINE
  8
_0-0_
  6
CONTINUOUS
 62
    7
 10
1447.2292677260848
 20
1168.1470641596582
 11
1448.1600017260826
 21
1170.0426501596569
  0
LINE
  8
_0-0_
  6
CONTINUOUS
 62
    7
 10
1448.836292726086
 20
1172.0431871596586
 11
1449.2466537260843
 21
1174.1144521596591
  0
LINE
  8
_0-0_
  6
CONTINUOUS
 62
    7
 10
1449.3842457260835
 20
1176.2217461596586
 11
1449.2466537260843
 21
1178.3290331596593
  0
LINE
  8
_0-0_
  6
CONTINUOUS
 62
    7
 10
1448.836292726086
 20
1180.400298159658
 11
1448.1600017260826
 21
1182.4008351596578
  0
LINE
  8
_0-0_
  6
CONTINUOUS
 62
    7
 10
1447.2292677260848
 20
1184.2964211596584
 11
1446.0600227260838
 21
1186.0546671596578
  0
LINE
  8
_0-0_
  6
CONTINUOUS
 62
    7
 10
1444.6718527260855
 20
1187.6461241596583
 11
1443.0884457260836
 21
1189.0437091596589
  0
LINE
  8
_0-0_
  6
CONTINUOUS
 62
    7
 10
1441.3392857260842
 20
1190.2217461596586
 11
1443.0884457260836
 21
1189.0437091596589
  0
LINE
  8
_0-0_
  6
CONTINUOUS
 62
    7
 10
1444.6718527260855
 20
1187.6461241596583
 11
1446.0600227260838
 21
1186.0546671596578
  0
LINE
  8
_0-0_
  6
CONTINUOUS
 62
    7
 10
1447.2292677260848
 20
1184.2964211596584
 11
1448.1600017260826
 21
1182.4008351596578
  0
LINE
  8
_0-0_
  6
CONTINUOUS
 62
    7
 10
1448.836292726086
 20
1180.400298159658
 11
1449.2466537260843
 21
1178.3290331596593
  0
LINE
  8
_0-0_
  6
CONTINUOUS
 62
    7
 10
1449.3842457260835
 20
1176.2217461596586
 11
1449.2466537260843
 21
1174.1144521596591
  0
LINE
  8
_0-0_
  6
CONTINUOUS
 62
    7
 10
1448.836292726086
 20
1172.0431871596586
 11
1448.1600017260826
 21
1170.0426501596569
  0
LINE
  8
_0-0_
  6
CONTINUOUS
 62
    7
 10
1447.2292677260848
 20
1168.1470641596582
 11
1446.0600227260838
 21
1166.3888181596569
  0
LINE
  8
_0-0_
  6
CONTINUOUS
 62
    7
 10
1444.6718527260855
 20
1164.7973611596583
 11
1443.0884457260836
 21
1163.3997761596595
  0
LINE
  8
_0-0_
  6
CONTINUOUS
 62
    7
 10
1441.3394257260843
 20
1162.2217461596567
 11
1439.5902587260862
 21
1161.0437091596589
  0
LINE
  8
_0-0_
  6
CONTINUOUS
 62
    7
 10
1441.3394257260843
 20
1162.2217461596567
 11
1443.0884457260836
 21
1161.0437091596589
  0
LINE
  8
_0-0_
  6
CONTINUOUS
 62
    7
 10
1444.6718527260855
 20
1159.6461241596583
 11
1446.0600227260838
 21
1158.0546671596578
  0
LINE
  8
_0-0_
  6
CONTINUOUS
 62
    7
 10
1447.2292677260848
 20
1156.2964211596584
 11
1448.1600017260826
 21
1154.4008351596578
  0
LINE
  8
_0-0_
  6
CONTINUOUS
 62
    7
 10
1438.0068517260843
 20
1159.6461241596583
 11
1436.6186817260859
 21
1158.0546671596578
  0
LINE
  8
_0-0_
  6
CONTINUOUS
 62
    7
 10
1435.449436726085
 20
1156.2964211596584
 11
1434.5187027260836
 21
1154.4008351596578
  0
LINE
  8
_0-0_
  6
CONTINUOUS
 62
    7
 10
1433.8424117260838
 20
1152.400298159658
 11
1433.4320507260854
 21
1150.3290331596593
  0
LINE
  8
_0-0_
  6
CONTINUOUS
 62
    7
 10
1433.294465726085
 20
1148.2217461596586
 11
1433.4320507260854
 21
1146.1144521596591
  0
LINE
  8
_0-0_
  6
CONTINUOUS
 62
    7
 10
1433.8424117260838
 20
1144.0431871596568
 11
1434.5187027260836
 21
1142.0426501596587
  0
LINE
  8
_0-0_
  6
CONTINUOUS
 62
    7
 10
1435.449436726085
 20
1140.1470641596582
 11
1436.6186817260859
 21
1138.3888181596587
  0
LINE
  8
_0-0_
  6
CONTINUOUS
 62
    7
 10
1438.0068517260843
 20
1136.7973611596583
 11
1439.5902587260862
 21
1135.3997761596577
  0
LINE
  8
_0-0_
  6
CONTINUOUS
 62
    7
 10
1443.0884457260836
 20
1135.3997761596577
 11
1444.6718527260855
 21
1136.7973611596583
  0
LINE
  8
_0-0_
  6
CONTINUOUS
 62
    7
 10
1446.0600227260838
 20
1138.3888181596587
 11
1447.2292677260848
 21
1140.1470641596582
  0
LINE
  8
_0-0_
  6
CONTINUOUS
 62
    7
 10
1448.1600017260826
 20
1142.0426501596587
 11
1448.836292726086
 21
1144.0431871596568
  0
LINE
  8
_0-0_
  6
CONTINUOUS
 62
    7
 10
1449.2466537260843
 20
1146.1144521596591
 11
1449.3842457260835
 21
1148.2217461596586
  0
LINE
  8
_0-0_
  6
CONTINUOUS
 62
    7
 10
1449.2466537260843
 20
1150.3290331596593
 11
1448.836292726086
 21
1152.400298159658
  0
LINE
  8
_0-0_
  6
CONTINUOUS
 62
    7
 10
1441.3392857260842
 20
1134.2217461596586
 11
1443.0884457260836
 21
1135.3997761596577
  0
LINE
  8
_0-0_
  6
CONTINUOUS
 62
    7
 10
1443.0884457260836
 20
1161.0437091596589
 11
1444.6718527260855
 21
1159.6461241596583
  0
LINE
  8
_0-0_
  6
CONTINUOUS
 62
    7
 10
1446.0600227260838
 20
1158.0546671596578
 11
1447.2292677260848
 21
1156.2964211596584
  0
LINE
  8
_0-0_
  6
CONTINUOUS
 62
    7
 10
1448.1600017260826
 20
1154.4008351596578
 11
1448.836292726086
 21
1152.400298159658
  0
LINE
  8
_0-0_
  6
CONTINUOUS
 62
    7
 10
1449.2466537260843
 20
1150.3290331596593
 11
1449.3842457260835
 21
1148.2217461596586
  0
LINE
  8
_0-0_
  6
CONTINUOUS
 62
    7
 10
1449.2466537260843
 20
1146.1144521596591
 11
1448.836292726086
 21
1144.0431871596568
  0
LINE
  8
_0-0_
  6
CONTINUOUS
 62
    7
 10
1448.1600017260826
 20
1142.0426501596587
 11
1447.2292677260848
 21
1140.1470641596582
  0
LINE
  8
_0-0_
  6
CONTINUOUS
 62
    7
 10
1446.0600227260838
 20
1138.3888181596587
 11
1444.6718527260855
 21
1136.7973611596583
  0
LINE
  8
_0-0_
  6
CONTINUOUS
 62
    7
 10
1234.7843722939106
 20
1134.2217461596586
 11
1441.3394257260843
 21
1134.2217461596586
  0
LINE
  8
_0-0_
  6
CONTINUOUS
 62
    4
 10
994.30153975195765
 20
1375.0660103777257
 11
983.08437229390995
 21
1364.233717678356
  0
LINE
  8
_0-0_
  6
CONTINUOUS
 62
    4
 10
994.30153975195765
 20
1375.0660103777257
 11
1500.5278438725018
 21
1357.3881983008735
  0
LINE
  8
_0-0_
  6
CONTINUOUS
 62
    4
 10
1500.5278438725018
 20
1357.3881983008735
 11
1511.1896791582585
 21
1346.3475446618297
  0
LINE
  8
_0-0_
  6
CONTINUOUS
 62
    4
 10
1497.7650579557994
 20
1246.2217461596567
 11
1506.2503393300376
 21
1246.2217461596567
  0
LINE
  8
_0-0_
  6
CONTINUOUS
 62
    4
 10
1511.1896791582585
 20
1251.1610859878776
 11
1506.2503393300376
 21
1246.2217461596567
  0
LINE
  8
_0-0_
  6
CONTINUOUS
 62
    4
 10
1511.1896791582585
 20
1251.1610859878776
 11
1511.1896791582585
 21
1346.3475446618297
  0
LINE
  8
_0-0_
  6
CONTINUOUS
 62
    4
 10
1380.7843722939106
 20
1237.5122415670041
 11
1380.7843722939106
 21
1207.3312507523108
  0
LINE
  8
_0-0_
  6
CONTINUOUS
 62
    2
 10
1365.4195033555716
 20
1121.2292457908436
 11
1370.0120037243832
 21
1125.8217461596571
  0
LINE
  8
_0-0_
  6
CONTINUOUS
 62
    2
 10
1366.9810004558803
 20
1120.8108439038308
 11
1371.9919027117066
 21
1125.8217461596589
  0
LINE
  8
_0-0_
  6
CONTINUOUS
 62
    2
 10
1368.5424975561946
 20
1120.3924420168198
 11
1373.9718016990337
 21
1125.8217461596589
  0
LINE
  8
_0-0_
  6
CONTINUOUS
 62
    4
 10
1364.2843722939106
 20
1121.5334032421172
 11
1380.7843722939106
 21
1117.1122415670045
  0
LINE
  8
_0-0_
  6
CONTINUOUS
 62
    4
 10
1364.2843722939106
 20
1202.9100890771981
 11
1380.7843722939106
 21
1207.3312507523108
  0
LINE
  8
_0-0_
  6
CONTINUOUS
 62
    2
 10
1364.2843722939142
 20
1201.2699732094018
 11
1366.5248122344728
 21
1203.5104131499622
  0
LINE
  8
_0-0_
  6
CONTINUOUS
 62
    2
 10
1364.2843722939106
 20
1199.2900742220784
 11
1369.2294045480812
 21
1204.235106476249
  0
LINE
  8
_0-0_
  6
CONTINUOUS
 62
    2
 10
1365.5959432188174
 20
1198.6217461596582
 11
1371.9339968616932
 21
1204.9597998025358
  0
LINE
  8
_0-0_
  6
CONTINUOUS
 62
    2
 10
1367.5758422061372
 20
1198.6217461596582
 11
1374.6385891753034
 21
1205.6844931288226
  0
LINE
  8
_0-0_
  6
CONTINUOUS
 62
    2
 10
1369.5557411934606
 20
1198.6217461596582
 11
1377.34318148891
 21
1206.4091864551094
  0
LINE
  8
_0-0_
  6
CONTINUOUS
 62
    2
 10
1365.1246664418413
 20
1241.7082471037768
 11
1369.6381654977231
 21
1246.2217461596586
  0
LINE
  8
_0-0_
  6
CONTINUOUS
 62
    2
 10
1366.6861635421519
 20
1241.289845216764
 11
1371.6180644850429
 21
1246.2217461596567
  0
LINE
  8
_0-0_
  6
CONTINUOUS
 62
    2
 10
1369.8091577427713
 20
1240.4530414427402
 11
1374.987794670571
 21
1245.6316783705399
  0
LINE
  8
_0-0_
  6
CONTINUOUS
 62
    2
 10
1371.3706548430819
 20
1240.0346395557292
 11
1375.5113717039858
 21
1244.1753564166331
  0
LINE
  8
_0-0_
  6
CONTINUOUS
 62
    2
 10
1372.9321519433925
 20
1239.6162376687164
 11
1376.0573216654484
 21
1242.7414073907723
  0
LINE
  8
_0-0_
  6
CONTINUOUS
 62
    2
 10
1374.4936490437049
 20
1239.1978357817054
 11
1376.6250920287021
 21
1241.3292787667044
  0
LINE
  8
_0-0_
  6
CONTINUOUS
 62
    2
 10
1376.0551461440155
 20
1238.7794338946926
 11
1377.214174176599
 21
1239.9384619272762
  0
LINE
  8
_0-0_
  6
CONTINUOUS
 62
    2
 10
1377.6166432443224
 20
1238.3610320076816
 11
1377.8240997003923
 21
1238.5684884637533
  0
ARC
  8
_0-0_
  6
CONTINUOUS
 62
    2
 10
1452.9774270375092
 20
1272.8482405970346
 40
82.602203458253697
 50
198.80486384457157
 51
204.74803418490743
  0
LINE
  8
_0-0_
  6
CONTINUOUS
 62
    4
 10
1364.2843722939106
 20
1241.9334032421186
 11
1380.7843722939106
 21
1237.5122415670041
  0
ARC
  8
_0-0_
  6
CONTINUOUS
 62
    2
 10
1390.2023146962219
 20
1194.4217461596593
 40
15.979766829367051
 50
126.11208000178307
 51
164.76180838953087
  0
LINE
  8
_0-0_
  6
CONTINUOUS
 62
    2
 10
1373.5155391681037
 20
1198.6217461596582
 11
1375.4447496096636
 21
1200.5509566012199
  0
LINE
  8
_0-0_
  6
CONTINUOUS
 62
    2
 10
1371.5356401807803
 20
1198.6217461596582
 11
1380.0477738025202
 21
1207.1338797813962
  0
LINE
  8
_0-0_
  6
CONTINUOUS
 62
    2
 10
1371.6654917568139
 20
1119.555638242796
 11
1375.612699100333
 21
1123.5028455863151
  0
LINE
  8
_0-0_
  6
CONTINUOUS
 62
    2
 10
1370.1039946565015
 20
1119.9740401298088
 11
1375.0565944849677
 21
1124.926639958275
  0
ARC
  8
_0-0_
  6
CONTINUOUS
 62
    2
 10
1390.2023146962238
 20
1130.0217461596615
 40
15.979766829371336
 50
195.23819161048107
 51
233.88791999821916
  0
LINE
  8
_0-0_
  6
CONTINUOUS
 62
    2
 10
1379.4729772583669
 20
1117.4636288077393
 11
1379.8543618700241
 21
1117.8450134193965
  0
LINE
  8
_0-0_
  6
CONTINUOUS
 62
    2
 10
1377.9114801580545
 20
1117.8820306947503
 11
1378.8276063103694
 21
1118.7981568470652
  0
LINE
  8
_0-0_
  6
CONTINUOUS
 62
    2
 10
968.64444312337048
 20
272.202897662429
 11
972.10442763502954
 21
275.66288217408987
  0
LINE
  8
_0-0_
  6
CONTINUOUS
 62
    2
 10
965.13107464766847
 20
273.14430190820462
 11
970.1879367597013
 21
278.20116402023746
  0
LINE
  8
_0-0_
  6
CONTINUOUS
 62
    2
 10
961.6177061719701
 20
274.08570615398389
 11
968.47717130178182
 21
280.94517128379198
  0
LINE
  8
_0-0_
  6
CONTINUOUS
 62
  136
 10
846.99681890474324
 20
484.42585321269985
 11
856.44681890474578
 21
484.42585321269985
  0
LINE
  8
_0-0_
  6
CONTINUOUS
 62
  136
 10
846.99681890474324
 20
452.92585321269985
 11
846.99681890474324
 21
484.42585321269985
  0
LINE
  8
_0-0_
  6
CONTINUOUS
 62
  136
 10
856.44681890474578
 20
452.92585321269985
 11
856.44681890474578
 21
484.42585321269985
  0
LINE
  8
_0-0_
  6
CONTINUOUS
 62
  136
 10
728.87181890474324
 20
452.92585321269985
 11
846.99681890474324
 21
452.92585321269985
  0
LINE
  8
_0-0_
  6
CONTINUOUS
 62
  136
 10
728.87181890474324
 20
289.12585321269694
 11
846.99681890474324
 21
289.12585321269694
  0
LINE
  8
_0-0_
  6
CONTINUOUS
 62
  136
 10
846.99681890474324
 20
289.12585321269694
 11
846.99681890474324
 21
257.62585321269694
  0
LINE
  8
_0-0_
  6
CONTINUOUS
 62
  136
 10
846.99681890474324
 20
257.62585321269694
 11
856.44681890474578
 21
257.62585321269694
  0
LINE
  8
_0-0_
  6
CONTINUOUS
 62
  136
 10
856.44681890474578
 20
289.12585321269694
 11
856.44681890474578
 21
257.62585321269694
  0
LINE
  8
_0-0_
  6
CONTINUOUS
 62
    7
 10
927.32181890474578
 20
443.47585321269912
 11
950.94681890474578
 21
434.02585321269839
  0
LINE
  8
_0-0_
  6
CONTINUOUS
 62
    7
 10
950.94681890474578
 20
443.47585321269912
 11
927.32181890474578
 21
434.02585321269839
  0
LINE
  8
_0-0_
  6
CONTINUOUS
 62
    7
 10
927.32181890474578
 20
308.02585321269839
 11
950.94681890474578
 21
298.57585321269403
  0
LINE
  8
_0-0_
  6
CONTINUOUS
 62
    7
 10
950.94681890474578
 20
308.02585321269839
 11
927.32181890474578
 21
298.57585321269403
  0
LINE
  8
_0-0_
  6
CONTINUOUS
 62
    7
 10
927.32181890474578
 20
308.02585321269839
 11
927.32181890474578
 21
298.57585321269403
  0
LINE
  8
_0-0_
  6
CONTINUOUS
 62
    7
 10
950.94681890474578
 20
308.02585321269839
 11
950.94681890474578
 21
298.57585321269403
  0
LINE
  8
_0-0_
  6
CONTINUOUS
 62
    7
 10
950.94681890474578
 20
443.47585321269912
 11
950.94681890474578
 21
434.02585321269839
  0
LINE
  8
_0-0_
  6
CONTINUOUS
 62
    7
 10
927.32181890474578
 20
443.47585321269912
 11
927.32181890474578
 21
434.02585321269839
  0
LINE
  8
_0-0_
  6
CONTINUOUS
 62
    2
 10
954.92444418036223
 20
298.5758532127013
 11
964.37444418035932
 21
308.02585321269839
  0
LINE
  8
_0-0_
  6
CONTINUOUS
 62
    2
 10
950.94681890474578
 20
299.05300065855886
 11
959.91967145888168
 21
308.02585321269839
  0
LINE
  8
_0-0_
  6
CONTINUOUS
 62
    2
 10
950.94681890474578
 20
303.50777338003286
 11
955.46489873740768
 21
308.02585321269839
  0
LINE
  8
_0-0_
  6
CONTINUOUS
 62
    2
 10
950.94681890474578
 20
307.96254610150686
 11
951.01012601593368
 21
308.02585321269839
  0
LINE
  8
_0-0_
  6
CONTINUOUS
 62
    2
 10
952.27648981463074
 20
434.02585321270203
 11
961.72648981462783
 21
443.47585321269912
  0
LINE
  8
_0-0_
  6
CONTINUOUS
 62
    2
 10
950.94681890474578
 20
437.15095502428926
 11
957.27171709315019
 21
443.47585321269548
  0
LINE
  8
_0-0_
  6
CONTINUOUS
 62
    2
 10
950.94681890474578
 20
441.6057277457669
 11
952.81694437167255
 21
443.47585321269548
  0
LINE
  8
_0-0_
  6
CONTINUOUS
 62
    7
 10
941.49681890474324
 20
265.50085321269694
 11
941.49681890474324
 21
289.12585321269694
  0
LINE
  8
_0-0_
  6
CONTINUOUS
 62
    7
 10
941.49681890474324
 20
265.50085321269694
 11
965.12181890474324
 21
259.17055354151057
  0
LINE
  8
_0-0_
  6
CONTINUOUS
 62
  136
 10
728.87181890474324
 20
452.92585321269985
 11
728.87181890474324
 21
443.47585321269912
  0
LINE
  8
_0-0_
  6
CONTINUOUS
 62
  136
 10
728.87181890474324
 20
298.57585321269403
 11
728.87181890474324
 21
289.12585321269694
  0
LINE
  8
_0-0_
  6
CONTINUOUS
 62
    2
 10
941.4968189047396
 20
280.69345521560285
 11
949.92921690183368
 21
289.1258532126933
  0
LINE
  8
_0-0_
  6
CONTINUOUS
 62
    2
 10
941.49681890474687
 20
285.14822793708413
 11
945.47444418036332
 21
289.12585321270058
  0
LINE
  8
_0-0_
  6
CONTINUOUS
 62
  136
 10
965.12181890474324
 20
298.57585321269403
 11
965.12181890474324
 21
289.12585321269694
  0
LINE
  8
_0-0_
  6
CONTINUOUS
 62
  136
 10
965.12181890474324
 20
452.92585321269985
 11
965.12181890474324
 21
443.47585321269912
  0
LINE
  8
_0-0_
  6
CONTINUOUS
 62
  136
 10
856.44681890474578
 20
452.92585321269985
 11
965.12181890474324
 21
452.92585321269985
  0
LINE
  8
_0-0_
  6
CONTINUOUS
 62
  136
 10
728.87181890474324
 20
443.47585321269912
 11
965.12181890474324
 21
443.47585321269912
  0
LINE
  8
_0-0_
  6
CONTINUOUS
 62
  136
 10
728.87181890474324
 20
298.57585321269403
 11
965.12181890474324
 21
298.57585321269403
  0
LINE
  8
_0-0_
  6
CONTINUOUS
 62
  136
 10
856.44681890474578
 20
289.12585321269694
 11
965.12181890474324
 21
289.12585321269694
  0
ARC
  8
_0-0_
  6
CONTINUOUS
 62
    2
 10
992.89707245517468
 20
303.30085321269621
 40
28.1742849916495
 50
170.34552531892481
 51
189.65447468107519
  0
LINE
  8
_0-0_
  6
CONTINUOUS
 62
    2
 10
959.37921690183441
 20
298.57585321269403
 11
964.72973204838138
 21
303.926368359241
  0
LINE
  8
_0-0_
  6
CONTINUOUS
 62
    2
 10
963.83398962330841
 20
298.57585321269403
 11
964.9543314601143
 21
299.69619504949992
  0
ARC
  8
_0-0_
  6
CONTINUOUS
 62
    2
 10
987.58299685895338
 20
438.75085321269694
 40
22.95278066140575
 50
168.12030433418508
 51
191.87969566581492
  0
LINE
  8
_0-0_
  6
CONTINUOUS
 62
    2
 10
961.18603525757692
 20
434.02585321269476
 11
964.66411118681765
 21
437.50392914193549
  0
LINE
  8
_0-0_
  6
CONTINUOUS
 62
    2
 10
956.73126253609928
 20
434.02585321269476
 11
964.88824825709355
 21
442.18283893368903
  0
LINE
  8
_0-0_
  6
CONTINUOUS
 62
    7
 10
941.49681890474324
 20
476.55085321269985
 11
941.49681890474324
 21
452.92585321269985
  0
LINE
  8
_0-0_
  6
CONTINUOUS
 62
    7
 10
941.49681890474324
 20
476.55085321269985
 11
965.12181890474324
 21
482.88115288388258
  0
LINE
  8
_0-0_
  6
CONTINUOUS
 62
  136
 10
728.87181890474324
 20
452.92585321269985
 11
728.87181890474324
 21
443.47585321269912
  0
LINE
  8
_0-0_
  6
CONTINUOUS
 62
  136
 10
728.87181890474324
 20
298.57585321269403
 11
728.87181890474324
 21
289.12585321269694
  0
LINE
  8
_0-0_
  6
CONTINUOUS
 62
    7
 10
1114.870689127134
 20
308.02585321269839
 11
1110.9350633771337
 21
310.67642071269552
  0
LINE
  8
_0-0_
  6
CONTINUOUS
 62
    7
 10
1107.372397627134
 20
313.82098696269645
 11
1104.249015127134
 21
317.40176521269791
  0
LINE
  8
_0-0_
  6
CONTINUOUS
 62
    7
 10
1101.618213877131
 20
321.35781871269614
 11
1099.5240623771333
 21
325.62288721269692
  0
LINE
  8
_0-0_
  6
CONTINUOUS
 62
    7
 10
1098.0024076271329
 20
330.12409546269669
 11
1097.079095377132
 21
334.78444171269552
  0
LINE
  8
_0-0_
  6
CONTINUOUS
 62
    7
 10
1096.769529127132
 20
339.52585321269839
 11
1097.079095377132
 21
344.26724896269775
  0
LINE
  8
_0-0_
  6
CONTINUOUS
 62
    7
 10
1098.0024076271329
 20
348.92759521269659
 11
1099.5240623771333
 21
353.42880346269635
  0
LINE
  8
_0-0_
  6
CONTINUOUS
 62
    7
 10
1101.618213877131
 20
357.69387196269713
 11
1104.249015127134
 21
361.649925462699
  0
LINE
  8
_0-0_
  6
CONTINUOUS
 62
    7
 10
1107.372397627134
 20
365.23070371269682
 11
1110.9350633771337
 21
368.37526996269412
  0
LINE
  8
_0-0_
  6
CONTINUOUS
 62
    7
 10
1114.870689127134
 20
371.02585321269476
 11
1118.8059841271333
 21
373.67642071269552
  0
LINE
  8
_0-0_
  6
CONTINUOUS
 62
    7
 10
1122.3686498771331
 20
376.82098696269645
 11
1125.492032377133
 21
380.40176521269427
  0
LINE
  8
_0-0_
  6
CONTINUOUS
 62
    7
 10
1128.1228336271361
 20
384.35781871269614
 11
1130.2169851271301
 21
388.62288721269692
  0
LINE
  8
_0-0_
  6
CONTINUOUS
 62
    7
 10
1131.7386398771341
 20
393.12409546269669
 11
1132.6619521271296
 21
397.78444171269552
  0
LINE
  8
_0-0_
  6
CONTINUOUS
 62
    7
 10
1132.9715341271331
 20
402.52585321269839
 11
1132.6619521271296
 21
407.26724896269775
  0
LINE
  8
_0-0_
  6
CONTINUOUS
 62
    7
 10
1131.7386398771341
 20
411.92759521269659
 11
1130.2169851271301
 21
416.42880346269635
  0
LINE
  8
_0-0_
  6
CONTINUOUS
 62
    7
 10
1128.1228336271361
 20
420.69387196269713
 11
1125.492032377133
 21
424.649925462699
  0
LINE
  8
_0-0_
  6
CONTINUOUS
 62
    7
 10
1122.3686498771331
 20
428.23070371269682
 11
1118.8059841271333
 21
431.37526996269412
  0
LINE
  8
_0-0_
  6
CONTINUOUS
 62
    7
 10
1114.8703741271293
 20
434.02585321269839
 11
1118.8059841271333
 21
431.37526996269412
  0
LINE
  8
_0-0_
  6
CONTINUOUS
 62
    7
 10
1122.3686498771331
 20
428.23070371269682
 11
1125.492032377133
 21
424.649925462699
  0
LINE
  8
_0-0_
  6
CONTINUOUS
 62
    7
 10
1128.1228336271361
 20
420.69387196269713
 11
1130.2169851271301
 21
416.42880346269635
  0
LINE
  8
_0-0_
  6
CONTINUOUS
 62
    7
 10
1131.7386398771341
 20
411.92759521269659
 11
1132.6619521271296
 21
407.26724896269775
  0
LINE
  8
_0-0_
  6
CONTINUOUS
 62
    7
 10
1132.9715341271331
 20
402.52585321269839
 11
1132.6619521271296
 21
397.78444171269552
  0
LINE
  8
_0-0_
  6
CONTINUOUS
 62
    7
 10
1131.7386398771341
 20
393.12409546269669
 11
1130.2169851271301
 21
388.62288721269692
  0
LINE
  8
_0-0_
  6
CONTINUOUS
 62
    7
 10
1128.1228336271361
 20
384.35781871269614
 11
1125.492032377133
 21
380.40176521269427
  0
LINE
  8
_0-0_
  6
CONTINUOUS
 62
    7
 10
1122.3686498771331
 20
376.82098696269645
 11
1118.8059841271333
 21
373.67642071269552
  0
LINE
  8
_0-0_
  6
CONTINUOUS
 62
    7
 10
1114.870689127134
 20
371.02585321269476
 11
1110.9350633771337
 21
368.37526996269412
  0
LINE
  8
_0-0_
  6
CONTINUOUS
 62
    7
 10
1114.870689127134
 20
371.02585321269476
 11
1118.8059841271333
 21
368.37526996269412
  0
LINE
  8
_0-0_
  6
CONTINUOUS
 62
    7
 10
1122.3686498771331
 20
365.23070371269682
 11
1125.492032377133
 21
361.649925462699
  0
LINE
  8
_0-0_
  6
CONTINUOUS
 62
    7
 10
1128.1228336271361
 20
357.69387196269713
 11
1130.2169851271301
 21
353.42880346269635
  0
LINE
  8
_0-0_
  6
CONTINUOUS
 62
    7
 10
1107.372397627134
 20
365.23070371269682
 11
1104.249015127134
 21
361.649925462699
  0
LINE
  8
_0-0_
  6
CONTINUOUS
 62
    7
 10
1101.618213877131
 20
357.69387196269713
 11
1099.5240623771333
 21
353.42880346269635
  0
LINE
  8
_0-0_
  6
CONTINUOUS
 62
    7
 10
1098.0024076271329
 20
348.92759521269659
 11
1097.079095377132
 21
344.26724896269775
  0
LINE
  8
_0-0_
  6
CONTINUOUS
 62
    7
 10
1096.769529127132
 20
339.52585321269839
 11
1097.079095377132
 21
334.78444171269552
  0
LINE
  8
_0-0_
  6
CONTINUOUS
 62
    7
 10
1098.0024076271329
 20
330.12409546269669
 11
1099.5240623771333
 21
325.62288721269692
  0
LINE
  8
_0-0_
  6
CONTINUOUS
 62
    7
 10
1101.618213877131
 20
321.35781871269614
 11
1104.249015127134
 21
317.40176521269791
  0
LINE
  8
_0-0_
  6
CONTINUOUS
 62
    7
 10
1107.372397627134
 20
313.82098696269645
 11
1110.9350633771337
 21
310.67642071269552
  0
LINE
  8
_0-0_
  6
CONTINUOUS
 62
    7
 10
1118.8059841271333
 20
310.67642071269552
 11
1122.3686498771331
 21
313.82098696269645
  0
LINE
  8
_0-0_
  6
CONTINUOUS
 62
    7
 10
1125.492032377133
 20
317.40176521269791
 11
1128.1228336271361
 21
321.35781871269614
  0
LINE
  8
_0-0_
  6
CONTINUOUS
 62
    7
 10
1130.2169851271301
 20
325.62288721269692
 11
1131.7386398771341
 21
330.12409546269669
  0
LINE
  8
_0-0_
  6
CONTINUOUS
 62
    7
 10
1132.6619521271296
 20
334.78444171269552
 11
1132.9715341271331
 21
339.52585321269839
  0
LINE
  8
_0-0_
  6
CONTINUOUS
 62
    7
 10
1132.6619521271296
 20
344.26724896269775
 11
1131.7386398771341
 21
348.92759521269659
  0
LINE
  8
_0-0_
  6
CONTINUOUS
 62
    7
 10
1114.8703741271293
 20
308.02585321269839
 11
1118.8059841271333
 21
310.67642071269552
  0
LINE
  8
_0-0_
  6
CONTINUOUS
 62
    7
 10
1118.8059841271333
 20
368.37526996269412
 11
1122.3686498771331
 21
365.23070371269682
  0
LINE
  8
_0-0_
  6
CONTINUOUS
 62
    7
 10
1125.492032377133
 20
361.649925462699
 11
1128.1228336271361
 21
357.69387196269713
  0
LINE
  8
_0-0_
  6
CONTINUOUS
 62
    7
 10
1130.2169851271301
 20
353.42880346269635
 11
1131.7386398771341
 21
348.92759521269659
  0
LINE
  8
_0-0_
  6
CONTINUOUS
 62
    7
 10
1132.6619521271296
 20
344.26724896269775
 11
1132.9715341271331
 21
339.52585321269839
  0
LINE
  8
_0-0_
  6
CONTINUOUS
 62
    7
 10
1132.6619521271296
 20
334.78444171269552
 11
1131.7386398771341
 21
330.12409546269669
  0
LINE
  8
_0-0_
  6
CONTINUOUS
 62
    7
 10
1130.2169851271301
 20
325.62288721269692
 11
1128.1228336271361
 21
321.35781871269614
  0
LINE
  8
_0-0_
  6
CONTINUOUS
 62
    7
 10
1125.492032377133
 20
317.40176521269791
 11
1122.3686498771331
 21
313.82098696269645
  0
LINE
  8
_0-0_
  6
CONTINUOUS
 62
    2
 10
944.05086379347824
 20
278.79272738286204
 11
954.38398962330768
 21
289.1258532126933
  0
LINE
  8
_0-0_
  6
CONTINUOUS
 62
    2
 10
947.56423226917479
 20
277.85132313708641
 11
958.83876234478532
 21
289.12585321269694
  0
LINE
  8
_0-0_
  6
CONTINUOUS
 62
    2
 10
951.07760074487862
 20
276.90991889131078
 11
963.2935350662666
 21
289.12585321269694
  0
LINE
  8
_0-0_
  6
CONTINUOUS
 62
    4
 10
941.49681890474324
 20
279.47708164823166
 11
978.62181890474324
 21
269.52946787922815
  0
LINE
  8
_0-0_
  6
CONTINUOUS
 62
    4
 10
941.49681890474324
 20
462.57462477716149
 11
978.62181890474324
 21
472.522238546165
  0
LINE
  8
_0-0_
  6
CONTINUOUS
 62
    2
 10
941.49681890474687
 20
458.88436407462109
 11
946.53780877100883
 21
463.9253539408794
  0
LINE
  8
_0-0_
  6
CONTINUOUS
 62
    2
 10
941.4968189047396
 20
454.42959135313981
 11
952.62314147662448
 21
465.55591392502652
  0
LINE
  8
_0-0_
  6
CONTINUOUS
 62
    2
 10
944.44785348577909
 20
452.92585321269985
 11
958.70847418225105
 21
467.18647390917363
  0
LINE
  8
_0-0_
  6
CONTINUOUS
 62
    2
 10
948.90262620725309
 20
452.92585321269621
 11
964.79380688787398
 21
468.8170338933171
  0
LINE
  8
_0-0_
  6
CONTINUOUS
 62
    2
 10
953.35739892872709
 20
452.92585321269985
 11
970.87913959348964
 21
470.44759387746058
  0
ARC
  8
_0-0_
  6
CONTINUOUS
 62
    2
 10
999.81218930994157
 20
443.47585321269912
 40
35.954475366075869
 50
126.11208000178307
 51
164.76180838953087
  0
LINE
  8
_0-0_
  6
CONTINUOUS
 62
    2
 10
962.26694437167873
 20
452.92585321269985
 11
966.60766786518627
 21
457.26657670621103
  0
LINE
  8
_0-0_
  6
CONTINUOUS
 62
    2
 10
957.81217165019564
 20
452.92585321269257
 11
976.96447229911439
 21
472.07815386160769
  0
LINE
  8
_0-0_
  6
CONTINUOUS
 62
    2
 10
958.10433769627355
 20
275.02711039975952
 11
966.98555421919093
 21
283.90832692267327
  0
LINE
  8
_0-0_
  6
CONTINUOUS
 62
    2
 10
954.59096922057336
 20
275.96851464553515
 11
965.73431883462047
 21
287.11186425958408
  0
ARC
  8
_0-0_
  6
CONTINUOUS
 62
    2
 10
999.81218930994885
 20
298.57585321270494
 40
35.954475366085504
 50
195.23819161048107
 51
233.88791999821916
  0
LINE
  8
_0-0_
  6
CONTINUOUS
 62
    2
 10
975.67118007476722
 20
270.32008917087774
 11
976.5292954509988
 21
271.17820454710932
  0
LINE
  8
_0-0_
  6
CONTINUOUS
 62
    2
 10
972.15781159906703
 20
271.26149341665337
 11
974.21909544177481
 21
273.32277725936115
  0
LINE
  8
_0-0_
  6
CONTINUOUS
 62
    4
 10
978.62181890474324
 20
529.0258532126993
 11
978.62181890474324
 21
472.522238546165
  0
LINE
  8
_0-0_
  6
CONTINUOUS
 62
    7
 10
965.12181890474324
 20
529.0258532126993
 11
965.12181890474324
 21
482.88115288388258
  0
LINE
  8
_0-0_
  6
CONTINUOUS
 62
    7
 10
728.87181890474324
 20
443.47585321269912
 11
728.87181890474324
 21
529.0258532126993
  0
LINE
  8
_0-0_
  6
CONTINUOUS
 62
    7
 10
872.27143879253538
 20
213.02585321269839
 11
941.49681890474324
 21
282.25123332490443
  0
LINE
  8
_0-0_
  6
CONTINUOUS
 62
    7
 10
888.18134136923084
 20
213.02585321269839
 11
941.49681890474324
 21
266.34133074820897
  0
LINE
  8
_0-0_
  6
CONTINUOUS
 62
    7
 10
904.09124394592993
 20
213.02585321269839
 11
953.38169972736989
 21
262.31630899413472
  0
LINE
  8
_0-0_
  6
CONTINUOUS
 62
    7
 10
965.12181890474324
 20
259.17055354151057
 11
965.12181890474324
 21
213.02585321269839
  0
LINE
  8
_0-0_
  6
CONTINUOUS
 62
    4
 10
978.62181890474324
 20
269.52946787922815
 11
978.62181890474324
 21
213.02585321269839
  0
LINE
  8
_0-0_
  6
CONTINUOUS
 62
    7
 10
728.87181890474324
 20
298.57585321269403
 11
728.87181890474324
 21
213.02585321269839
  0
LINE
  8
_0-0_
  6
CONTINUOUS
 62
    7
 10
710.47165680518094
 20
308.02585321269839
 11
1114.870689127134
 21
308.02585321269839
  0
LINE
  8
_0-0_
  6
CONTINUOUS
 62
    7
 10
710.47165680518094
 20
434.02585321269839
 11
1114.8703741271293
 21
434.02585321269839
  0
POINT
  8
_0-0_
 62
    7
 10
960.18737712229461
 20
438.92416390685071
  0
POINT
  8
_0-0_
 62
    7
 10
959.09469737887241
 20
459.6850790318797
  0
LINE
  8
_0-0_
  6
CONTINUOUS
 62
    7
 10
959.09469737887241
 20
459.6850790318797
 11
1028.2339980340148
 21
478.21089880767727
  0
LINE
  8
_0-0_
  6
CONTINUOUS
 62
    7
 10
960.18737712229461
 20
438.92416390685071
 11
1028.2339980340148
 21
478.21089880767727
  0
LINE
  8
_0-0_
  6
CONTINUOUS
 62
    7
 10
961.77806518472983
 20
304.62508509549411
 11
1029.0000836647941
 21
265.81443463055734
  0
POINT
  8
_0-0_
 62
    7
 10
961.77806518472983
 20
304.62508509549411
  0
LINE
  8
_0-0_
  6
CONTINUOUS
 62
    7
 10
959.72416752122638
 20
279.97831313345273
 11
1029.0000836647941
 21
265.81443463055734
  0
POINT
  8
_0-0_
 62
    7
 10
959.72416752122638
 20
279.97831313345273
  0
TEXT
  8
_0-0_
 62
    7
 10
1033.6644834073468
 20
467.90994934400919
 40
21.617968000000001
 41
1
 50
0
  1
ｼｰﾘﾝｸﾞ
  0
TEXT
  8
_0-0_
 62
    7
 10
1036.745329902602
 20
254.30459233966144
 40
21.617968000000001
 41
1
 50
0
  1
ｼｰﾘﾝｸﾞ
  0
LINE
  8
_0-0_
  6
CONTINUOUS
 62
    7
 10
1602.8933105713932
 20
234.18533309285453
 11
1283.37823330838
 21
234.18533309285453
  0
LINE
  8
_0-0_
  6
CONTINUOUS
 62
    7
 10
1283.37823330838
 20
234.18533309285817
 11
1283.37823330838
 21
466.23402924227526
  0
LINE
  8
_0-0_
  6
CONTINUOUS
 62
    7
 10
1341.87823330838
 20
302.2028459384394
 11
1385.1457461539649
 21
258.93533309285817
  0
LINE
  8
_0-0_
  6
CONTINUOUS
 62
    5
 10
1341.87823330838
 20
438.93533309285817
 11
1341.87823330838
 21
258.93533309285817
  0
LINE
  8
_0-0_
  6
CONTINUOUS
 62
    5
 10
1296.87823330838
 20
438.93533309285817
 11
1341.87823330838
 21
438.93533309285817
  0
LINE
  8
_0-0_
  6
CONTINUOUS
 62
    5
 10
1296.87823330838
 20
271.08144799256593
 11
1309.0243482080896
 21
258.93533309285817
  0
LINE
  8
_0-0_
  6
CONTINUOUS
 62
    5
 10
1296.8782333083818
 20
283.80937005392229
 11
1321.7522702694459
 21
258.93533309285817
  0
LINE
  8
_0-0_
  6
CONTINUOUS
 62
    5
 10
1296.87823330838
 20
296.53729211527866
 11
1334.4801923308023
 21
258.93533309285817
  0
LINE
  8
_0-0_
  6
CONTINUOUS
 62
    5
 10
1296.87823330838
 20
309.2652141766423
 11
1341.87823330838
 21
264.2652141766423
  0
LINE
  8
_0-0_
  6
CONTINUOUS
 62
    5
 10
1296.87823330838
 20
321.99313623799867
 11
1341.87823330838
 21
276.99313623799867
  0
LINE
  8
_0-0_
  6
CONTINUOUS
 62
    5
 10
1296.87823330838
 20
334.72105829935504
 11
1341.87823330838
 21
289.72105829935867
  0
LINE
  8
_0-0_
  6
CONTINUOUS
 62
    5
 10
1296.8782333083818
 20
347.44898036071504
 11
1341.87823330838
 21
302.44898036071504
  0
LINE
  8
_0-0_
  6
CONTINUOUS
 62
    5
 10
1296.87823330838
 20
360.17690242207141
 11
1341.87823330838
 21
315.17690242207141
  0
LINE
  8
_0-0_
  6
CONTINUOUS
 62
    5
 10
1296.87823330838
 20
372.90482448342777
 11
1341.8782333083818
 21
327.90482448342777
  0
LINE
  8
_0-0_
  6
CONTINUOUS
 62
    5
 10
1296.8782333083818
 20
385.63274654478414
 11
1341.87823330838
 21
340.63274654478414
  0
LINE
  8
_0-0_
  6
CONTINUOUS
 62
    5
 10
1296.87823330838
 20
398.36066860614415
 11
1341.8782333083818
 21
353.36066860614415
  0
LINE
  8
_0-0_
  6
CONTINUOUS
 62
    5
 10
1296.87823330838
 20
411.08859066750415
 11
1341.87823330838
 21
366.08859066750415
  0
LINE
  8
_0-0_
  6
CONTINUOUS
 62
    5
 10
1296.8782333083818
 20
423.81651272886415
 11
1341.8782333083818
 21
378.81651272886415
  0
LINE
  8
_0-0_
  6
CONTINUOUS
 62
    5
 10
1296.87823330838
 20
436.54443479022052
 11
1341.87823330838
 21
391.54443479022052
  0
LINE
  8
_0-0_
  6
CONTINUOUS
 62
    5
 10
1307.2152570670969
 20
438.93533309285817
 11
1341.8782333083818
 21
404.27235685157325
  0
LINE
  8
_0-0_
  6
CONTINUOUS
 62
    5
 10
1319.9431791284569
 20
438.93533309285817
 11
1341.87823330838
 21
417.00027891293689
  0
LINE
  8
_0-0_
  6
CONTINUOUS
 62
    5
 10
1332.6711011898151
 20
438.93533309285817
 11
1341.87823330838
 21
429.72820097428962
  0
LINE
  8
_0-0_
  6
CONTINUOUS
 62
    7
 10
1341.87823330838
 20
334.02265109183395
 11
1416.9655513073612
 21
258.93533309285817
  0
LINE
  8
_0-0_
  6
CONTINUOUS
 62
    7
 10
1341.87823330838
 20
318.11274851513849
 11
1401.0556487306621
 21
258.93533309285817
  0
LINE
  8
_0-0_
  6
CONTINUOUS
 62
    4
 10
1296.87823330838
 20
466.23402924227526
 11
1296.87823330838
 21
254.43533309285817
  0
LINE
  8
_0-0_
  6
CONTINUOUS
 62
    7
 10
1602.8933105713932
 20
438.93533309285817
 11
1296.87823330838
 21
438.93533309285817
  0
LINE
  8
_0-0_
  6
CONTINUOUS
 62
    7
 10
1296.87823330838
 20
258.93533309285817
 11
1602.8933105713932
 21
258.93533309285817
  0
LINE
  8
_0-0_
  6
CONTINUOUS
 62
    5
 10
1296.87823330838
 20
256.68533309285817
 11
1602.8933105713932
 21
256.68533309285817
  0
LINE
  8
_0-0_
  6
CONTINUOUS
 62
    4
 10
1296.87823330838
 20
254.43533309285817
 11
1602.8933105713932
 21
254.43533309285817
  0
LINE
  8
_0-0_
  6
CONTINUOUS
 62
    7
 10
1468.6266144598867
 20
174.18533309285817
 11
1528.6266144598849
 21
234.18533309285453
  0
LINE
  8
_0-0_
  6
CONTINUOUS
 62
    7
 10
1484.5365170365803
 20
174.18533309285817
 11
1544.5365170365785
 21
234.18533309285453
  0
LINE
  8
_0-0_
  6
CONTINUOUS
 62
    7
 10
1500.4464196132776
 20
174.18533309285817
 11
1560.4464196132758
 21
234.18533309285453
  0
LINE
  8
_0-0_
  6
CONTINUOUS
 62
    7
 10
1223.37823330838
 20
406.23402924227526
 11
1283.37823330838
 21
466.23402924227526
  0
LINE
  8
_0-0_
  6
CONTINUOUS
 62
    7
 10
1223.37823330838
 20
422.14393181897071
 11
1267.4683307316827
 21
466.23402924227526
  0
LINE
  8
_0-0_
  6
CONTINUOUS
 62
    7
 10
1223.37823330838
 20
438.05383439566617
 11
1251.5584281549873
 21
466.23402924227526
  0
LINE
  8
_0-0_
  6
CONTINUOUS
 62
    7
 10
1324.6137543094901
 20
414.36948897082152
 11
1353.0486411987331
 21
463.62015777046804
  0
TEXT
  8
_0-0_
 62
    7
 10
1354.5016892655349
 20
456.01763150499141
 40
21.617968000000001
 41
1
 50
0
  1
成型緩衝材
  0
LINE
  8
_0-0_
  6
CONTINUOUS
 62
    7
 10
1560.4464196132758
 20
234.18533309285453
 11
1603.9393194053155
 21
309.51724530117031
  0
POINT
  8
_0-0_
 62
    7
 10
1560.4464196132758
 20
234.18533309285453
  0
TEXT
  8
_0-0_
 62
    7
 10
1609.3031251570264
 20
297.86843313705072
 40
21.617968000000001
 41
1
 50
0
  1
ﾌﾟﾗｲﾏｰ
  0
TEXT
  8
_0-0_
 62
    7
 10
1575.9976332656988
 20
358.72700857588393
 40
21.617968000000001
 41
1
 50
0
  1
ｳﾚﾀﾝ防水
  0
LINE
  8
_0-0_
  6
CONTINUOUS
 62
    7
 10
1503.9988231884308
 20
246.57501595552571
 11
1573.0421429602775
 21
366.16155372358594
  0
POINT
  8
_0-0_
 62
    7
 10
1503.9988231884308
 20
246.57501595552571
  0
LINE
  8
_0-0_
  6
CONTINUOUS
 62
    7
 10
1464.7789912169355
 20
256.68533309285817
 11
1578.2478876498008
 21
453.2192267933508
  0
POINT
  8
_0-0_
 62
    7
 10
1464.7789912169355
 20
256.68533309285817
  0
TEXT
  8
_0-0_
 62
    7
 10
1580.4982938172379
 20
446.60233235251621
 40
21.617968000000001
 41
1
 50
0
  1
絶縁ﾌｨﾙﾑ
  0
POINT
  8
_0-0_
 62
    7
 10
1324.6137543094901
 20
414.36948897082152
  0
POINT
  8
_0-0_
 62
    7
 10
1463.595767263967
 20
414.36948897082152
  0
LINE
  8
_0-0_
  6
CONTINUOUS
 62
    7
 10
1463.595767263967
 20
414.36948897082152
 11
1505.4951299098175
 21
486.94131387819039
  0
TEXT
  8
_0-0_
 62
    7
 10
1506.6651191520141
 20
480.20589261681494
 40
21.617968000000001
 41
1
 50
0
  1
保護ｺﾝｸﾘｰﾄ
  0
POINT
  8
_0-0_
 62
    7
 10
1307.2152570670969
 20
438.93533309285817
  0
LINE
  8
_0-0_
  6
CONTINUOUS
 62
    7
 10
1296.87823330838
 20
456.83958344200187
 11
1333.1866157485383
 21
519.72754656899838
  0
POINT
  8
_0-0_
 62
    7
 10
1296.87823330838
 20
456.83958344200187
  0
TEXT
  8
_0-0_
 62
    7
 10
1336.0605420771772
 20
514.40041674888676
 40
21.617968000000001
 41
1
 50
0
  1
ﾄｯﾌﾟｺｰﾄ(露出部のみ)
  0
LINE
  8
_0-0_
  6
CONTINUOUS
 62
    7
 10
842.78437229391068
 20
772.17009188254292
 11
842.78437229391068
 21
732.17009188254292
  0
LINE
  8
_0-0_
  6
CONTINUOUS
 62
    7
 10
772.78437229391068
 20
772.17009188254292
 11
842.78437229391068
 21
772.17009188254292
  0
LINE
  8
_0-0_
  6
CONTINUOUS
 62
    7
 10
1514.7843722939106
 20
774.10069188254261
 11
1514.7843722939106
 21
732.17009188254292
  0
LINE
  8
_0-0_
  6
CONTINUOUS
 62
    7
 10
1514.7843722939106
 20
774.10069188254261
 11
1584.7843722939106
 21
774.10069188254261
  0
LINE
  8
_0-0_
  6
CONTINUOUS
 62
    7
 10
1269.7843722939106
 20
787.85005393943561
 11
1382.0350102370194
 21
900.10069188254261
  0
LINE
  8
_0-0_
  6
CONTINUOUS
 62
    7
 10
1269.7843722939124
 20
794.92112175130228
 11
1374.9639424251527
 21
900.10069188254261
  0
LINE
  8
_0-0_
  6
CONTINUOUS
 62
    7
 10
1536.9554550040812
 20
991.10069188254533
 11
1380.9639424251527
 21
991.10069188254533
  0
LINE
  8
_0-0_
  6
CONTINUOUS
 62
    7
 10
1400.9639424251527
 20
930.33069759169143
 11
1420.1939481343015
 21
911.10069188254261
  0
LINE
  8
_0-0_
  6
CONTINUOUS
 62
    7
 10
1400.9639424251527
 20
923.25962977982476
 11
1413.1228803224349
 21
911.10069188254624
  0
LINE
  8
_0-0_
  6
CONTINUOUS
 62
    7
 10
1400.9639424251527
 20
916.18856196796173
 11
1406.05181251057
 21
911.10069188254624
  0
LINE
  8
_0-0_
  6
CONTINUOUS
 62
    5
 10
1560.9554550040812
 20
987.60069188254533
 11
1560.9554550040812
 21
911.10069188254624
  0
LINE
  8
_0-0_
  6
CONTINUOUS
 62
    5
 10
1540.9554550040812
 20
987.60069188254533
 11
1560.9554550040812
 21
987.60069188254533
  0
LINE
  8
_0-0_
  6
CONTINUOUS
 62
    5
 10
1540.9554550040812
 20
911.10069188254624
 11
1540.9554550040812
 21
987.60069188254533
  0
LINE
  8
_0-0_
  6
CONTINUOUS
 62
    5
 10
1539.9554550040812
 20
989.10069188254533
 11
1561.9554550040812
 21
989.10069188254533
  0
LINE
  8
_0-0_
  6
CONTINUOUS
 62
    5
 10
1539.9554550040812
 20
988.10069188254533
 11
1539.9554550040812
 21
989.10069188254533
  0
LINE
  8
_0-0_
  6
CONTINUOUS
 62
    5
 10
1541.9554550040812
 20
988.10069188254533
 11
1539.9554550040812
 21
988.10069188254533
  0
LINE
  8
_0-0_
  6
CONTINUOUS
 62
    5
 10
1541.9554550040812
 20
987.60069188254533
 11
1541.9554550040812
 21
988.10069188254533
  0
LINE
  8
_0-0_
  6
CONTINUOUS
 62
    5
 10
1539.9554550040812
 20
987.60069188254533
 11
1541.9554550040812
 21
987.60069188254533
  0
LINE
  8
_0-0_
  6
CONTINUOUS
 62
    5
 10
1539.9554550040812
 20
976.10069188254533
 11
1539.9554550040812
 21
987.60069188254533
  0
LINE
  8
_0-0_
  6
CONTINUOUS
 62
    5
 10
1540.4554550040812
 20
976.10069188254533
 11
1539.9554550040812
 21
976.10069188254533
  0
LINE
  8
_0-0_
  6
CONTINUOUS
 62
    5
 10
1539.9554550040812
 20
975.10069188254533
 11
1540.4554550040812
 21
976.10069188254533
  0
LINE
  8
_0-0_
  6
CONTINUOUS
 62
    5
 10
1539.9554550040812
 20
962.10069188254533
 11
1539.9554550040812
 21
975.10069188254533
  0
LINE
  8
_0-0_
  6
CONTINUOUS
 62
    5
 10
1540.4554550040812
 20
962.10069188254533
 11
1539.9554550040812
 21
962.10069188254533
  0
LINE
  8
_0-0_
  6
CONTINUOUS
 62
    5
 10
1539.9554550040812
 20
961.10069188254533
 11
1540.4554550040812
 21
962.10069188254533
  0
LINE
  8
_0-0_
  6
CONTINUOUS
 62
    5
 10
1538.9554550040812
 20
961.10069188254533
 11
1539.9554550040812
 21
961.10069188254533
  0
LINE
  8
_0-0_
  6
CONTINUOUS
 62
    5
 10
1538.9554550040812
 20
987.60069188254533
 11
1538.9554550040812
 21
961.10069188254533
  0
LINE
  8
_0-0_
  6
CONTINUOUS
 62
    5
 10
1538.4554550040812
 20
987.60069188254533
 11
1538.9554550040812
 21
987.60069188254533
  0
LINE
  8
_0-0_
  6
CONTINUOUS
 62
    5
 10
1538.4554550040812
 20
989.60069188254533
 11
1538.4554550040812
 21
987.60069188254533
  0
LINE
  8
_0-0_
  6
CONTINUOUS
 62
    5
 10
1563.4554550040812
 20
989.60069188254533
 11
1538.4554550040812
 21
989.60069188254533
  0
LINE
  8
_0-0_
  6
CONTINUOUS
 62
    5
 10
1563.4554550040812
 20
987.60069188254533
 11
1563.4554550040812
 21
989.60069188254533
  0
LINE
  8
_0-0_
  6
CONTINUOUS
 62
    5
 10
1562.9554550040812
 20
987.60069188254533
 11
1563.4554550040812
 21
987.60069188254533
  0
LINE
  8
_0-0_
  6
CONTINUOUS
 62
    5
 10
1562.9554550040812
 20
961.10069188254533
 11
1562.9554550040812
 21
987.60069188254533
  0
LINE
  8
_0-0_
  6
CONTINUOUS
 62
    5
 10
1561.9554550040812
 20
961.10069188254533
 11
1562.9554550040812
 21
961.10069188254533
  0
LINE
  8
_0-0_
  6
CONTINUOUS
 62
    5
 10
1561.4554550040812
 20
962.10069188254533
 11
1561.9554550040812
 21
961.10069188254533
  0
LINE
  8
_0-0_
  6
CONTINUOUS
 62
    5
 10
1561.9554550040812
 20
962.10069188254533
 11
1561.4554550040812
 21
962.10069188254533
  0
LINE
  8
_0-0_
  6
CONTINUOUS
 62
    5
 10
1561.9554550040812
 20
975.10069188254533
 11
1561.9554550040812
 21
962.10069188254533
  0
LINE
  8
_0-0_
  6
CONTINUOUS
 62
    5
 10
1561.4554550040812
 20
976.10069188254533
 11
1561.9554550040812
 21
975.10069188254533
  0
LINE
  8
_0-0_
  6
CONTINUOUS
 62
    5
 10
1561.9554550040812
 20
976.10069188254533
 11
1561.4554550040812
 21
976.10069188254533
  0
LINE
  8
_0-0_
  6
CONTINUOUS
 62
    5
 10
1561.9554550040812
 20
987.60069188254533
 11
1561.9554550040812
 21
976.10069188254533
  0
LINE
  8
_0-0_
  6
CONTINUOUS
 62
    5
 10
1559.9554550040812
 20
987.60069188254533
 11
1561.9554550040812
 21
987.60069188254533
  0
LINE
  8
_0-0_
  6
CONTINUOUS
 62
    5
 10
1559.9554550040812
 20
988.10069188254533
 11
1559.9554550040812
 21
987.60069188254533
  0
LINE
  8
_0-0_
  6
CONTINUOUS
 62
    5
 10
1561.9554550040812
 20
988.10069188254533
 11
1559.9554550040812
 21
988.10069188254533
  0
LINE
  8
_0-0_
  6
CONTINUOUS
 62
    5
 10
1561.9554550040812
 20
989.10069188254533
 11
1561.9554550040812
 21
988.10069188254533
  0
LINE
  8
_0-0_
  6
CONTINUOUS
 62
    5
 10
1550.9554550040812
 20
990.60069188254533
 11
1563.4554550040812
 21
990.60069188254533
  0
LINE
  8
_0-0_
  6
CONTINUOUS
 62
    5
 10
1538.4554550040812
 20
990.60069188254533
 11
1550.9554550040812
 21
990.60069188254533
  0
LINE
  8
_0-0_
  6
CONTINUOUS
 62
    5
 10
1537.9554550040812
 20
991.10069188254533
 11
1538.4554550040812
 21
990.60069188254533
  0
LINE
  8
_0-0_
  6
CONTINUOUS
 62
    5
 10
1536.9554550040812
 20
991.10069188254533
 11
1537.9554550040812
 21
991.10069188254533
  0
LINE
  8
_0-0_
  6
CONTINUOUS
 62
    5
 10
1536.9554550040812
 20
988.10069188254533
 11
1536.9554550040812
 21
991.10069188254533
  0
LINE
  8
_0-0_
  6
CONTINUOUS
 62
    5
 10
1537.4554550040812
 20
988.10069188254533
 11
1536.9554550040812
 21
988.10069188254533
  0
LINE
  8
_0-0_
  6
CONTINUOUS
 62
    5
 10
1537.4554550040812
 20
973.10069188254533
 11
1537.4554550040812
 21
988.10069188254533
  0
LINE
  8
_0-0_
  6
CONTINUOUS
 62
    5
 10
1536.9554550040739
 20
973.10069188254533
 11
1537.4554550040812
 21
973.10069188254533
  0
LINE
  8
_0-0_
  6
CONTINUOUS
 62
    5
 10
1536.9554550040812
 20
971.10069188254533
 11
1536.9554550040739
 21
973.10069188254533
  0
LINE
  8
_0-0_
  6
CONTINUOUS
 62
    5
 10
1538.4554550040812
 20
971.10069188254533
 11
1536.9554550040812
 21
971.10069188254533
  0
LINE
  8
_0-0_
  6
CONTINUOUS
 62
    5
 10
1538.4554550040812
 20
989.60069188254533
 11
1538.4554550040812
 21
971.10069188254533
  0
LINE
  8
_0-0_
  6
CONTINUOUS
 62
    5
 10
1563.4554550040812
 20
989.60069188254533
 11
1538.4554550040812
 21
989.60069188254533
  0
LINE
  8
_0-0_
  6
CONTINUOUS
 62
    5
 10
1563.4554550040812
 20
971.10069188254533
 11
1563.4554550040812
 21
989.60069188254533
  0
LINE
  8
_0-0_
  6
CONTINUOUS
 62
    5
 10
1564.9554550040812
 20
971.10069188254533
 11
1563.4554550040812
 21
971.10069188254533
  0
LINE
  8
_0-0_
  6
CONTINUOUS
 62
    5
 10
1564.9554550040866
 20
973.10069188254533
 11
1564.9554550040812
 21
971.10069188254533
  0
LINE
  8
_0-0_
  6
CONTINUOUS
 62
    5
 10
1564.4554550040812
 20
973.10069188254533
 11
1564.9554550040866
 21
973.10069188254533
  0
LINE
  8
_0-0_
  6
CONTINUOUS
 62
    5
 10
1564.4554550040812
 20
988.10069188254533
 11
1564.4554550040812
 21
973.10069188254533
  0
LINE
  8
_0-0_
  6
CONTINUOUS
 62
    5
 10
1564.9554550040812
 20
988.10069188254533
 11
1564.4554550040812
 21
988.10069188254533
  0
LINE
  8
_0-0_
  6
CONTINUOUS
 62
    5
 10
1564.9554550040812
 20
991.10069188254533
 11
1564.9554550040812
 21
988.10069188254533
  0
LINE
  8
_0-0_
  6
CONTINUOUS
 62
    5
 10
1563.9554550040812
 20
991.10069188254533
 11
1564.9554550040812
 21
991.10069188254533
  0
LINE
  8
_0-0_
  6
CONTINUOUS
 62
    5
 10
1563.4554550040812
 20
990.60069188254533
 11
1563.9554550040812
 21
991.10069188254533
  0
LINE
  8
_0-0_
  6
CONTINUOUS
 62
    5
 10
1544.1695401026882
 20
911.10069188254624
 11
1544.1695401026882
 21
987.60069188254533
  0
LINE
  8
_0-0_
  6
CONTINUOUS
 62
    5
 10
1547.9195401026882
 20
911.10069188254624
 11
1547.9195401026882
 21
987.60069188254533
  0
LINE
  8
_0-0_
  6
CONTINUOUS
 62
    5
 10
1551.6695401026882
 20
911.10069188254624
 11
1551.6695401026882
 21
987.60069188254533
  0
LINE
  8
_0-0_
  6
CONTINUOUS
 62
    5
 10
1555.4195401026882
 20
911.10069188254624
 11
1555.4195401026882
 21
987.60069188254533
  0
LINE
  8
_0-0_
  6
CONTINUOUS
 62
    5
 10
1559.1695401026882
 20
911.10069188254624
 11
1559.1695401026882
 21
987.60069188254533
  0
LINE
  8
_0-0_
  6
CONTINUOUS
 62
    5
 10
1400.9639424251527
 20
991.10069188254533
 11
1400.9639424251527
 21
911.10069188254624
  0
LINE
  8
_0-0_
  6
CONTINUOUS
 62
    5
 10
1380.9639424251527
 20
991.10069188254533
 11
1400.9639424251527
 21
991.10069188254533
  0
LINE
  8
_0-0_
  6
CONTINUOUS
 62
    5
 10
1380.9639424251527
 20
916.49896517130242
 11
1386.3622157139125
 21
911.10069188254624
  0
LINE
  8
_0-0_
  6
CONTINUOUS
 62
    5
 10
1380.9639424251527
 20
922.15581942079575
 11
1392.019069963404
 21
911.10069188254261
  0
LINE
  8
_0-0_
  6
CONTINUOUS
 62
    5
 10
1380.9639424251527
 20
927.81267367028909
 11
1397.6759242128956
 21
911.10069188254624
  0
LINE
  8
_0-0_
  6
CONTINUOUS
 62
    5
 10
1380.9639424251527
 20
933.46952791978151
 11
1400.9639424251527
 21
913.46952791978242
  0
LINE
  8
_0-0_
  6
CONTINUOUS
 62
    5
 10
1380.9639424251527
 20
939.12638216927303
 11
1400.9639424251527
 21
919.12638216927212
  0
LINE
  8
_0-0_
  6
CONTINUOUS
 62
    5
 10
1380.9639424251527
 20
944.78323641876455
 11
1400.9639424251527
 21
924.78323641876545
  0
LINE
  8
_0-0_
  6
CONTINUOUS
 62
    5
 10
1380.9639424251527
 20
950.44009066825788
 11
1400.9639424251527
 21
930.44009066825879
  0
LINE
  8
_0-0_
  6
CONTINUOUS
 62
    5
 10
1380.9639424251527
 20
956.09694491775122
 11
1400.9639424251527
 21
936.09694491775122
  0
LINE
  8
_0-0_
  6
CONTINUOUS
 62
    5
 10
1380.9639424251527
 20
961.75379916724091
 11
1400.9639424251527
 21
941.75379916724091
  0
LINE
  8
_0-0_
  6
CONTINUOUS
 62
    5
 10
1380.9639424251527
 20
967.41065341673243
 11
1400.9639424251527
 21
947.41065341673425
  0
LINE
  8
_0-0_
  6
CONTINUOUS
 62
    5
 10
1380.9639424251527
 20
973.06750766622758
 11
1400.9639424251527
 21
953.06750766622577
  0
LINE
  8
_0-0_
  6
CONTINUOUS
 62
    5
 10
1380.9639424251527
 20
978.72436191572092
 11
1400.9639424251527
 21
958.72436191572092
  0
LINE
  8
_0-0_
  6
CONTINUOUS
 62
    5
 10
1380.9639424251527
 20
984.38121616521244
 11
1400.9639424251527
 21
964.38121616521244
  0
LINE
  8
_0-0_
  6
CONTINUOUS
 62
    5
 10
1380.9639424251527
 20
990.03807041470395
 11
1400.9639424251527
 21
970.03807041470395
  0
LINE
  8
_0-0_
  6
CONTINUOUS
 62
    5
 10
1385.5581752068047
 20
991.10069188254352
 11
1400.9639424251527
 21
975.69492466419547
  0
LINE
  8
_0-0_
  6
CONTINUOUS
 62
    5
 10
1391.215029456298
 20
991.10069188254533
 11
1400.9639424251527
 21
981.35177891369062
  0
LINE
  8
_0-0_
  6
CONTINUOUS
 62
    5
 10
1396.8718837057913
 20
991.10069188254352
 11
1400.9639424251527
 21
987.00863316318032
  0
LINE
  8
_0-0_
  6
CONTINUOUS
 62
    7
 10
1374.7843722939106
 20
1112.5082796391318
 11
1374.7843722939106
 21
900.10069188254261
  0
LINE
  8
_0-0_
  6
CONTINUOUS
 62
    4
 10
1380.7843722939106
 20
1117.1122415670045
 11
1380.7843722939106
 21
909.10069188254261
  0
LINE
  8
_0-0_
  6
CONTINUOUS
 62
    7
 10
1269.7843722939106
 20
801.99218956316895
 11
1374.7843722939106
 21
906.99218956316531
  0
LINE
  8
_0-0_
  6
CONTINUOUS
 62
    7
 10
892.3418665976352
 20
991.10069188254533
 11
963.08437229390995
 21
920.3581861862715
  0
LINE
  8
_0-0_
  6
CONTINUOUS
 62
    7
 10
885.27079878577217
 20
991.10069188254533
 11
963.08437229390995
 21
913.28711837440846
  0
LINE
  8
_0-0_
  6
CONTINUOUS
 62
    7
 10
878.19973097390732
 20
991.10069188254533
 11
958.19973097390914
 21
911.10069188254261
  0
LINE
  8
_0-0_
  6
CONTINUOUS
 62
    7
 10
827.0928597149815
 20
991.10069188254533
 11
983.08437229390995
 21
991.10069188254533
  0
LINE
  8
_0-0_
  6
CONTINUOUS
 62
    5
 10
803.0928597149815
 20
987.60069188254533
 11
803.0928597149815
 21
911.10069188254624
  0
LINE
  8
_0-0_
  6
CONTINUOUS
 62
    5
 10
823.0928597149815
 20
987.60069188254533
 11
803.0928597149815
 21
987.60069188254533
  0
LINE
  8
_0-0_
  6
CONTINUOUS
 62
    5
 10
823.0928597149815
 20
911.10069188254624
 11
823.0928597149815
 21
987.60069188254533
  0
LINE
  8
_0-0_
  6
CONTINUOUS
 62
    5
 10
824.0928597149815
 20
989.10069188254533
 11
802.0928597149815
 21
989.10069188254533
  0
LINE
  8
_0-0_
  6
CONTINUOUS
 62
    5
 10
824.0928597149815
 20
988.10069188254533
 11
824.0928597149815
 21
989.10069188254533
  0
LINE
  8
_0-0_
  6
CONTINUOUS
 62
    5
 10
822.0928597149815
 20
988.10069188254533
 11
824.0928597149815
 21
988.10069188254533
  0
LINE
  8
_0-0_
  6
CONTINUOUS
 62
    5
 10
822.0928597149815
 20
987.60069188254533
 11
822.0928597149815
 21
988.10069188254533
  0
LINE
  8
_0-0_
  6
CONTINUOUS
 62
    5
 10
824.0928597149815
 20
987.60069188254533
 11
822.0928597149815
 21
987.60069188254533
  0
LINE
  8
_0-0_
  6
CONTINUOUS
 62
    5
 10
824.0928597149815
 20
976.10069188254533
 11
824.0928597149815
 21
987.60069188254533
  0
LINE
  8
_0-0_
  6
CONTINUOUS
 62
    5
 10
823.5928597149815
 20
976.10069188254533
 11
824.0928597149815
 21
976.10069188254533
  0
LINE
  8
_0-0_
  6
CONTINUOUS
 62
    5
 10
824.0928597149815
 20
975.10069188254533
 11
823.5928597149815
 21
976.10069188254533
  0
LINE
  8
_0-0_
  6
CONTINUOUS
 62
    5
 10
824.0928597149815
 20
962.10069188254533
 11
824.0928597149815
 21
975.10069188254533
  0
LINE
  8
_0-0_
  6
CONTINUOUS
 62
    5
 10
823.5928597149815
 20
962.10069188254533
 11
824.0928597149815
 21
962.10069188254533
  0
LINE
  8
_0-0_
  6
CONTINUOUS
 62
    5
 10
824.0928597149815
 20
961.10069188254533
 11
823.5928597149815
 21
962.10069188254533
  0
LINE
  8
_0-0_
  6
CONTINUOUS
 62
    5
 10
825.0928597149815
 20
961.10069188254533
 11
824.0928597149815
 21
961.10069188254533
  0
LINE
  8
_0-0_
  6
CONTINUOUS
 62
    5
 10
825.0928597149815
 20
987.60069188254533
 11
825.0928597149815
 21
961.10069188254533
  0
LINE
  8
_0-0_
  6
CONTINUOUS
 62
    5
 10
825.5928597149815
 20
987.60069188254533
 11
825.0928597149815
 21
987.60069188254533
  0
LINE
  8
_0-0_
  6
CONTINUOUS
 62
    5
 10
825.5928597149815
 20
989.60069188254533
 11
825.5928597149815
 21
987.60069188254533
  0
LINE
  8
_0-0_
  6
CONTINUOUS
 62
    5
 10
800.5928597149815
 20
989.60069188254533
 11
825.5928597149815
 21
989.60069188254533
  0
LINE
  8
_0-0_
  6
CONTINUOUS
 62
    5
 10
800.5928597149815
 20
987.60069188254533
 11
800.5928597149815
 21
989.60069188254533
  0
LINE
  8
_0-0_
  6
CONTINUOUS
 62
    5
 10
801.0928597149815
 20
987.60069188254533
 11
800.5928597149815
 21
987.60069188254533
  0
LINE
  8
_0-0_
  6
CONTINUOUS
 62
    5
 10
801.0928597149815
 20
961.10069188254533
 11
801.0928597149815
 21
987.60069188254533
  0
LINE
  8
_0-0_
  6
CONTINUOUS
 62
    5
 10
802.0928597149815
 20
961.10069188254533
 11
801.0928597149815
 21
961.10069188254533
  0
LINE
  8
_0-0_
  6
CONTINUOUS
 62
    5
 10
802.5928597149815
 20
962.10069188254533
 11
802.0928597149815
 21
961.10069188254533
  0
LINE
  8
_0-0_
  6
CONTINUOUS
 62
    5
 10
802.0928597149815
 20
962.10069188254533
 11
802.5928597149815
 21
962.10069188254533
  0
LINE
  8
_0-0_
  6
CONTINUOUS
 62
    5
 10
802.0928597149815
 20
975.10069188254533
 11
802.0928597149815
 21
962.10069188254533
  0
LINE
  8
_0-0_
  6
CONTINUOUS
 62
    5
 10
802.5928597149815
 20
976.10069188254533
 11
802.0928597149815
 21
975.10069188254533
  0
LINE
  8
_0-0_
  6
CONTINUOUS
 62
    5
 10
802.0928597149815
 20
976.10069188254533
 11
802.5928597149815
 21
976.10069188254533
  0
LINE
  8
_0-0_
  6
CONTINUOUS
 62
    5
 10
802.0928597149815
 20
987.60069188254533
 11
802.0928597149815
 21
976.10069188254533
  0
LINE
  8
_0-0_
  6
CONTINUOUS
 62
    5
 10
804.0928597149815
 20
987.60069188254533
 11
802.0928597149815
 21
987.60069188254533
  0
LINE
  8
_0-0_
  6
CONTINUOUS
 62
    5
 10
804.0928597149815
 20
988.10069188254533
 11
804.0928597149815
 21
987.60069188254533
  0
LINE
  8
_0-0_
  6
CONTINUOUS
 62
    5
 10
802.0928597149815
 20
988.10069188254533
 11
804.0928597149815
 21
988.10069188254533
  0
LINE
  8
_0-0_
  6
CONTINUOUS
 62
    5
 10
802.0928597149815
 20
989.10069188254533
 11
802.0928597149815
 21
988.10069188254533
  0
LINE
  8
_0-0_
  6
CONTINUOUS
 62
    5
 10
813.0928597149815
 20
990.60069188254533
 11
800.5928597149815
 21
990.60069188254533
  0
LINE
  8
_0-0_
  6
CONTINUOUS
 62
    5
 10
825.5928597149815
 20
990.60069188254533
 11
813.0928597149815
 21
990.60069188254533
  0
LINE
  8
_0-0_
  6
CONTINUOUS
 62
    5
 10
826.0928597149815
 20
991.10069188254533
 11
825.5928597149815
 21
990.60069188254533
  0
LINE
  8
_0-0_
  6
CONTINUOUS
 62
    5
 10
827.0928597149815
 20
991.10069188254533
 11
826.0928597149815
 21
991.10069188254533
  0
LINE
  8
_0-0_
  6
CONTINUOUS
 62
    5
 10
827.0928597149815
 20
988.10069188254533
 11
827.0928597149815
 21
991.10069188254533
  0
LINE
  8
_0-0_
  6
CONTINUOUS
 62
    5
 10
826.5928597149815
 20
988.10069188254533
 11
827.0928597149815
 21
988.10069188254533
  0
LINE
  8
_0-0_
  6
CONTINUOUS
 62
    5
 10
826.5928597149815
 20
973.10069188254533
 11
826.5928597149815
 21
988.10069188254533
  0
LINE
  8
_0-0_
  6
CONTINUOUS
 62
    5
 10
827.09285971498878
 20
973.10069188254533
 11
826.5928597149815
 21
973.10069188254533
  0
LINE
  8
_0-0_
  6
CONTINUOUS
 62
    5
 10
827.0928597149815
 20
971.10069188254533
 11
827.09285971498878
 21
973.10069188254533
  0
LINE
  8
_0-0_
  6
CONTINUOUS
 62
    5
 10
825.5928597149815
 20
971.10069188254533
 11
827.0928597149815
 21
971.10069188254533
  0
LINE
  8
_0-0_
  6
CONTINUOUS
 62
    5
 10
825.5928597149815
 20
989.60069188254533
 11
825.5928597149815
 21
971.10069188254533
  0
LINE
  8
_0-0_
  6
CONTINUOUS
 62
    5
 10
800.5928597149815
 20
989.60069188254533
 11
825.5928597149815
 21
989.60069188254533
  0
LINE
  8
_0-0_
  6
CONTINUOUS
 62
    5
 10
800.5928597149815
 20
971.10069188254533
 11
800.5928597149815
 21
989.60069188254533
  0
LINE
  8
_0-0_
  6
CONTINUOUS
 62
    5
 10
799.0928597149815
 20
971.10069188254533
 11
800.5928597149815
 21
971.10069188254533
  0
LINE
  8
_0-0_
  6
CONTINUOUS
 62
    5
 10
799.09285971497604
 20
973.10069188254533
 11
799.0928597149815
 21
971.10069188254533
  0
LINE
  8
_0-0_
  6
CONTINUOUS
 62
    5
 10
799.5928597149815
 20
973.10069188254533
 11
799.09285971497604
 21
973.10069188254533
  0
LINE
  8
_0-0_
  6
CONTINUOUS
 62
    5
 10
799.5928597149815
 20
988.10069188254533
 11
799.5928597149815
 21
973.10069188254533
  0
LINE
  8
_0-0_
  6
CONTINUOUS
 62
    5
 10
799.0928597149815
 20
988.10069188254533
 11
799.5928597149815
 21
988.10069188254533
  0
LINE
  8
_0-0_
  6
CONTINUOUS
 62
    5
 10
799.0928597149815
 20
991.10069188254533
 11
799.0928597149815
 21
988.10069188254533
  0
LINE
  8
_0-0_
  6
CONTINUOUS
 62
    5
 10
800.0928597149815
 20
991.10069188254533
 11
799.0928597149815
 21
991.10069188254533
  0
LINE
  8
_0-0_
  6
CONTINUOUS
 62
    5
 10
800.5928597149815
 20
990.60069188254533
 11
800.0928597149815
 21
991.10069188254533
  0
LINE
  8
_0-0_
  6
CONTINUOUS
 62
    5
 10
819.87877461637447
 20
911.10069188254624
 11
819.87877461637447
 21
987.60069188254533
  0
LINE
  8
_0-0_
  6
CONTINUOUS
 62
    5
 10
816.12877461637447
 20
911.10069188254624
 11
816.12877461637447
 21
987.60069188254533
  0
LINE
  8
_0-0_
  6
CONTINUOUS
 62
    5
 10
812.37877461637447
 20
911.10069188254624
 11
812.37877461637447
 21
987.60069188254533
  0
LINE
  8
_0-0_
  6
CONTINUOUS
 62
    5
 10
808.62877461637447
 20
911.10069188254624
 11
808.62877461637447
 21
987.60069188254533
  0
LINE
  8
_0-0_
  6
CONTINUOUS
 62
    5
 10
804.87877461637447
 20
911.10069188254624
 11
804.87877461637447
 21
987.60069188254533
  0
LINE
  8
_0-0_
  6
CONTINUOUS
 62
    5
 10
963.08437229390995
 20
991.10069188254533
 11
963.08437229390995
 21
911.10069188254624
  0
LINE
  8
_0-0_
  6
CONTINUOUS
 62
    5
 10
983.08437229390995
 20
991.10069188254533
 11
963.08437229390995
 21
991.10069188254533
  0
LINE
  8
_0-0_
  6
CONTINUOUS
 62
    5
 10
983.08437229390995
 20
916.49896517130242
 11
977.68609900515014
 21
911.10069188254624
  0
LINE
  8
_0-0_
  6
CONTINUOUS
 62
    5
 10
983.08437229390995
 20
922.15581942079575
 11
972.02924475565862
 21
911.10069188254261
  0
LINE
  8
_0-0_
  6
CONTINUOUS
 62
    5
 10
983.08437229390995
 20
927.81267367028909
 11
966.37239050616711
 21
911.10069188254624
  0
LINE
  8
_0-0_
  6
CONTINUOUS
 62
    5
 10
983.08437229390995
 20
933.46952791978151
 11
963.08437229390995
 21
913.46952791978242
  0
LINE
  8
_0-0_
  6
CONTINUOUS
 62
    5
 10
983.08437229390995
 20
939.12638216927303
 11
963.08437229390995
 21
919.12638216927212
  0
LINE
  8
_0-0_
  6
CONTINUOUS
 62
    5
 10
983.08437229390995
 20
944.78323641876455
 11
963.08437229390995
 21
924.78323641876545
  0
LINE
  8
_0-0_
  6
CONTINUOUS
 62
    5
 10
983.08437229390995
 20
950.44009066825788
 11
963.08437229390995
 21
930.44009066825879
  0
LINE
  8
_0-0_
  6
CONTINUOUS
 62
    5
 10
983.08437229390995
 20
956.09694491775122
 11
963.08437229390995
 21
936.09694491775122
  0
LINE
  8
_0-0_
  6
CONTINUOUS
 62
    5
 10
983.08437229390995
 20
961.75379916724091
 11
963.08437229390995
 21
941.75379916724091
  0
LINE
  8
_0-0_
  6
CONTINUOUS
 62
    5
 10
983.08437229390995
 20
967.41065341673243
 11
963.08437229390995
 21
947.41065341673425
  0
LINE
  8
_0-0_
  6
CONTINUOUS
 62
    5
 10
983.08437229390995
 20
973.06750766622758
 11
963.08437229390995
 21
953.06750766622577
  0
LINE
  8
_0-0_
  6
CONTINUOUS
 62
    5
 10
983.08437229390995
 20
978.72436191572092
 11
963.08437229390995
 21
958.72436191572092
  0
LINE
  8
_0-0_
  6
CONTINUOUS
 62
    5
 10
983.08437229390995
 20
984.38121616521244
 11
963.08437229390995
 21
964.38121616521244
  0
LINE
  8
_0-0_
  6
CONTINUOUS
 62
    5
 10
983.08437229390995
 20
990.03807041470395
 11
963.08437229390995
 21
970.03807041470395
  0
LINE
  8
_0-0_
  6
CONTINUOUS
 62
    5
 10
978.490139512258
 20
991.10069188254352
 11
963.08437229390995
 21
975.69492466419547
  0
LINE
  8
_0-0_
  6
CONTINUOUS
 62
    5
 10
972.83328526276466
 20
991.10069188254533
 11
963.08437229390995
 21
981.35177891369062
  0
LINE
  8
_0-0_
  6
CONTINUOUS
 62
    5
 10
967.17643101327133
 20
991.10069188254352
 11
963.08437229390995
 21
987.00863316318032
  0
LINE
  8
_0-0_
  6
CONTINUOUS
 62
    4
 10
983.08437229390995
 20
1364.233717678356
 11
983.08437229390995
 21
909.10069188254261
  0
LINE
  8
_0-0_
  6
CONTINUOUS
 62
    7
 10
989.08437229390995
 20
1361.6868687810995
 11
989.08437229390995
 21
900.10069188254261
  0
LINE
  8
_0-0_
  6
CONTINUOUS
 62
    7
 10
787.41393465389785
 20
772.17009188254292
 11
915.34453465389754
 21
900.10069188254261
  0
LINE
  8
_0-0_
  6
CONTINUOUS
 62
    7
 10
801.55607027762937
 20
772.17009188254292
 11
929.48667027762724
 21
900.10069188254261
  0
LINE
  8
_0-0_
  6
CONTINUOUS
 62
    7
 10
794.4850024657627
 20
772.17009188254292
 11
922.41560246576239
 21
900.10069188254261
  0
LINE
  8
_0-0_
  6
CONTINUOUS
 62
    7
 10
799.0928597149815
 20
991.10069188254533
 11
772.78437229391068
 21
991.10069188254533
  0
LINE
  8
_0-0_
  6
CONTINUOUS
 62
    7
 10
989.08437229390995
 20
900.10069188254261
 11
772.78437229391068
 21
900.10069188254261
  0
LINE
  8
_0-0_
  6
CONTINUOUS
 62
    4
 10
983.08437229390995
 20
909.10069188254261
 11
772.78437229391068
 21
909.10069188254261
  0
LINE
  8
_0-0_
  6
CONTINUOUS
 62
    5
 10
983.08437229390995
 20
910.10069188254261
 11
772.78437229391068
 21
910.10069188254261
  0
LINE
  8
_0-0_
  6
CONTINUOUS
 62
    7
 10
983.08437229390995
 20
911.10069188254261
 11
772.78437229391068
 21
911.10069188254261
  0
LINE
  8
_0-0_
  6
CONTINUOUS
 62
    7
 10
1564.9554550040812
 20
991.10069188254533
 11
1584.7843722939106
 21
991.10069188254533
  0
LINE
  8
_0-0_
  6
CONTINUOUS
 62
    7
 10
1380.9639424251527
 20
911.10069188254261
 11
1584.7843722939106
 21
911.10069188254261
  0
LINE
  8
_0-0_
  6
CONTINUOUS
 62
    5
 10
1380.9639424251527
 20
910.10069188254261
 11
1584.7843722939106
 21
910.10069188254261
  0
LINE
  8
_0-0_
  6
CONTINUOUS
 62
    4
 10
1380.7843722939106
 20
909.10069188254261
 11
1584.7843722939106
 21
909.10069188254261
  0
LINE
  8
_0-0_
  6
CONTINUOUS
 62
    7
 10
1374.7843722939106
 20
900.10069188254261
 11
1584.7843722939106
 21
900.10069188254261
  0
CIRCLE
  8
_0-0_
  6
DASHED2
 62
    1
 10
1380.9639424251527
 20
961.75379916724091
 40
80
  0
TEXT
  8
_0-0_
 62
    7
 10
1342.8132676917685
 20
1023.1359142069171
 40
24
 41
1
 50
0
  1
Ｂ
  0
LINE
  8
_0-0_
  6
CONTINUOUS
 62
    7
 10
672.13606690525205
 20
1633.356554367115
 11
1706.8525777203686
 21
1633.356554367115
  0
LINE
  8
_0-0_
  6
CONTINUOUS
 62
    7
 10
672.13606690525205
 20
1553.356554367115
 11
1706.8525777203686
 21
1553.356554367115
  0
LINE
  8
_0-0_
  6
CONTINUOUS
 62
    7
 10
672.13606690525205
 20
1473.356554367115
 11
1706.8525777203686
 21
1473.356554367115
  0
LINE
  8
_0-0_
  6
CONTINUOUS
 62
    7
 10
1189.4943223128103
 20
1633.356554367115
 11
1189.4943223128103
 21
1473.356554367115
  0
TEXT
  8
_0-0_
 62
    7
 10
696.13606690525205
 20
1497.356554367115
 40
20
 41
1
 50
0
  1
施工部位：ハト小屋
  0
TEXT
  8
_0-0_
 62
    7
 10
1213.4943223128103
 20
1577.356554367115
 40
20
 41
1
 50
0
  1
構造：ＲＣ造
  0
TEXT
  8
_0-0_
 62
    7
 10
1213.4943223128103
 20
1497.356554367115
 40
20
 41
1
 50
0
  1
下地：コンクリートスラブ
  0
TEXT
  8
_0-0_
 62
    7
 10
696.13606690525205
 20
1577.356554367115
 40
20
 41
1
 50
0
  1
図面番号：UPM-10C-sash-01
  0
ENDSEC
  0
EOF
