  0
SECTION
  2
HEADER
  9
$ACADVER
  1
AC1009
  9
$INSBASE
 10
0
 20
0
 30
0
  9
$EXTMIN
 10
0
 20
0
  9
$EXTMAX
 10
2378
 20
1682
  9
$LIMMIN
 10
0
 20
0
  9
$LIMMAX
 10
2378
 20
1682
  9
$LTSCALE
 40
1
  0
ENDSEC
  0
SECTION
  2
TABLES
  0
TABLE
  2
LTYPE
 70
     9
  0
LTYPE
  2
CONTINUOUS
 70
    64
  3
実線
 72
    65
 73
     0
 40
0.0
  0
LTYPE
  2
DASHED1
 70
    64
  3
--  --  --  --  --  --  --  --  
 72
    65
 73
     2
 40
2.5
 49
1.25
 49
-1.25
  0
LTYPE
  2
DASHED2
 70
    64
  3
----    ----    ----    ----    
 72
    65
 73
     2
 40
5.0
 49
2.5
 49
-2.5
  0
LTYPE
  2
DASHED3
 70
    64
  3
------  ------  ------  ------  
 72
    65
 73
     2
 40
5.0
 49
3.75
 49
-1.25
  0
LTYPE
  2
CENTER1
 70
    64
  3
----- - ----- - ----- - ----- - 
 72
    65
 73
     4
 40
10.0
 49
6.25
 49
-1.25
 49
1.25
 49
-1.25
  0
LTYPE
  2
CENTER2
 70
    64
  3
----------  --  ----------  --  
 72
    65
 73
     4
 40
20.0
 49
12.5
 49
-2.5
 49
2.5
 49
-2.5
  0
LTYPE
  2
PHANTOM1
 70
    64
  3
--- - - --- - - --- - - --- - - 
 72
    65
 73
     6
 40
10.0
 49
3.25
 49
-1.25
 49
1.25
 49
-1.25
 49
1.25
 49
-1.25
  0
LTYPE
  2
PHANTOM2
 70
    64
  3
--------  -  -  --------  -  -  
 72
    65
 73
     6
 40
20.0
 49
10.0
 49
-2.5
 49
1.25
 49
-2.5
 49
1.25
 49
-2.5
  0
LTYPE
  2
DOT
 70
    64
  3
-   -   -   -   -   -   -   -   
 72
    65
 73
     2
 40
2.5
 49
0.625
 49
-1.875
  0
LTYPE
  2
DUMMY
 70
    64
  3
ダミー
 72
    65
 73
     0
 40
0.0
  0
LTYPE
  2
RAND1
 70
    64
  3
ランダム線1
 72
    65
 73
     4
 40
10.0
 49
1.0
 49
-2.0
 49
3.0
 49
-4.0
  0
LTYPE
  2
RAND2
 70
    64
  3
ランダム線2
 72
    65
 73
     4
 40
14.0
 49
2.0
 49
-3.0
 49
4.0
 49
-5.0
  0
LTYPE
  2
RAND3
 70
    64
  3
ランダム線3
 72
    65
 73
     4
 40
18.0
 49
3.0
 49
-4.0
 49
5.0
 49
-6.0
  0
LTYPE
  2
RAND4
 70
    64
  3
ランダム線4
 72
    65
 73
     4
 40
22.0
 49
4.0
 49
-5.0
 49
6.0
 49
-7.0
  0
LTYPE
  2
RAND5
 70
    64
  3
ランダム線5
 72
    65
 73
     4
 40
26.0
 49
5.0
 49
-6.0
 49
7.0
 49
-8.0
  0
LTYPE
  2
LONG1
 70
    64
  3
----------  --  ----------  --  
 72
    65
 73
     4
 40
40.0
 49
32.5
 49
-2.5
 49
2.5
 49
-2.5
  0
LTYPE
  2
LONG2
 70
    64
  3
--------  -  -  --------  -  -  
 72
    65
 73
     6
 40
40.0
 49
30.0
 49
-2.5
 49
1.25
 49
-2.5
 49
1.25
 49
-2.5
  0
LTYPE
  2
LONG3
 70
    64
  3
+++++++++++++++..+++++++++++++++
 72
    65
 73
     2
 40
40.0
 49
37.5
 49
-2.5
  0
LTYPE
  2
LONG4
 70
    64
  3
+++++++++++++++..+++++++++++++++
 72
    65
 73
     2
 40
80.0
 49
75.0
 49
-5.0
  0
LTYPE
  2
LONG5
 70
    64
  3
----------  --  ----------  --  
 72
    65
 73
     4
 40
60.0
 49
37.5
 49
-7.5
 49
7.5
 49
-7.5
  0
LTYPE
  2
dashed
 70
   64
  3
-------   -------------   ------
 72
   65
 73
    2
 40
7.5
 49
6
 49
-1.5
  0
LTYPE
  2
dashed_spaced
 70
   64
  3
----        --------        ----
 72
   65
 73
    2
 40
12
 49
6
 49
-6
  0
LTYPE
  2
long_dashed_dotted
 70
   64
  3
------------- --- --------------
 72
   65
 73
    4
 40
15.25
 49
12
 49
-1.5
 49
0.25
 49
-1.5
  0
LTYPE
  2
long_dashed_double-dotted
 70
   64
  3
----------- --- --- ------------
 72
   65
 73
    6
 40
17
 49
12
 49
-1.5
 49
0.25
 49
-1.5
 49
0.25
 49
-1.5
  0
LTYPE
  2
long_dashed_triplicate-dotted
 70
   64
  3
--------- --- --- --- ----------
 72
   65
 73
    8
 40
18.75
 49
12
 49
-1.5
 49
0.25
 49
-1.5
 49
0.25
 49
-1.5
 49
0.25
 49
-1.5
  0
LTYPE
  2
dotted
 70
   64
  3
   -       -       -       -    
 72
   65
 73
    2
 40
1.75
 49
0.25
 49
-1.5
  0
LTYPE
  2
chain
 70
   64
  3
-------------- -- --------------
 72
   65
 73
    4
 40
18.5
 49
12
 49
-1.5
 49
3.5
 49
-1.5
  0
LTYPE
  2
chain_double_dash
 70
   64
  3
------------ -- -- -------------
 72
   65
 73
    6
 40
23.5
 49
12
 49
-1.5
 49
3.5
 49
-1.5
 49
3.5
 49
-1.5
  0
LTYPE
  2
dashed_dotted
 70
   64
  3
-----------     -     ----------
 72
   65
 73
    4
 40
9.25
 49
6
 49
-1.5
 49
0.25
 49
-1.5
  0
LTYPE
  2
double-dashed_dotted
 70
   64
  3
------   -----------   -   -----
 72
   65
 73
    6
 40
16.75
 49
6
 49
-1.5
 49
6
 49
-1.5
 49
0.25
 49
-1.5
  0
LTYPE
  2
dashed_double-dotted
 70
   64
  3
---------    -    -    ---------
 72
   65
 73
    6
 40
11
 49
6
 49
-1.5
 49
0.25
 49
-1.5
 49
0.25
 49
-1.5
  0
LTYPE
  2
double-dashed_double-dotted
 70
   64
  3
-----   ---------   -   -   ----
 72
   65
 73
    8
 40
18.5
 49
6
 49
-1.5
 49
6
 49
-1.5
 49
0.25
 49
-1.5
 49
0.25
 49
-1.5
  0
LTYPE
  2
dashed_triplicate-dotted
 70
   64
  3
-------    -    -    -    ------
 72
   65
 73
    8
 40
12.75
 49
6
 49
-1.5
 49
0.25
 49
-1.5
 49
0.25
 49
-1.5
 49
0.25
 49
-1.5
  0
LTYPE
  2
double-dashed_triplicate-dotted
 70
   64
  3
-----  ---------  -  -  -  -----
 72
   65
 73
   10
 40
20.25
 49
6
 49
-1.5
 49
6
 49
-1.5
 49
0.25
 49
-1.5
 49
0.25
 49
-1.5
 49
0.25
 49
-1.5
  0
LTYPE
  2
undefined
 70
   64
  3
--------------------------------
 72
   65
 73
    0
 40
0
  0
ENDTAB
  0
TABLE
  2
STYLE
  5
3
100
AcDbSymbolTable
 70
     1
  0
STYLE
  5
10
100
AcDbSymbolTableRecord
100
AcDbTextStyleTableRecord
  2
STANDARD
 70
     0
 40
0.0
 41
1.0
 50
0.0
 71
     0
 42
0.2
  3
txt
  4
bigfont.shx
  0
STYLE
  5
26
100
AcDbSymbolTableRecord
100
AcDbTextStyleTableRecord
  2
TATEGAKI
 70
    68
 40
0.0
 41
1.0
 50
0.0
 71
     0
 42
1.0
  3
txt
  4
bigfont.shx
  0
ENDTAB
  0
TABLE
  2
LAYER
 70
    2
  0
LAYER
  2
_0-0_
 70
   64
 62
    7
  6
CONTINUOUS
  0
LAYER
  2
ADD_LINE
 70
   64
 62
    7
  6
CONTINUOUS
  0
ENDTAB
  0
ENDSEC
  0
SECTION
  2
BLOCKS
  0
ENDSEC
  0
SECTION
  2
ENTITIES
  0
TEXT
  8
_0-0_
 62
    7
 10
1134.4072004964419
 20
1262.6237365561446
 40
24
 41
1
 50
0
  1
Ａ
  0
LINE
  8
_0-0_
  6
CONTINUOUS
 62
    7
 10
672.13606690525205
 20
167.53106997205509
 11
1706.8525777203686
 21
167.53106997205509
  0
LINE
  8
_0-0_
  6
CONTINUOUS
 62
    7
 10
672.13606690525205
 20
1633.3565543671129
 11
672.13606690525205
 21
167.53106997205509
  0
LINE
  8
_0-0_
  6
CONTINUOUS
 62
    7
 10
1706.8525777203686
 20
1633.3565543671129
 11
1706.8525777203686
 21
167.53106997205509
  0
LINE
  8
_0-0_
  6
CONTINUOUS
 62
    4
 10
1012.0348101514666
 20
1217.8011970421931
 11
1003.9134898079066
 21
1209.6798766986331
  0
LINE
  8
_0-0_
  6
CONTINUOUS
 62
    7
 10
998.91348980790656
 20
1265.3350886855796
 11
998.91348980790656
 21
1219.8011970421931
  0
LINE
  8
_0-0_
  6
CONTINUOUS
 62
    7
 10
1014.5200915257047
 20
1211.8011970421931
 11
1143.3068880901083
 21
1211.8011970421931
  0
LINE
  8
_0-0_
  6
CONTINUOUS
 62
    4
 10
1145.7921694643483
 20
1217.8011970421931
 11
1159.9134898079064
 21
1203.679876698634
  0
LINE
  8
_0-0_
  6
CONTINUOUS
 62
    7
 10
1143.3068880901083
 20
1211.8011970421931
 11
1153.9134898079064
 21
1201.1945953243949
  0
LINE
  8
_0-0_
  6
CONTINUOUS
 62
    7
 10
1014.5200915257047
 20
1211.8011970421931
 11
1003.9134898079066
 21
1201.1945953243949
  0
LINE
  8
_0-0_
  6
CONTINUOUS
 62
    4
 10
1003.9134898079066
 20
1201.1945953243949
 11
1003.9134898079066
 21
1209.6798766986331
  0
LINE
  8
_0-0_
  6
CONTINUOUS
 62
    7
 10
1005.9134898079066
 20
1298.2108364690894
 11
1007.9134898079066
 21
1299.2108364690894
  0
LINE
  8
_0-0_
  6
CONTINUOUS
 62
    7
 10
1005.9134898079066
 20
1298.2108364690894
 11
1005.9134898079066
 21
1265.3350886855796
  0
LINE
  8
_0-0_
  6
CONTINUOUS
 62
    7
 10
1005.9134898079066
 20
1305.2108364690894
 11
1005.9134898079066
 21
1299.2108364690894
  0
LINE
  8
_0-0_
  6
CONTINUOUS
 62
    7
 10
1007.9134898079066
 20
1299.2108364690894
 11
1005.9134898079066
 21
1299.2108364690894
  0
LINE
  8
_0-0_
  6
CONTINUOUS
 62
    7
 10
991.91348980790656
 20
1290.2536685833147
 11
991.91348980790656
 21
1267.3350886855796
  0
LINE
  8
_0-0_
  6
CONTINUOUS
 62
    7
 10
991.91348980790656
 20
1290.2536685833147
 11
978.67898748733035
 21
1290.2536685833147
  0
LINE
  8
_0-0_
  6
CONTINUOUS
 62
    7
 10
981.67898748733035
 20
1277.3350886855796
 11
981.67898748733035
 21
1285.3350886855796
  0
LINE
  8
_0-0_
  6
CONTINUOUS
 62
    7
 10
955.44448516675413
 20
1276.3350886855796
 11
953.44448516675413
 21
1276.3350886855796
  0
LINE
  8
_0-0_
  6
CONTINUOUS
 62
    7
 10
955.44448516675413
 20
1267.3350886855796
 11
955.44448516675413
 21
1276.3350886855796
  0
LINE
  8
_0-0_
  6
CONTINUOUS
 62
    7
 10
953.44448516675413
 20
1265.3350886855796
 11
953.44448516675413
 21
1276.3350886855796
  0
LINE
  8
_0-0_
  6
CONTINUOUS
 62
    7
 10
953.44448516675413
 20
1265.3350886855796
 11
1003.9134898079066
 21
1265.3350886855796
  0
LINE
  8
_0-0_
  6
CONTINUOUS
 62
    7
 10
1003.9134898079066
 20
1267.3350886855796
 11
955.44448516675413
 21
1267.3350886855796
  0
LINE
  8
_0-0_
  6
CONTINUOUS
 62
    7
 10
947.91861499950039
 20
1265.3350886855796
 11
947.91861499950039
 21
1275.3350886855796
  0
LINE
  8
_0-0_
  6
CONTINUOUS
 62
    7
 10
945.91861499950039
 20
1263.3350886855796
 11
945.91861499950039
 21
1275.3350886855796
  0
LINE
  8
_0-0_
  6
CONTINUOUS
 62
    7
 10
947.91861499950039
 20
1275.3350886855796
 11
945.91861499950039
 21
1275.3350886855796
  0
LINE
  8
_0-0_
  6
CONTINUOUS
 62
    7
 10
984.74704606543139
 20
1322.2108364690894
 11
1126.9992814089328
 21
1322.2108364690894
  0
LINE
  8
_0-0_
  6
CONTINUOUS
 62
    7
 10
981.88118749961188
 20
1317.2108364690894
 11
1124.1125300629847
 21
1317.2108364690894
  0
LINE
  8
_0-0_
  6
CONTINUOUS
 62
    7
 10
996.91348980790656
 20
1263.3350886855796
 11
945.91861499950039
 21
1263.3350886855796
  0
LINE
  8
_0-0_
  6
CONTINUOUS
 62
    7
 10
998.91348980790656
 20
1265.3350886855796
 11
947.91861499950039
 21
1265.3350886855796
  0
LINE
  8
_0-0_
  6
CONTINUOUS
 62
    7
 10
988.91348980790656
 20
1267.3350886855796
 11
988.91348980790656
 21
1265.3350886855796
  0
LINE
  8
_0-0_
  6
CONTINUOUS
 62
    7
 10
996.91348980790656
 20
1263.3350886855796
 11
996.91348980790656
 21
1217.8011970421931
  0
LINE
  8
_0-0_
  6
CONTINUOUS
 62
    7
 10
1111.3846994953983
 20
1217.8011970421931
 11
996.91348980790656
 21
1217.8011970421931
  0
LINE
  8
_0-0_
  6
CONTINUOUS
 62
    7
 10
1111.3846994953983
 20
1219.8011970421931
 11
1111.3846994953983
 21
1217.8011970421931
  0
LINE
  8
_0-0_
  6
CONTINUOUS
 62
    7
 10
1090.4971876478412
 20
1219.8011970421931
 11
1102.4971876478412
 21
1219.8011970421931
  0
LINE
  8
_0-0_
  6
CONTINUOUS
 62
    7
 10
1102.4971876478412
 20
1237.3850124865376
 11
1102.4971876478412
 21
1219.8011970421931
  0
LINE
  8
_0-0_
  6
CONTINUOUS
 62
    7
 10
1005.9134898079066
 20
1263.2645363247593
 11
1100.4971876478412
 21
1237.9209108713994
  0
LINE
  8
_0-0_
  6
CONTINUOUS
 62
    7
 10
1100.4971876478412
 20
1237.9209108713994
 11
1100.4971876478412
 21
1221.8011970421931
  0
LINE
  8
_0-0_
  6
CONTINUOUS
 62
    7
 10
1090.4971876478412
 20
1221.8011970421931
 11
1090.4971876478412
 21
1219.8011970421931
  0
LINE
  8
_0-0_
  6
CONTINUOUS
 62
    7
 10
1100.4971876478412
 20
1221.8011970421931
 11
1090.4971876478412
 21
1221.8011970421931
  0
LINE
  8
_0-0_
  6
CONTINUOUS
 62
    7
 10
1015.9134898079066
 20
1221.8011970421931
 11
1015.9134898079066
 21
1219.8011970421931
  0
LINE
  8
_0-0_
  6
CONTINUOUS
 62
    7
 10
1015.9134898079066
 20
1219.8011970421931
 11
1003.9134898079066
 21
1219.8011970421931
  0
LINE
  8
_0-0_
  6
CONTINUOUS
 62
    7
 10
1015.9134898079066
 20
1221.8011970421931
 11
1005.9134898079066
 21
1221.8011970421931
  0
LINE
  8
_0-0_
  6
CONTINUOUS
 62
    7
 10
1003.9134898079066
 20
1265.3350886855796
 11
1003.9134898079066
 21
1219.8011970421931
  0
LINE
  8
_0-0_
  6
CONTINUOUS
 62
    7
 10
1005.9134898079066
 20
1263.2645363247593
 11
1005.9134898079066
 21
1221.8011970421931
  0
LINE
  8
_0-0_
  6
CONTINUOUS
 62
    1
 10
1027.5631316898525
 20
1282.5698203177117
 11
1034.259331368492
 21
1283.1556618782988
  0
LINE
  8
_0-0_
  6
CONTINUOUS
 62
    1
 10
1021.7134898079058
 20
1296.1115206929626
 11
1027.9634073366651
 21
1296.6583176247013
  0
LINE
  8
_0-0_
  6
CONTINUOUS
 62
    1
 10
1033.9294390830219
 20
1305.2108364690894
 11
1034.7134898079057
 21
1305.279432019146
  0
LINE
  8
_0-0_
  6
CONTINUOUS
 62
    1
 10
1034.7134898079057
 20
1287.7242804263933
 11
1034.7134898079057
 21
1287.7429673383895
  0
LINE
  8
_0-0_
  6
CONTINUOUS
 62
    1
 10
1021.7134898079058
 20
1284.0656826424411
 11
1034.7134898079057
 21
1285.2030352682787
  0
LINE
  8
_0-0_
  6
CONTINUOUS
 62
    1
 10
1021.7134898079058
 20
1318.1955571189155
 11
1034.7134898079057
 21
1319.3329097447522
  0
LINE
  8
_0-0_
  6
CONTINUOUS
 62
    1
 10
1021.7134898079058
 20
1316.1879174438291
 11
1034.7134898079057
 21
1317.3252700696657
  0
LINE
  8
_0-0_
  6
CONTINUOUS
 62
    1
 10
1021.7134898079058
 20
1294.1038810178752
 11
1034.7134898079057
 21
1295.2412336437119
  0
LINE
  8
_0-0_
  6
CONTINUOUS
 62
    1
 10
1021.7134898079058
 20
1306.1497190683949
 11
1034.7134898079057
 21
1307.2870716942325
  0
LINE
  8
_0-0_
  6
CONTINUOUS
 62
    1
 10
1021.7134898079058
 20
1308.1573587434823
 11
1034.7134898079057
 21
1309.2947113693199
  0
LINE
  8
_0-0_
  6
CONTINUOUS
 62
    1
 10
1021.7134898079058
 20
1310.1649984185688
 11
1034.7134898079057
 21
1311.3023510444054
  0
LINE
  8
_0-0_
  6
CONTINUOUS
 62
    1
 10
1021.7134898079058
 20
1312.1726380936552
 11
1034.7134898079057
 21
1313.3099907194919
  0
LINE
  8
_0-0_
  6
CONTINUOUS
 62
    1
 10
1021.7134898079058
 20
1314.1802777687426
 11
1034.7134898079057
 21
1315.3176303945793
  0
LINE
  8
_0-0_
  6
CONTINUOUS
 62
    1
 10
1021.7134898079058
 20
1320.2031967940029
 11
1034.7134898079057
 21
1321.3405494198396
  0
LINE
  8
_0-0_
  6
CONTINUOUS
 62
    1
 10
1021.7134898079058
 20
1292.0962413427887
 11
1034.7134898079057
 21
1293.2335939686254
  0
LINE
  8
_0-0_
  6
CONTINUOUS
 62
    1
 10
1021.7134898079058
 20
1290.0886016677023
 11
1034.7134898079057
 21
1291.225954293539
  0
LINE
  8
_0-0_
  6
CONTINUOUS
 62
    1
 10
1021.7134898079058
 20
1288.0809619926149
 11
1034.7134898079057
 21
1289.2183146184525
  0
LINE
  8
_0-0_
  6
CONTINUOUS
 62
    1
 10
1021.7134898079058
 20
1286.0733223175275
 11
1034.7134898079057
 21
1287.2106749433651
  0
LINE
  8
_0-0_
  6
CONTINUOUS
 62
    7
 10
1005.9134898079066
 20
1305.2108364690894
 11
1050.513489807905
 21
1305.2108364690894
  0
LINE
  8
_0-0_
  6
CONTINUOUS
 62
    7
 10
1003.9134898079066
 20
1307.2108364690894
 11
1052.513489807905
 21
1307.2108364690894
  0
LINE
  8
_0-0_
  6
CONTINUOUS
 62
    1
 10
1022.7534898079049
 20
1282.5698203177117
 11
1021.7134898079058
 21
1283.6098203177107
  0
LINE
  8
_0-0_
  6
CONTINUOUS
 62
    1
 10
1033.6734898079048
 20
1282.5698203177117
 11
1034.7134898079057
 21
1283.6098203177125
  0
LINE
  8
_0-0_
  6
CONTINUOUS
 62
    1
 10
1034.7134898079057
 20
1283.6098203177125
 11
1034.7134898079057
 21
1296.6568364690893
  0
LINE
  8
_0-0_
  6
CONTINUOUS
 62
    1
 10
1021.7134898079058
 20
1296.6568364690893
 11
1021.7134898079058
 21
1283.6098203177107
  0
LINE
  8
_0-0_
  6
CONTINUOUS
 62
    1
 10
1022.7534898079049
 20
1282.5698203177117
 11
1033.6734898079048
 21
1282.5698203177117
  0
LINE
  8
_0-0_
  6
CONTINUOUS
 62
    1
 10
1033.6734898079048
 20
1296.6568364690893
 11
1033.6734898079048
 21
1282.5698203177117
  0
LINE
  8
_0-0_
  6
CONTINUOUS
 62
    1
 10
1022.7534898079049
 20
1296.6568364690893
 11
1022.7534898079049
 21
1282.5698203177117
  0
LINE
  8
_0-0_
  6
CONTINUOUS
 62
    1
 10
1034.7134898079057
 20
1305.2108364690894
 11
1034.7134898079057
 21
1322.2108364690894
  0
LINE
  8
_0-0_
  6
CONTINUOUS
 62
    1
 10
1033.6734898079048
 20
1322.2108364690894
 11
1033.6734898079048
 21
1305.2108364690894
  0
LINE
  8
_0-0_
  6
CONTINUOUS
 62
    1
 10
1022.7534898079049
 20
1322.2108364690894
 11
1022.7534898079049
 21
1305.2108364690894
  0
LINE
  8
_0-0_
  6
CONTINUOUS
 62
    1
 10
1021.7134898079058
 20
1322.2108364690894
 11
1021.7134898079058
 21
1305.2108364690894
  0
LINE
  8
_0-0_
  6
CONTINUOUS
 62
    1
 10
1040.9729307569942
 20
1305.2108364690894
 11
1015.4540488588137
 21
1305.2108364690894
  0
LINE
  8
_0-0_
  6
CONTINUOUS
 62
    1
 10
1040.9729307569942
 20
1297.6437826612109
 11
1040.9729307569942
 21
1305.2108364690894
  0
LINE
  8
_0-0_
  6
CONTINUOUS
 62
    1
 10
1039.263489807905
 20
1296.6568364690893
 11
1040.9729307569942
 21
1297.6437826612109
  0
LINE
  8
_0-0_
  6
CONTINUOUS
 62
    1
 10
1017.1634898079066
 20
1296.6568364690893
 11
1039.263489807905
 21
1296.6568364690893
  0
LINE
  8
_0-0_
  6
CONTINUOUS
 62
    1
 10
1015.4540488588137
 20
1297.6437826612109
 11
1017.1634898079066
 21
1296.6568364690893
  0
LINE
  8
_0-0_
  6
CONTINUOUS
 62
    1
 10
1015.4540488588137
 20
1305.2108364690894
 11
1015.4540488588137
 21
1297.6437826612109
  0
LINE
  8
_0-0_
  6
CONTINUOUS
 62
    1
 10
1034.5932102824518
 20
1297.6437826612109
 11
1039.263489807905
 21
1296.6568364690893
  0
ARC
  8
_0-0_
  6
CONTINUOUS
 62
    1
 10
1028.2134898079057
 20
1317.769890276968
 40
21.113053807878593
 50
252.41204622600637
 51
287.5879537739936
  0
LINE
  8
_0-0_
  6
CONTINUOUS
 62
    1
 10
1017.1634898079066
 20
1296.6568364690893
 11
1021.8337693333598
 21
1297.6437826612109
  0
LINE
  8
_0-0_
  6
CONTINUOUS
 62
    1
 10
1034.5932102824518
 20
1297.6437826612109
 11
1034.5932102824518
 21
1305.2108364690894
  0
LINE
  8
_0-0_
  6
CONTINUOUS
 62
    1
 10
1021.8337693333598
 20
1305.2108364690894
 11
1021.8337693333598
 21
1297.6437826612109
  0
LINE
  8
_0-0_
  6
CONTINUOUS
 62
    7
 10
1052.513489807905
 20
1307.2108364690894
 11
1052.513489807905
 21
1297.2108364690894
  0
LINE
  8
_0-0_
  6
CONTINUOUS
 62
    7
 10
1050.513489807905
 20
1305.2108364690894
 11
1050.513489807905
 21
1299.2108364690894
  0
LINE
  8
_0-0_
  6
CONTINUOUS
 62
    7
 10
1048.513489807905
 20
1299.2108364690894
 11
1050.513489807905
 21
1299.2108364690894
  0
LINE
  8
_0-0_
  6
CONTINUOUS
 62
    7
 10
1052.513489807905
 20
1297.2108364690894
 11
1048.513489807905
 21
1299.2108364690894
  0
LINE
  8
_0-0_
  6
CONTINUOUS
 62
    7
 10
1042.513489807905
 20
1317.2108364690894
 11
1042.513489807905
 21
1307.2108364690894
  0
LINE
  8
_0-0_
  6
CONTINUOUS
 62
    7
 10
1013.9134898079066
 20
1317.2108364690894
 11
1013.9134898079066
 21
1307.2108364690894
  0
LINE
  8
_0-0_
  6
CONTINUOUS
 62
    1
 10
1021.8337693333598
 20
1333.7038902769673
 11
1017.1634898079066
 21
1334.6908364690889
  0
LINE
  8
_0-0_
  6
CONTINUOUS
 62
    1
 10
1040.9729307569942
 20
1333.7038902769673
 11
1015.4540488588156
 21
1333.7038902769673
  0
LINE
  8
_0-0_
  6
CONTINUOUS
 62
    1
 10
1017.1634898079066
 20
1334.6908364690889
 11
1015.4540488588156
 21
1333.7038902769673
  0
LINE
  8
_0-0_
  6
CONTINUOUS
 62
    1
 10
1021.8337693333598
 20
1333.7038902769673
 11
1021.8337693333598
 21
1324.2908364690902
  0
LINE
  8
_0-0_
  6
CONTINUOUS
 62
    1
 10
1015.4540488588156
 20
1333.7038902769673
 11
1015.4540488588156
 21
1324.2908364690902
  0
LINE
  8
_0-0_
  6
CONTINUOUS
 62
    1
 10
1013.9134898079066
 20
1324.2908364690902
 11
1013.9134898079066
 21
1322.2108364690894
  0
LINE
  8
_0-0_
  6
CONTINUOUS
 62
    1
 10
1021.3884898079051
 20
1322.2108364690894
 11
1021.3884898079051
 21
1324.2908364690902
  0
LINE
  8
_0-0_
  6
CONTINUOUS
 62
    1
 10
1013.9134898079066
 20
1324.2908364690902
 11
1042.513489807905
 21
1324.2908364690902
  0
LINE
  8
_0-0_
  6
CONTINUOUS
 62
    1
 10
1042.513489807905
 20
1322.2108364690894
 11
1013.9134898079066
 21
1322.2108364690894
  0
LINE
  8
_0-0_
  6
CONTINUOUS
 62
    1
 10
1042.513489807905
 20
1324.2908364690902
 11
1042.513489807905
 21
1322.2108364690894
  0
LINE
  8
_0-0_
  6
CONTINUOUS
 62
    1
 10
1040.9729307569942
 20
1333.7038902769673
 11
1039.263489807905
 21
1334.6908364690889
  0
LINE
  8
_0-0_
  6
CONTINUOUS
 62
    1
 10
1040.9729307569942
 20
1324.2908364690902
 11
1040.9729307569942
 21
1333.7038902769673
  0
LINE
  8
_0-0_
  6
CONTINUOUS
 62
    1
 10
1015.4540488588137
 20
1324.2908364690902
 11
1040.9729307569942
 21
1324.2908364690902
  0
LINE
  8
_0-0_
  6
CONTINUOUS
 62
    1
 10
1039.263489807905
 20
1334.6908364690889
 11
1017.1634898079066
 21
1334.6908364690889
  0
LINE
  8
_0-0_
  6
CONTINUOUS
 62
    1
 10
1039.263489807905
 20
1334.6908364690889
 11
1034.5932102824518
 21
1333.7038902769673
  0
LINE
  8
_0-0_
  6
CONTINUOUS
 62
    1
 10
1034.5932102824518
 20
1324.2908364690902
 11
1034.5932102824518
 21
1333.7038902769673
  0
LINE
  8
_0-0_
  6
CONTINUOUS
 62
    1
 10
1035.0384898079064
 20
1322.2108364690894
 11
1035.0384898079064
 21
1324.2908364690902
  0
ARC
  8
_0-0_
  6
CONTINUOUS
 62
    1
 10
1028.2134898079057
 20
1313.5777826612102
 40
21.113053807878593
 50
72.412046226006396
 51
107.5879537739936
  0
LINE
  8
_0-0_
  6
CONTINUOUS
 62
    7
 10
1126.9992814089328
 20
1322.2108364690894
 11
1148.4426570819069
 21
1285.0698203177117
  0
LINE
  8
_0-0_
  6
CONTINUOUS
 62
    7
 10
1124.1125300629847
 20
1317.2108364690894
 11
1144.1125300629847
 21
1282.5698203177117
  0
LINE
  8
_0-0_
  6
CONTINUOUS
 62
    7
 10
1003.9134898079066
 20
1307.2108364690894
 11
1003.9134898079066
 21
1267.3350886855796
  0
LINE
  8
_0-0_
  6
CONTINUOUS
 62
    2
 10
970.85352228824388
 20
1262.8414194580473
 11
964.60352228824388
 21
1262.8414194580473
  0
LINE
  8
_0-0_
  6
CONTINUOUS
 62
    7
 10
1102.4971876478412
 20
1237.3850124865376
 11
1182.7275909478922
 21
1215.8873407138653
  0
LINE
  8
_0-0_
  6
CONTINUOUS
 62
    7
 10
1182.7275909478922
 20
1215.8873407138653
 11
1182.7275909478922
 21
1185.8873407138653
  0
LINE
  8
_0-0_
  6
CONTINUOUS
 62
    7
 10
1005.9134898079066
 20
1265.3350886855796
 11
1184.7275909478922
 21
1217.4219946898229
  0
LINE
  8
_0-0_
  6
CONTINUOUS
 62
    7
 10
1184.7275909478922
 20
1217.4219946898229
 11
1184.7275909478922
 21
1185.8873407138653
  0
LINE
  8
_0-0_
  6
CONTINUOUS
 62
    7
 10
1182.7275909478922
 20
1185.8873407138653
 11
1184.7275909478922
 21
1185.8873407138653
  0
LINE
  8
_0-0_
  6
CONTINUOUS
 62
    1
 10
1035.5928959590365
 20
1232.6723387654938
 11
1035.5928959590365
 21
1155.0982860070089
  0
LINE
  8
_0-0_
  6
CONTINUOUS
 62
    1
 10
1048.5928959590365
 20
1155.0982860070098
 11
1048.5928959590365
 21
1232.6723387654938
  0
ARC
  8
_0-0_
  6
CONTINUOUS
 62
    1
 10
1038.8428959590365
 20
1230.6723387654938
 40
3.8160843806184368
 50
31.607502246248899
 51
148.39249775375112
  0
ARC
  8
_0-0_
  6
CONTINUOUS
 62
    1
 10
1045.3428959590365
 20
1234.6723387654938
 40
3.8160843806184368
 50
211.60750224624888
 51
328.39249775375112
  0
ARC
  8
_0-0_
  6
CONTINUOUS
 62
    1
 10
1045.3428959590365
 20
1230.6723387654938
 40
3.8160843806184368
 50
31.607502246248899
 51
148.39249775375112
  0
LINE
  8
_0-0_
  6
CONTINUOUS
 62
    1
 10
1047.5528959590374
 20
1231.5613260686387
 11
1047.5528959590374
 21
1154.0582860070099
  0
ARC
  8
_0-0_
  6
CONTINUOUS
 62
    1
 10
1038.8428959590365
 20
1153.0982860070089
 40
3.8160843806184368
 50
31.607502246248899
 51
148.39249775375112
  0
ARC
  8
_0-0_
  6
CONTINUOUS
 62
    1
 10
1045.3428959590365
 20
1157.0982860070089
 40
3.8160843806184368
 50
211.60750224624888
 51
328.39249775376271
  0
ARC
  8
_0-0_
  6
CONTINUOUS
 62
    1
 10
1038.8428959590365
 20
1157.0982860070089
 40
3.8160843806184368
 50
211.60750224624888
 51
328.39249775375112
  0
LINE
  8
_0-0_
  6
CONTINUOUS
 62
    1
 10
1036.6328959590355
 20
1233.7123387654929
 11
1036.6328959590355
 21
1156.2092987038641
  0
LINE
  8
_0-0_
  6
CONTINUOUS
 62
    7
 10
998.91348980790656
 20
1219.8011970421931
 11
1111.3846994953983
 21
1219.8011970421931
  0
LINE
  8
_0-0_
  6
CONTINUOUS
 62
    7
 10
1153.9134898079064
 20
1201.1945953243949
 11
1153.9134898079064
 21
915.3168209698506
  0
LINE
  8
_0-0_
  6
CONTINUOUS
 62
    7
 10
1346.1613171612516
 20
922.8168209698506
 11
1405.9192621518305
 21
1026.3206178494393
  0
POINT
  8
_0-0_
 62
    7
 10
1346.1613171612516
 20
922.8168209698506
  0
CIRCLE
  8
_0-0_
  6
CONTINUOUS
 62
    7
 10
1171.0855840666936
 20
1206.9541146396855
 40
11.642006881197926
  0
LINE
  8
_0-0_
  6
CONTINUOUS
 62
    2
 10
1182.7275909478922
 20
1185.8873407138658
 11
1182.7275909478922
 21
1185.8873407138658
  0
LINE
  8
_0-0_
  6
CONTINUOUS
 62
    2
 10
1182.7275909478922
 20
1185.8873407138658
 11
1177.5892650824903
 21
1186.8151986872003
  0
LINE
  8
_0-0_
  6
CONTINUOUS
 62
    2
 10
1177.5892650824903
 20
1186.8151986872003
 11
1172.2604671890674
 21
1187.1936038593631
  0
LINE
  8
_0-0_
  6
CONTINUOUS
 62
    2
 10
1172.2604671890674
 20
1187.1936038593631
 11
1166.9031100951129
 21
1187.0110585806799
  0
LINE
  8
_0-0_
  6
CONTINUOUS
 62
    2
 10
1166.9031100951129
 20
1187.0110585806799
 11
1161.6799743849733
 21
1186.2731093970713
  0
LINE
  8
_0-0_
  6
CONTINUOUS
 62
    2
 10
1161.6799743849733
 20
1186.2731093970713
 11
1159.9134898079064
 21
1185.8873407138658
  0
LINE
  8
_0-0_
  6
CONTINUOUS
 62
    2
 10
1181.417339329646
 20
1186.1804613052391
 11
1182.7275909478922
 21
1187.4907129234848
  0
LINE
  8
_0-0_
  6
CONTINUOUS
 62
    2
 10
1179.0231310488616
 20
1186.6146801491996
 11
1182.7275909478922
 21
1190.3191400482315
  0
LINE
  8
_0-0_
  6
CONTINUOUS
 62
    2
 10
1176.5171649167787
 20
1186.9371411418633
 11
1182.7275909478922
 21
1193.1475671729772
  0
LINE
  8
_0-0_
  6
CONTINUOUS
 62
    2
 10
1173.8893903471162
 20
1187.1377936969461
 11
1182.7275909478922
 21
1195.9759942977234
  0
LINE
  8
_0-0_
  6
CONTINUOUS
 62
    2
 10
1171.1250124636008
 20
1187.2018429381769
 11
1182.727590947894
 21
1198.8044214224701
  0
LINE
  8
_0-0_
  6
CONTINUOUS
 62
    2
 10
1168.2019330051171
 20
1187.1071906044403
 11
1182.727590947894
 21
1201.6328485472168
  0
LINE
  8
_0-0_
  6
CONTINUOUS
 62
    2
 10
1165.085735046132
 20
1186.8194197702014
 11
1173.9316688955132
 21
1195.6653536195818
  0
LINE
  8
_0-0_
  6
CONTINUOUS
 62
    2
 10
1182.3743450868005
 20
1204.1080298108691
 11
1182.7275909478922
 21
1204.4612756719621
  0
LINE
  8
_0-0_
  6
CONTINUOUS
 62
    2
 10
1161.7186284078944
 20
1186.28074025671
 11
1170.7546990094615
 21
1195.3168108582781
  0
LINE
  8
_0-0_
  6
CONTINUOUS
 62
    2
 10
1159.9134898079064
 20
1187.3040287814688
 11
1168.2677337776167
 21
1195.6582727511795
  0
LINE
  8
_0-0_
  6
CONTINUOUS
 62
    2
 10
1159.9134898079064
 20
1190.132455906215
 11
1166.1780466376949
 21
1196.397012736003
  0
LINE
  8
_0-0_
  6
CONTINUOUS
 62
    2
 10
1159.9134898079064
 20
1192.9608830309603
 11
1164.3857607582795
 21
1197.4331539813338
  0
LINE
  8
_0-0_
  6
CONTINUOUS
 62
    2
 10
1159.9134898079083
 20
1195.7893101557079
 11
1162.8497979738841
 21
1198.725618321685
  0
LINE
  8
_0-0_
  6
CONTINUOUS
 62
    2
 10
1159.9134898079046
 20
1198.6177372804527
 11
1161.558604855245
 21
1200.2628523277936
  0
LINE
  8
_0-0_
  6
CONTINUOUS
 62
    2
 10
1159.9134898079046
 20
1201.446164405198
 11
1160.5238593955346
 21
1202.0565339928271
  0
LINE
  8
_0-0_
  6
CONTINUOUS
 62
    7
 10
991.91348980790656
 20
1292.2536685833147
 11
965.67898748733035
 21
1292.2536685833147
  0
LINE
  8
_0-0_
  6
CONTINUOUS
 62
    7
 10
978.67898748733035
 20
1290.2536685833147
 11
965.67898748733035
 21
1290.2536685833147
  0
LINE
  8
_0-0_
  6
CONTINUOUS
 62
    7
 10
965.67898748733035
 20
1292.2536685833147
 11
965.67898748733035
 21
1290.2536685833147
  0
LINE
  8
_0-0_
  6
CONTINUOUS
 62
    7
 10
991.91348980790656
 20
1292.2536685833147
 11
991.91348980790656
 21
1290.2536685833147
  0
LINE
  8
_0-0_
  6
CONTINUOUS
 62
    7
 10
991.91348980790656
 20
1307.2108364690894
 11
1003.9134898079066
 21
1307.2108364690894
  0
LINE
  8
_0-0_
  6
CONTINUOUS
 62
    7
 10
991.91348980790656
 20
1267.3350886855796
 11
991.91348980790656
 21
1307.2108364690894
  0
LINE
  8
_0-0_
  6
CONTINUOUS
 62
    7
 10
991.91348980790656
 20
1307.2108364690894
 11
1003.9134898079066
 21
1267.3350886855796
  0
LINE
  8
_0-0_
  6
CONTINUOUS
 62
    7
 10
1003.9134898079066
 20
1307.2108364690894
 11
991.91348980790656
 21
1267.3350886855796
  0
LINE
  8
_0-0_
  6
CONTINUOUS
 62
    7
 10
981.67898748733035
 20
1272.3350886855796
 11
965.67898748733035
 21
1272.3350886855796
  0
LINE
  8
_0-0_
  6
CONTINUOUS
 62
    7
 10
965.67898748733035
 20
1272.3350886855796
 11
965.67898748733035
 21
1267.3350886855796
  0
LINE
  8
_0-0_
  6
CONTINUOUS
 62
    7
 10
981.67898748733035
 20
1277.3350886855796
 11
981.67898748733035
 21
1267.3350886855796
  0
LINE
  8
_0-0_
  6
CONTINUOUS
 62
    7
 10
976.67898748733035
 20
1277.3350886855796
 11
981.67898748733035
 21
1272.3350886855796
  0
LINE
  8
_0-0_
  6
CONTINUOUS
 62
    7
 10
981.67898748733035
 20
1277.3350886855796
 11
976.67898748733035
 21
1272.3350886855796
  0
LINE
  8
_0-0_
  6
CONTINUOUS
 62
    7
 10
981.67898748733035
 20
1285.3350886855796
 11
981.67898748733035
 21
1290.2536685833147
  0
LINE
  8
_0-0_
  6
CONTINUOUS
 62
    7
 10
976.67898748733035
 20
1290.2536685833147
 11
976.67898748733035
 21
1285.3350886855796
  0
LINE
  8
_0-0_
  6
CONTINUOUS
 62
    7
 10
976.67898748733035
 20
1277.3350886855796
 11
976.67898748733035
 21
1272.3350886855796
  0
LINE
  8
_0-0_
  6
CONTINUOUS
 62
    7
 10
976.67898748733035
 20
1290.2536685833147
 11
981.67898748733035
 21
1285.3350886855796
  0
LINE
  8
_0-0_
  6
CONTINUOUS
 62
    7
 10
976.67898748733035
 20
1285.3350886855796
 11
981.67898748733035
 21
1290.2536685833147
  0
LINE
  8
_0-0_
  6
CONTINUOUS
 62
    7
 10
1353.9134898079064
 20
735.3168209698506
 11
1475.0523575370516
 21
735.3168209698506
  0
LINE
  8
_0-0_
  6
CONTINUOUS
 62
    7
 10
1153.9134898079064
 20
915.3168209698506
 11
1475.0523575370516
 21
915.3168209698506
  0
LINE
  8
_0-0_
  6
CONTINUOUS
 62
    7
 10
1003.9134898079066
 20
880.77960745113478
 11
1153.9134898079083
 21
1030.7796074511357
  0
LINE
  8
_0-0_
  6
CONTINUOUS
 62
    7
 10
1003.9134898079066
 20
887.85067526299963
 11
1153.9134898079064
 21
1037.8506752629996
  0
LINE
  8
_0-0_
  6
CONTINUOUS
 62
    7
 10
1003.9134898079066
 20
894.92174307486539
 11
1153.9134898079064
 21
1044.9217430748654
  0
LINE
  8
_0-0_
  6
CONTINUOUS
 62
    7
 10
1003.9134898079066
 20
1107.05377743083
 11
1108.6609094192681
 21
1211.8011970421921
  0
LINE
  8
_0-0_
  6
CONTINUOUS
 62
    7
 10
1003.9134898079084
 20
1114.1248452426962
 11
1101.5898416074033
 21
1211.8011970421921
  0
LINE
  8
_0-0_
  6
CONTINUOUS
 62
    7
 10
1003.9134898079066
 20
1121.1959130545606
 11
1094.5187737955384
 21
1211.8011970421921
  0
LINE
  8
_0-0_
  6
CONTINUOUS
 62
    4
 10
1012.0348101514666
 20
1217.8011970421931
 11
1145.7921694643483
 21
1217.8011970421931
  0
TEXT
  8
_0-0_
 62
    7
 10
1410.1089847508756
 20
1014.0334933789604
 40
30
 41
1
 50
0
  1
防水層
  0
LINE
  8
_0-0_
  6
CONTINUOUS
 62
    7
 10
1174.9212884147328
 20
1189.785599675201
 11
1248.09688887222
 21
1316.5294575419298
  0
POINT
  8
_0-0_
 62
    7
 10
1174.9212884147328
 20
1189.785599675201
  0
TEXT
  8
_0-0_
 62
    7
 10
1252.9774988850313
 20
1301.9226907733746
 40
30
 41
1
 50
0
  1
ｼｰﾘﾝｸﾞ
  0
LINE
  8
_0-0_
  6
CONTINUOUS
 62
    4
 10
1159.9134898079064
 20
1203.679876698634
 11
1159.9134898079064
 21
924.3168209698506
  0
LINE
  8
_0-0_
  6
CONTINUOUS
 62
    4
 10
1159.9134898079064
 20
924.3168209698506
 11
1475.0523575370516
 21
924.3168209698506
  0
LINE
  8
_0-0_
  6
CONTINUOUS
 62
    2
 10
964.60352228824388
 20
1262.8414194580473
 11
964.60352228824388
 21
675.3168209698506
  0
LINE
  8
_0-0_
  6
CONTINUOUS
 62
    2
 10
967.72852228824388
 20
1262.8414194580473
 11
967.72852228824388
 21
675.3168209698506
  0
LINE
  8
_0-0_
  6
CONTINUOUS
 62
    2
 10
970.85352228824388
 20
1262.8414194580473
 11
970.85352228824388
 21
675.3168209698506
  0
LINE
  8
_0-0_
  6
CONTINUOUS
 62
    7
 10
1003.9134898079066
 20
1201.1945953243949
 11
1003.9134898079066
 21
675.3168209698506
  0
LINE
  8
_0-0_
  6
CONTINUOUS
 62
    7
 10
1010.5827376825874
 20
675.31682096985082
 11
1250.5827376825873
 21
915.3168209698506
  0
LINE
  8
_0-0_
  6
CONTINUOUS
 62
    7
 10
1017.6538054944523
 20
675.31682096985082
 11
1257.6538054944522
 21
915.31682096985105
  0
LINE
  8
_0-0_
  6
CONTINUOUS
 62
    7
 10
1024.7248733063188
 20
675.31682096985128
 11
1264.7248733063188
 21
915.31682096985151
  0
LINE
  8
_0-0_
  6
CONTINUOUS
 62
    7
 10
1236.8569076622825
 20
675.31682096985082
 11
1475.0523575370516
 21
913.5122708446188
  0
LINE
  8
_0-0_
  6
CONTINUOUS
 62
    7
 10
1243.9279754741474
 20
675.31682096985037
 11
1475.0523575370516
 21
906.44120303275486
  0
LINE
  8
_0-0_
  6
CONTINUOUS
 62
    7
 10
1250.9990432860122
 20
675.31682096984991
 11
1475.0523575370516
 21
899.37013522089001
  0
LINE
  8
_0-0_
  6
CONTINUOUS
 62
    7
 10
1353.9134898079064
 20
735.3168209698506
 11
1353.9134898079064
 21
675.3168209698506
  0
ARC
  8
_0-0_
  6
CONTINUOUS
 62
    7
 10
664.13528870064158
 20
1132.7452445943691
 40
367.40986757197703
 50
30.137066432173206
 51
53.125752717063492
  0
ARC
  8
_0-0_
  6
CONTINUOUS
 62
    7
 10
664.13528870064158
 20
1132.7452445943691
 40
372.40986757197703
 50
30.580973923580547
 51
53.700633007173977
  0
LINE
  8
_0-0_
  6
CONTINUOUS
 62
    7
 10
981.67898748733035
 20
1285.3350886855796
 11
884.60352228824388
 21
1285.3350886855796
  0
LINE
  8
_0-0_
  6
CONTINUOUS
 62
    7
 10
981.67898748733035
 20
1277.3350886855796
 11
884.60352228824388
 21
1277.3350886855796
  0
LINE
  8
_0-0_
  6
CONTINUOUS
 62
    7
 10
672.13606690525205
 20
567.53106997205509
 11
1706.8525777203686
 21
567.53106997205509
  0
LINE
  8
_0-0_
  6
CONTINUOUS
 62
    7
 10
672.13606690525205
 20
627.53106997205509
 11
1706.8525777203686
 21
627.53106997205509
  0
LINE
  8
_0-0_
  6
CONTINUOUS
 62
    7
 10
1189.4943223128103
 20
627.53106997205509
 11
1189.4943223128103
 21
167.53106997205509
  0
TEXT
  8
_0-0_
 62
    7
 10
907.83304969871654
 20
576.55032457306902
 40
40
 41
1
 50
0
  1
Ａ
  0
TEXT
  8
_0-0_
 62
    7
 10
1430.7897913839242
 20
576.8978033255346
 40
40
 41
1
 50
0
  1
Ｂ
  0
LINE
  8
_0-0_
  6
CONTINUOUS
 62
    7
 10
1222.9882780508269
 20
418.57185237826116
 11
1297.5118659552409
 21
493.09544028267419
  0
LINE
  8
_0-0_
  6
CONTINUOUS
 62
    7
 10
1222.9882780508269
 20
434.48175495495843
 11
1281.6019633785436
 21
493.09544028267419
  0
LINE
  8
_0-0_
  6
CONTINUOUS
 62
    7
 10
1222.9882780508269
 20
450.39165753165389
 11
1265.6920608018481
 21
493.09544028267419
  0
LINE
  8
_0-0_
  6
CONTINUOUS
 62
    7
 10
1312.4096164788152
 20
275.94449465683238
 11
1672.5812190982069
 21
275.94449465683238
  0
LINE
  8
_0-0_
  6
CONTINUOUS
 62
    7
 10
1508.2599995223754
 20
194.72669139549475
 11
1589.477802783711
 21
275.94449465682965
  0
LINE
  8
_0-0_
  6
CONTINUOUS
 62
    7
 10
1492.3500969456782
 20
194.72669139549475
 11
1573.5679002070137
 21
275.94449465682965
  0
LINE
  8
_0-0_
  6
CONTINUOUS
 62
    7
 10
1476.4401943689827
 20
194.72669139549475
 11
1557.6579976303201
 21
275.94449465682965
  0
LINE
  8
_0-0_
  6
CONTINUOUS
 62
    7
 10
1312.4096164788152
 20
275.94449465683238
 11
1312.4096164788152
 21
493.09544028267419
  0
LINE
  8
_0-0_
  6
CONTINUOUS
 62
    7
 10
1577.6446128957541
 20
275.94449465683238
 11
1609.0093209109109
 21
330.26976250364669
  0
POINT
  8
_0-0_
 62
    7
 10
1577.6446128957541
 20
275.94449465683238
  0
TEXT
  8
_0-0_
 62
    7
 10
1603.6040530227892
 20
331.62986034062146
 40
21.617968000000001
 41
1
 50
0
  1
ﾌﾟﾗｲﾏｰ
  0
LINE
  8
_0-0_
  6
CONTINUOUS
 62
    4
 10
1325.9096164788152
 20
493.09544028267419
 11
1325.9096164788152
 21
296.19449465683238
  0
LINE
  8
_0-0_
  6
CONTINUOUS
 62
    4
 10
1325.9096164788152
 20
296.19449465683238
 11
1672.5812190982069
 21
296.19449465683238
  0
LINE
  8
_0-0_
  6
CONTINUOUS
 62
    7
 10
1437.5815257316372
 20
284.95202421301974
 11
1500.9944066942153
 21
394.78635589452188
  0
TEXT
  8
_0-0_
 62
    7
 10
1504.8550355195584
 20
385.3602477770819
 40
21.617968000000001
 41
1
 50
0
  1
ｳﾚﾀﾝ防水
  0
POINT
  8
_0-0_
 62
    7
 10
1437.5815257316372
 20
284.95202421301974
  0
LINE
  8
_0-0_
  6
CONTINUOUS
 62
    7
 10
1354.9163018800718
 20
296.19449465683238
 11
1446.1731729648673
 21
454.25603191545883
  0
POINT
  8
_0-0_
 62
    7
 10
1354.9163018800718
 20
296.19449465683238
  0
TEXT
  8
_0-0_
 62
    7
 10
1452.1407181484246
 20
445.10314079769887
 40
21.617968000000001
 41
1
 50
0
  1
ﾄｯﾌﾟｺｰﾄ
  0
LINE
  8
_0-0_
  6
CONTINUOUS
 62
    2
 10
963.71937769155568
 20
409.77003316889954
 11
965.09270926372312
 21
411.14336474106153
  0
LINE
  8
_0-0_
  6
CONTINUOUS
 62
    2
 10
963.71937769155568
 20
403.40607213822318
 11
967.42088654807969
 21
407.1075809947381
  0
LINE
  8
_0-0_
  6
CONTINUOUS
 62
    2
 10
963.71937769156295
 20
397.04211110754318
 11
970.3260710650103
 21
403.6488044809978
  0
LINE
  8
_0-0_
  6
CONTINUOUS
 62
    2
 10
963.71937769156295
 20
390.67815007686318
 11
973.78198732990325
 21
400.74075971520347
  0
LINE
  8
_0-0_
  6
CONTINUOUS
 62
    2
 10
963.71937769156295
 20
384.31418904618681
 11
977.81463055858706
 21
398.40944191320727
  0
LINE
  8
_0-0_
  6
CONTINUOUS
 62
    2
 10
963.71937769156295
 20
377.95022801550681
 11
982.51642662340794
 21
396.74727694735543
  0
LINE
  8
_0-0_
  6
CONTINUOUS
 62
    2
 10
967.78093954153167
 20
375.64782883479916
 11
988.11209839505875
 21
395.97898768832624
  0
LINE
  8
_0-0_
  6
CONTINUOUS
 62
    2
 10
1014.2563020690724
 20
415.75923033165805
 11
1015.0511052565308
 21
416.55403351912014
  0
LINE
  8
_0-0_
  6
CONTINUOUS
 62
    2
 10
975.35692947756627
 20
376.85985774015558
 11
995.260280638675
 21
396.76320890126249
  0
LINE
  8
_0-0_
  6
CONTINUOUS
 62
    2
 10
982.36837488528374
 20
377.50734211719123
 11
1015.0511052565308
 21
410.19007248843832
  0
LINE
  8
_0-0_
  6
CONTINUOUS
 62
    2
 10
988.94530366687115
 20
377.72030986810046
 11
1015.0511052565308
 21
403.82611145776013
  0
LINE
  8
_0-0_
  6
CONTINUOUS
 62
    2
 10
995.16515390478173
 20
377.57619907532921
 11
1015.0511052565308
 21
397.46215042707831
  0
LINE
  8
_0-0_
  6
CONTINUOUS
 62
    2
 10
1001.0776466865265
 20
377.12473082639394
 11
1015.0511052565308
 21
391.09818939640013
  0
LINE
  8
_0-0_
  6
CONTINUOUS
 62
    2
 10
1006.716070483708
 20
376.39919359290457
 11
1015.0511052565308
 21
384.73422836572377
  0
LINE
  8
_0-0_
  6
CONTINUOUS
 62
    2
 10
1012.1030391154746
 20
375.42220119398939
 11
1015.0511052565308
 21
378.37026733504376
  0
LINE
  8
_0-0_
  6
CONTINUOUS
 62
    2
 10
1015.0511052565308
 20
374.76267986340247
 11
1015.0511052565308
 21
374.76267986340247
  0
LINE
  8
_0-0_
  6
CONTINUOUS
 62
    2
 10
1015.0511052565308
 20
374.76267986340247
 11
1003.4898720593768
 21
376.85036030340564
  0
LINE
  8
_0-0_
  6
CONTINUOUS
 62
    2
 10
1003.4898720593768
 20
376.85036030340564
 11
991.50007679917496
 21
377.70177194077178
  0
LINE
  8
_0-0_
  6
CONTINUOUS
 62
    2
 10
991.50007679917496
 20
377.70177194077178
 11
979.44602333777755
 21
377.2910450637346
  0
LINE
  8
_0-0_
  6
CONTINUOUS
 62
    2
 10
979.44602333777755
 20
377.2910450637346
 11
967.69396798996343
 21
375.63065940061506
  0
LINE
  8
_0-0_
  6
CONTINUOUS
 62
    2
 10
967.69396798996343
 20
375.63065940061506
 11
963.71937769156295
 21
374.76267986340247
  0
CIRCLE
  8
_0-0_
  6
CONTINUOUS
 62
    7
 10
988.85658977383912
 20
422.16292119649574
 40
26.194515482695333
  0
LINE
  8
_0-0_
  6
CONTINUOUS
 62
    7
 10
1015.0511052565308
 20
374.7626798633994
 11
1019.5511052565308
 21
374.7626798633994
  0
LINE
  8
_0-0_
  6
CONTINUOUS
 62
    7
 10
1019.5511052565308
 20
445.71565130930708
 11
1019.5511052565308
 21
374.7626798633994
  0
LINE
  8
_0-0_
  6
CONTINUOUS
 62
    7
 10
1015.0511052565308
 20
442.2626798633994
 11
1015.0511052565308
 21
374.7626798633994
  0
LINE
  8
_0-0_
  6
CONTINUOUS
 62
    7
 10
834.53269783141707
 20
490.63244135191258
 11
1015.0511052565308
 21
442.2626798633994
  0
LINE
  8
_0-0_
  6
CONTINUOUS
 62
    7
 10
830.03269783141707
 20
455.56885660213834
 11
807.53269783141707
 21
455.56885660213834
  0
LINE
  8
_0-0_
  6
CONTINUOUS
 62
    7
 10
807.53269783141707
 20
455.56885660213834
 11
807.53269783141707
 21
451.06885660213834
  0
LINE
  8
_0-0_
  6
CONTINUOUS
 62
    7
 10
830.03269783141707
 20
491.83821271785223
 11
830.03269783141707
 21
455.56885660213834
  0
LINE
  8
_0-0_
  6
CONTINUOUS
 62
    7
 10
834.53269783141707
 20
490.63244135191258
 11
834.53269783141707
 21
451.06885660213834
  0
LINE
  8
_0-0_
  6
CONTINUOUS
 62
    7
 10
807.53269783141707
 20
451.06885660213834
 11
834.53269783141707
 21
451.06885660213834
  0
LINE
  8
_0-0_
  6
CONTINUOUS
 62
    7
 10
854.52959948841647
 20
451.06885660213834
 11
854.52959948841647
 21
446.56885660213834
  0
LINE
  8
_0-0_
  6
CONTINUOUS
 62
    7
 10
926.35452382651795
 20
433.06885660213834
 11
950.21937769156295
 21
409.20400273709151
  0
LINE
  8
_0-0_
  6
CONTINUOUS
 62
    4
 10
931.94640691855795
 20
446.56885660213834
 11
963.71937769156295
 21
414.79588582912788
  0
LINE
  8
_0-0_
  6
CONTINUOUS
 62
    7
 10
752.39740334174724
 20
512.64052718051084
 11
830.03269783141707
 21
491.83821271785223
  0
LINE
  8
_0-0_
  6
CONTINUOUS
 62
    7
 10
752.39740334174724
 20
517.29926999235818
 11
1019.5511052565308
 21
445.71565130930708
  0
LINE
  8
_0-0_
  6
CONTINUOUS
 62
    4
 10
752.39740334174724
 20
446.56885660213834
 11
931.94640691855795
 21
446.56885660213834
  0
LINE
  8
_0-0_
  6
CONTINUOUS
 62
    7
 10
752.39740334174724
 20
451.06885660213834
 11
854.52959948841647
 21
451.06885660213834
  0
LINE
  8
_0-0_
  6
CONTINUOUS
 62
    7
 10
752.39740334174724
 20
433.06885660213834
 11
926.35452382651795
 21
433.06885660213834
  0
LINE
  8
_0-0_
  6
CONTINUOUS
 62
    7
 10
752.39740334174724
 20
368.88499328014427
 11
816.58126666373585
 21
433.06885660213288
  0
LINE
  8
_0-0_
  6
CONTINUOUS
 62
    7
 10
752.39740334174724
 20
352.97509070345245
 11
832.49116924042767
 21
433.06885660213288
  0
LINE
  8
_0-0_
  6
CONTINUOUS
 62
    7
 10
752.39740334174724
 20
337.06518812675336
 11
848.40107181712676
 21
433.06885660213288
  0
LINE
  8
_0-0_
  6
CONTINUOUS
 62
    7
 10
950.21937769156295
 20
409.20400273709151
 11
950.21937769156295
 21
196.36748887371346
  0
LINE
  8
_0-0_
  6
CONTINUOUS
 62
    4
 10
963.71937769156295
 20
414.79588582912788
 11
963.71937769156295
 21
196.36748887371346
  0
LINE
  8
_0-0_
  6
CONTINUOUS
 62
    7
 10
987.28227581202748
 20
389.16796352757979
 11
1027.6635619006938
 21
319.22552434703562
  0
TEXT
  8
_0-0_
 62
    7
 10
1030.7074865240284
 20
301.98952399934774
 40
21.617968000000001
 41
1
 50
0
  1
ｼｰﾘﾝｸﾞ
  0
POINT
  8
_0-0_
 62
    7
 10
987.28227581202748
 20
389.16796352757979
  0
LINE
  8
_0-0_
  6
CONTINUOUS
 62
    7
 10
989.10456048185745
 20
416.66377013654369
 11
1029.2819139606054
 21
486.25298767538902
  0
POINT
  8
_0-0_
 62
    7
 10
989.10456048185745
 20
416.66377013654369
  0
TEXT
  8
_0-0_
 62
    7
 10
1032.7534878467286
 20
479.95471481561094
 40
21.617968000000001
 41
1
 50
0
  1
ﾊﾞｯｸｱｯﾌﾟ材
  0
CIRCLE
  8
_0-0_
  6
DASHED2
 62
    1
 10
1182.1977610553704
 20
956.3168209698506
 40
80
  0
TEXT
  8
_0-0_
 62
    7
 10
1169.8032142203729
 20
1024.3958442056546
 40
24
 41
1
 50
0
  1
Ｂ
  0
LINE
  8
_0-0_
  6
CONTINUOUS
 62
    7
 10
1144.1125300629847
 20
1282.5698203177117
 11
1148.4426570819069
 21
1285.0698203177117
  0
CIRCLE
  8
_0-0_
  6
DASHED2
 62
    1
 10
1146.6989458555963
 20
1207.3118482837954
 40
67.350194333739935
  0
LINE
  8
_0-0_
  6
CONTINUOUS
 62
    7
 10
672.13606690525205
 20
1633.3565543671129
 11
1706.8525777203686
 21
1633.3565543671129
  0
LINE
  8
_0-0_
  6
CONTINUOUS
 62
    7
 10
672.13606690525205
 20
1553.3565543671129
 11
1706.8525777203686
 21
1553.3565543671129
  0
LINE
  8
_0-0_
  6
CONTINUOUS
 62
    7
 10
672.13606690525205
 20
1473.3565543671129
 11
1706.8525777203686
 21
1473.3565543671129
  0
LINE
  8
_0-0_
  6
CONTINUOUS
 62
    7
 10
1189.4943223128103
 20
1633.3565543671129
 11
1189.4943223128103
 21
1473.3565543671129
  0
TEXT
  8
_0-0_
 62
    7
 10
696.13606690525205
 20
1497.3565543671129
 40
20
 41
1
 50
0
  1
施工部位：トップライト
  0
TEXT
  8
_0-0_
 62
    7
 10
1213.4943223128103
 20
1577.3565543671129
 40
20
 41
1
 50
0
  1
構造：ＲＣ造
  0
TEXT
  8
_0-0_
 62
    7
 10
1213.4943223128103
 20
1497.3565543671129
 40
20
 41
1
 50
0
  1
下地：コンクリートスラブ
  0
TEXT
  8
_0-0_
 62
    7
 10
696.13606690525194
 20
1577.3565543671129
 40
20
 41
1
 50
0
  1
図面番号：UPM-10-top-01
  0
ENDSEC
  0
EOF
