  0
SECTION
  2
HEADER
  9
$ACADVER
  1
AC1009
  9
$INSBASE
 10
0
 20
0
 30
0
  9
$EXTMIN
 10
0
 20
0
  9
$EXTMAX
 10
2378
 20
1682
  9
$LIMMIN
 10
0
 20
0
  9
$LIMMAX
 10
2378
 20
1682
  9
$LTSCALE
 40
1
  0
ENDSEC
  0
SECTION
  2
TABLES
  0
TABLE
  2
LTYPE
 70
     9
  0
LTYPE
  2
CONTINUOUS
 70
    64
  3
実線
 72
    65
 73
     0
 40
0.0
  0
LTYPE
  2
DASHED1
 70
    64
  3
--  --  --  --  --  --  --  --  
 72
    65
 73
     2
 40
2.5
 49
1.25
 49
-1.25
  0
LTYPE
  2
DASHED2
 70
    64
  3
----    ----    ----    ----    
 72
    65
 73
     2
 40
5.0
 49
2.5
 49
-2.5
  0
LTYPE
  2
DASHED3
 70
    64
  3
------  ------  ------  ------  
 72
    65
 73
     2
 40
5.0
 49
3.75
 49
-1.25
  0
LTYPE
  2
CENTER1
 70
    64
  3
----- - ----- - ----- - ----- - 
 72
    65
 73
     4
 40
10.0
 49
6.25
 49
-1.25
 49
1.25
 49
-1.25
  0
LTYPE
  2
CENTER2
 70
    64
  3
----------  --  ----------  --  
 72
    65
 73
     4
 40
20.0
 49
12.5
 49
-2.5
 49
2.5
 49
-2.5
  0
LTYPE
  2
PHANTOM1
 70
    64
  3
--- - - --- - - --- - - --- - - 
 72
    65
 73
     6
 40
10.0
 49
3.25
 49
-1.25
 49
1.25
 49
-1.25
 49
1.25
 49
-1.25
  0
LTYPE
  2
PHANTOM2
 70
    64
  3
--------  -  -  --------  -  -  
 72
    65
 73
     6
 40
20.0
 49
10.0
 49
-2.5
 49
1.25
 49
-2.5
 49
1.25
 49
-2.5
  0
LTYPE
  2
DOT
 70
    64
  3
-   -   -   -   -   -   -   -   
 72
    65
 73
     2
 40
2.5
 49
0.625
 49
-1.875
  0
LTYPE
  2
DUMMY
 70
    64
  3
ダミー
 72
    65
 73
     0
 40
0.0
  0
LTYPE
  2
RAND1
 70
    64
  3
ランダム線1
 72
    65
 73
     4
 40
10.0
 49
1.0
 49
-2.0
 49
3.0
 49
-4.0
  0
LTYPE
  2
RAND2
 70
    64
  3
ランダム線2
 72
    65
 73
     4
 40
14.0
 49
2.0
 49
-3.0
 49
4.0
 49
-5.0
  0
LTYPE
  2
RAND3
 70
    64
  3
ランダム線3
 72
    65
 73
     4
 40
18.0
 49
3.0
 49
-4.0
 49
5.0
 49
-6.0
  0
LTYPE
  2
RAND4
 70
    64
  3
ランダム線4
 72
    65
 73
     4
 40
22.0
 49
4.0
 49
-5.0
 49
6.0
 49
-7.0
  0
LTYPE
  2
RAND5
 70
    64
  3
ランダム線5
 72
    65
 73
     4
 40
26.0
 49
5.0
 49
-6.0
 49
7.0
 49
-8.0
  0
LTYPE
  2
LONG1
 70
    64
  3
----------  --  ----------  --  
 72
    65
 73
     4
 40
40.0
 49
32.5
 49
-2.5
 49
2.5
 49
-2.5
  0
LTYPE
  2
LONG2
 70
    64
  3
--------  -  -  --------  -  -  
 72
    65
 73
     6
 40
40.0
 49
30.0
 49
-2.5
 49
1.25
 49
-2.5
 49
1.25
 49
-2.5
  0
LTYPE
  2
LONG3
 70
    64
  3
+++++++++++++++..+++++++++++++++
 72
    65
 73
     2
 40
40.0
 49
37.5
 49
-2.5
  0
LTYPE
  2
LONG4
 70
    64
  3
+++++++++++++++..+++++++++++++++
 72
    65
 73
     2
 40
80.0
 49
75.0
 49
-5.0
  0
LTYPE
  2
LONG5
 70
    64
  3
----------  --  ----------  --  
 72
    65
 73
     4
 40
60.0
 49
37.5
 49
-7.5
 49
7.5
 49
-7.5
  0
LTYPE
  2
dashed
 70
   64
  3
-------   -------------   ------
 72
   65
 73
    2
 40
7.5
 49
6
 49
-1.5
  0
LTYPE
  2
dashed_spaced
 70
   64
  3
----        --------        ----
 72
   65
 73
    2
 40
12
 49
6
 49
-6
  0
LTYPE
  2
long_dashed_dotted
 70
   64
  3
------------- --- --------------
 72
   65
 73
    4
 40
15.25
 49
12
 49
-1.5
 49
0.25
 49
-1.5
  0
LTYPE
  2
long_dashed_double-dotted
 70
   64
  3
----------- --- --- ------------
 72
   65
 73
    6
 40
17
 49
12
 49
-1.5
 49
0.25
 49
-1.5
 49
0.25
 49
-1.5
  0
LTYPE
  2
long_dashed_triplicate-dotted
 70
   64
  3
--------- --- --- --- ----------
 72
   65
 73
    8
 40
18.75
 49
12
 49
-1.5
 49
0.25
 49
-1.5
 49
0.25
 49
-1.5
 49
0.25
 49
-1.5
  0
LTYPE
  2
dotted
 70
   64
  3
   -       -       -       -    
 72
   65
 73
    2
 40
1.75
 49
0.25
 49
-1.5
  0
LTYPE
  2
chain
 70
   64
  3
-------------- -- --------------
 72
   65
 73
    4
 40
18.5
 49
12
 49
-1.5
 49
3.5
 49
-1.5
  0
LTYPE
  2
chain_double_dash
 70
   64
  3
------------ -- -- -------------
 72
   65
 73
    6
 40
23.5
 49
12
 49
-1.5
 49
3.5
 49
-1.5
 49
3.5
 49
-1.5
  0
LTYPE
  2
dashed_dotted
 70
   64
  3
-----------     -     ----------
 72
   65
 73
    4
 40
9.25
 49
6
 49
-1.5
 49
0.25
 49
-1.5
  0
LTYPE
  2
double-dashed_dotted
 70
   64
  3
------   -----------   -   -----
 72
   65
 73
    6
 40
16.75
 49
6
 49
-1.5
 49
6
 49
-1.5
 49
0.25
 49
-1.5
  0
LTYPE
  2
dashed_double-dotted
 70
   64
  3
---------    -    -    ---------
 72
   65
 73
    6
 40
11
 49
6
 49
-1.5
 49
0.25
 49
-1.5
 49
0.25
 49
-1.5
  0
LTYPE
  2
double-dashed_double-dotted
 70
   64
  3
-----   ---------   -   -   ----
 72
   65
 73
    8
 40
18.5
 49
6
 49
-1.5
 49
6
 49
-1.5
 49
0.25
 49
-1.5
 49
0.25
 49
-1.5
  0
LTYPE
  2
dashed_triplicate-dotted
 70
   64
  3
-------    -    -    -    ------
 72
   65
 73
    8
 40
12.75
 49
6
 49
-1.5
 49
0.25
 49
-1.5
 49
0.25
 49
-1.5
 49
0.25
 49
-1.5
  0
LTYPE
  2
double-dashed_triplicate-dotted
 70
   64
  3
-----  ---------  -  -  -  -----
 72
   65
 73
   10
 40
20.25
 49
6
 49
-1.5
 49
6
 49
-1.5
 49
0.25
 49
-1.5
 49
0.25
 49
-1.5
 49
0.25
 49
-1.5
  0
LTYPE
  2
undefined
 70
   64
  3
--------------------------------
 72
   65
 73
    0
 40
0
  0
ENDTAB
  0
TABLE
  2
STYLE
  5
3
100
AcDbSymbolTable
 70
     1
  0
STYLE
  5
10
100
AcDbSymbolTableRecord
100
AcDbTextStyleTableRecord
  2
STANDARD
 70
     0
 40
0.0
 41
1.0
 50
0.0
 71
     0
 42
0.2
  3
txt
  4
bigfont.shx
  0
STYLE
  5
26
100
AcDbSymbolTableRecord
100
AcDbTextStyleTableRecord
  2
TATEGAKI
 70
    68
 40
0.0
 41
1.0
 50
0.0
 71
     0
 42
1.0
  3
txt
  4
bigfont.shx
  0
ENDTAB
  0
TABLE
  2
LAYER
 70
    2
  0
LAYER
  2
_0-0_
 70
   64
 62
    7
  6
CONTINUOUS
  0
LAYER
  2
ADD_LINE
 70
   64
 62
    7
  6
CONTINUOUS
  0
ENDTAB
  0
ENDSEC
  0
SECTION
  2
BLOCKS
  0
ENDSEC
  0
SECTION
  2
ENTITIES
  0
LINE
  8
_0-0_
  6
CONTINUOUS
 62
    4
 10
985.68132618481116
 20
469.66321368199124
 11
1010.4993624998898
 21
443.96338474897266
  0
ARC
  8
_0-0_
  6
CONTINUOUS
 62
    7
 10
1072.9518364040614
 20
1207.3279057056284
 40
10
 50
0
 51
180
  0
POINT
  8
_0-0_
 62
    7
 10
1216.1733265094581
 20
1060.4922480620157
  0
LINE
  8
_0-0_
  6
CONTINUOUS
 62
    7
 10
1216.1733265094581
 20
1060.4922480620157
 11
1275.9312715000369
 21
1163.9960449416044
  0
TEXT
  8
_0-0_
 62
    7
 10
1429.6891920142098
 20
576.02721287347731
 40
40
 41
1
 50
0
  1
Ｂ
  0
TEXT
  8
_0-0_
 62
    7
 10
906.73245032900388
 20
575.67973412101173
 40
40
 41
1
 50
0
  1
Ａ
  0
LINE
  8
_0-0_
  6
CONTINUOUS
 62
    7
 10
1023.925499156113
 20
1052.9922480620157
 11
1523.9254991561129
 21
1052.9922480620157
  0
LINE
  8
_0-0_
  6
CONTINUOUS
 62
    7
 10
1079.1989496475881
 20
772.99224806201573
 11
1359.1989496475881
 21
1052.9922480620157
  0
LINE
  8
_0-0_
  6
CONTINUOUS
 62
    7
 10
1419.615255251013
 20
872.99224806201573
 11
1523.9254991561138
 21
977.30249196711566
  0
LINE
  8
_0-0_
  6
CONTINUOUS
 62
    7
 10
1412.5441874391481
 20
872.99224806201573
 11
1523.9254991561129
 21
984.37355977898051
  0
LINE
  8
_0-0_
  6
CONTINUOUS
 62
    7
 10
1405.4731196272833
 20
872.99224806201573
 11
1523.9254991561138
 21
991.44462759084627
  0
LINE
  8
_0-0_
  6
CONTINUOUS
 62
    7
 10
1223.9254991561129
 20
872.99224806201573
 11
1223.9254991561129
 21
772.99224806201573
  0
LINE
  8
_0-0_
  6
CONTINUOUS
 62
    7
 10
1223.9254991561129
 20
872.99224806201573
 11
1523.9254991561129
 21
872.99224806201573
  0
LINE
  8
_0-0_
  6
CONTINUOUS
 62
    4
 10
1016.1377012032918
 20
1274.0297458012051
 11
1029.9254991561129
 21
1259.7520630606391
  0
LINE
  8
_0-0_
  6
CONTINUOUS
 62
    7
 10
1013.505623599228
 20
1268.118002710708
 11
1023.925499156113
 21
1257.3279057056284
  0
LINE
  8
_0-0_
  6
CONTINUOUS
 62
    7
 10
873.92549915611301
 20
1020.267137529931
 11
1023.925499156113
 21
1170.267137529931
  0
LINE
  8
_0-0_
  6
CONTINUOUS
 62
    7
 10
873.92549915611301
 20
1013.1960697180662
 11
1023.9254991561139
 21
1163.1960697180671
  0
LINE
  8
_0-0_
  6
CONTINUOUS
 62
    7
 10
873.92549915611391
 20
1006.1250019062022
 11
1023.925499156113
 21
1156.1250019062013
  0
LINE
  8
_0-0_
  6
CONTINUOUS
 62
    7
 10
873.92549915611301
 20
793.9929675502367
 11
1132.9247796678928
 21
1052.9922480620148
  0
LINE
  8
_0-0_
  6
CONTINUOUS
 62
    7
 10
873.92549915611301
 20
786.92189973837094
 11
1139.9958474797568
 21
1052.9922480620148
  0
LINE
  8
_0-0_
  6
CONTINUOUS
 62
    7
 10
873.92549915611391
 20
779.850831926507
 11
1147.0669152916225
 21
1052.9922480620148
  0
LINE
  8
_0-0_
  6
CONTINUOUS
 62
    7
 10
1086.2700174594529
 20
772.99224806201573
 11
1366.2700174594529
 21
1052.9922480620148
  0
LINE
  8
_0-0_
  6
CONTINUOUS
 62
    7
 10
1093.3410852713168
 20
772.99224806201482
 11
1373.3410852713178
 21
1052.9922480620157
  0
LINE
  8
_0-0_
  6
CONTINUOUS
 62
    7
 10
1706.8525777203686
 20
1633.3565543671134
 11
1706.8525777203686
 21
167.53106997205509
  0
LINE
  8
_0-0_
  6
CONTINUOUS
 62
    7
 10
672.13606690525205
 20
1633.3565543671134
 11
672.13606690525205
 21
167.53106997205509
  0
LINE
  8
_0-0_
  6
CONTINUOUS
 62
    7
 10
1189.4943223128103
 20
627.53106997205532
 11
1189.4943223128103
 21
167.53106997205509
  0
LINE
  8
_0-0_
  6
CONTINUOUS
 62
    7
 10
672.13606690525205
 20
627.53106997205532
 11
1706.8525777203686
 21
627.53106997205532
  0
LINE
  8
_0-0_
  6
CONTINUOUS
 62
    7
 10
672.13606690525205
 20
167.53106997205509
 11
1706.8525777203686
 21
167.53106997205509
  0
LINE
  8
_0-0_
  6
CONTINUOUS
 62
    7
 10
672.13606690525205
 20
567.53106997205532
 11
1706.8525777203686
 21
567.53106997205532
  0
LINE
  8
_0-0_
  6
DASHED1
 62
    7
 10
916.74017122517228
 20
1227.3279057056284
 11
916.74017122517228
 21
1187.3279057056284
  0
LINE
  8
_0-0_
  6
DASHED1
 62
    7
 10
916.74017122517228
 20
1227.3279057056284
 11
916.74017122517228
 21
1187.3279057056284
  0
ARC
  8
_0-0_
  6
CONTINUOUS
 62
    7
 10
1072.9518364040614
 20
1207.3279057056284
 40
20
 50
1.8794552231624875
 51
90
  0
LINE
  8
_0-0_
  6
CONTINUOUS
 62
    7
 10
1082.9518364040614
 20
1207.3279057056284
 11
1082.9518364040614
 21
1147.3279057056284
  0
LINE
  8
_0-0_
  6
CONTINUOUS
 62
    7
 10
1062.9518364040614
 20
1207.3279057056284
 11
1062.9518364040614
 21
1147.3279057056284
  0
ARC
  8
_0-0_
  6
DASHED1
 62
    7
 10
1072.9518364040614
 20
1207.3279057056284
 40
10
 50
180
 51
1.879455223162438
  0
ARC
  8
_0-0_
  6
CONTINUOUS
 62
    7
 10
1072.9518364040614
 20
1147.3279057056284
 40
10
 50
180
 51
0
  0
CIRCLE
  8
_0-0_
  6
DASHED1
 62
    7
 10
937.06813921920286
 20
1207.6558736996594
 40
9.6720320059689584
  0
ARC
  8
_0-0_
  6
CONTINUOUS
 62
    7
 10
1072.9518364040614
 20
1207.3279057056284
 40
20
 50
299.99999999999989
 51
1.8794552231624542
  0
ARC
  8
_0-0_
  6
DASHED1
 62
    7
 10
1072.9518364040614
 20
1207.6558736996594
 40
20.284691458917379
 50
270
 51
299.53680866691025
  0
LINE
  8
_0-0_
  6
DASHED1
 62
    7
 10
1062.9518364040614
 20
1187.3279057056284
 11
1072.9518364040614
 21
1187.3279057056284
  0
LINE
  8
_0-0_
  6
DASHED1
 62
    7
 10
1023.925499156113
 20
1227.3279057056284
 11
916.74017122517228
 21
1227.3279057056284
  0
LINE
  8
_0-0_
  6
DASHED1
 62
    7
 10
1023.925499156113
 20
1187.3279057056284
 11
916.74017122517228
 21
1187.3279057056284
  0
LINE
  8
_0-0_
  6
CONTINUOUS
 62
    7
 10
1072.9518364040614
 20
1227.3279057056284
 11
1023.925499156113
 21
1227.3279057056284
  0
LINE
  8
_0-0_
  6
CONTINUOUS
 62
    7
 10
1062.9518364040614
 20
1187.3279057056284
 11
1023.925499156113
 21
1187.3279057056284
  0
CIRCLE
  8
_0-0_
  6
DASHED2
 62
    1
 10
951.16433613602578
 20
1269.5458920707847
 40
94.513505632925799
  0
TEXT
  8
_0-0_
 62
    7
 10
941.25844822473857
 20
1351.4850665766121
 40
24
 41
1
 50
0
  1
Ａ
  0
CIRCLE
  8
_0-0_
  6
DASHED2
 62
    1
 10
1073.9254991561129
 20
1058.9922480620157
 40
67.350194333739935
  0
TEXT
  8
_0-0_
 62
    7
 10
1060.6039995918036
 20
1114.1237376053609
 40
24
 41
1
 50
0
  1
Ｂ
  0
TEXT
  8
_0-0_
 62
    7
 10
1278.0307866011317
 20
1149.9441219393943
 40
30
 41
1
 50
0
  1
防水層
  0
LINE
  8
_0-0_
  6
CONTINUOUS
 62
    4
 10
1029.9254991561129
 20
1061.9922480620157
 11
1523.9254991561129
 21
1061.9922480620157
  0
LINE
  8
_0-0_
  6
CONTINUOUS
 62
    7
 10
1217.2603787806511
 20
428.45353456152475
 11
1291.783966685065
 21
502.97712246593778
  0
LINE
  8
_0-0_
  6
CONTINUOUS
 62
    7
 10
1217.2603787806511
 20
444.36343713822203
 11
1275.8740641083677
 21
502.97712246593778
  0
LINE
  8
_0-0_
  6
CONTINUOUS
 62
    7
 10
1217.2603787806511
 20
460.27333971491748
 11
1259.9641615316723
 21
502.97712246593778
  0
LINE
  8
_0-0_
  6
CONTINUOUS
 62
    7
 10
1306.6817172086394
 20
285.82617684009597
 11
1666.8533198280311
 21
285.82617684009597
  0
LINE
  8
_0-0_
  6
CONTINUOUS
 62
    7
 10
1502.5321002521996
 20
204.60837357875857
 11
1583.7499035135352
 21
285.82617684009324
  0
LINE
  8
_0-0_
  6
CONTINUOUS
 62
    7
 10
1486.6221976755023
 20
204.60837357875857
 11
1567.8400009368379
 21
285.82617684009324
  0
LINE
  8
_0-0_
  6
CONTINUOUS
 62
    7
 10
1470.7122950988069
 20
204.60837357875857
 11
1551.9300983601443
 21
285.82617684009324
  0
LINE
  8
_0-0_
  6
CONTINUOUS
 62
    7
 10
1306.6817172086394
 20
285.82617684009597
 11
1306.6817172086394
 21
502.97712246593778
  0
LINE
  8
_0-0_
  6
CONTINUOUS
 62
    7
 10
1571.9167136255783
 20
285.82617684009597
 11
1603.2814216407351
 21
340.15144468691028
  0
POINT
  8
_0-0_
 62
    7
 10
1571.9167136255783
 20
285.82617684009597
  0
TEXT
  8
_0-0_
 62
    7
 10
1597.8761537526134
 20
341.51154252388505
 40
21.617968000000001
 41
1
 50
0
  1
ﾌﾟﾗｲﾏｰ
  0
LINE
  8
_0-0_
  6
CONTINUOUS
 62
    4
 10
1320.1817172086394
 20
502.97712246593778
 11
1320.1817172086394
 21
306.07617684009597
  0
LINE
  8
_0-0_
  6
CONTINUOUS
 62
    4
 10
1320.1817172086394
 20
306.07617684009597
 11
1666.8533198280311
 21
306.07617684009597
  0
LINE
  8
_0-0_
  6
CONTINUOUS
 62
    7
 10
1431.8536264614613
 20
294.83370639628333
 11
1495.2665074240394
 21
404.66803807778547
  0
TEXT
  8
_0-0_
 62
    7
 10
1499.1271362493826
 20
395.24192996034549
 40
21.617968000000001
 41
1
 50
0
  1
ｳﾚﾀﾝ防水
  0
POINT
  8
_0-0_
 62
    7
 10
1431.8536264614613
 20
294.83370639628333
  0
LINE
  8
_0-0_
  6
CONTINUOUS
 62
    7
 10
1349.1884026098969
 20
306.07617684009597
 11
1440.4452736946905
 21
464.13771409872243
  0
POINT
  8
_0-0_
 62
    7
 10
1349.1884026098969
 20
306.07617684009597
  0
TEXT
  8
_0-0_
 62
    7
 10
1446.4128188782497
 20
454.98482298096246
 40
21.617968000000001
 41
1
 50
0
  1
ﾄｯﾌﾟｺｰﾄ
  0
LINE
  8
_0-0_
  6
CONTINUOUS
 62
    7
 10
999.69936249988962
 20
215.85605947792851
 11
999.69936249988962
 21
295.59990150995282
  0
ARC
  8
_0-0_
  6
CONTINUOUS
 62
    7
 10
1087.9467695461972
 20
349.59990150995282
 40
18
 50
0
 51
180
  0
LINE
  8
_0-0_
  6
CONTINUOUS
 62
    7
 10
980.94358649749677
 20
459.02207611909625
 11
999.69936249988962
 21
439.59990150995282
  0
LINE
  8
_0-0_
  6
CONTINUOUS
 62
    7
 10
729.69936249989144
 20
394.72818063443765
 11
800.30142139266547
 21
465.33023952721169
  0
LINE
  8
_0-0_
  6
CONTINUOUS
 62
    7
 10
729.69936249988962
 20
407.4561026957922
 11
788.00297069328838
 21
465.75971088919187
  0
LINE
  8
_0-0_
  6
CONTINUOUS
 62
    7
 10
729.69936249988962
 20
420.18402475714947
 11
775.70451999391037
 21
466.18918225117022
  0
LINE
  8
_0-0_
  6
DASHED1
 62
    7
 10
806.76577222419576
 20
385.59990150995282
 11
806.76577222419576
 21
313.59990150995282
  0
LINE
  8
_0-0_
  6
DASHED1
 62
    7
 10
806.76577222419576
 20
385.59990150995282
 11
806.76577222419576
 21
313.59990150995282
  0
ARC
  8
_0-0_
  6
CONTINUOUS
 62
    7
 10
1087.9467695461972
 20
349.59990150995282
 40
36
 50
1.8794552231624875
 51
90
  0
LINE
  8
_0-0_
  6
CONTINUOUS
 62
    7
 10
1105.9467695461972
 20
349.59990150995282
 11
1105.9467695461972
 21
241.59990150995259
  0
LINE
  8
_0-0_
  6
CONTINUOUS
 62
    7
 10
1069.9467695461972
 20
349.59990150995282
 11
1069.9467695461972
 21
241.59990150995259
  0
ARC
  8
_0-0_
  6
DASHED1
 62
    7
 10
1087.9467695461972
 20
349.59990150995282
 40
18
 50
180
 51
1.879455223162438
  0
ARC
  8
_0-0_
  6
CONTINUOUS
 62
    7
 10
1087.9467695461972
 20
241.59990150995259
 40
18
 50
180
 51
0
  0
CIRCLE
  8
_0-0_
  6
DASHED1
 62
    7
 10
843.35611461345172
 20
350.19024389920878
 40
17.409657610744127
  0
ARC
  8
_0-0_
  6
CONTINUOUS
 62
    7
 10
1087.9467695461972
 20
349.59990150995282
 40
36
 50
299.99999999999989
 51
1.8794552231624542
  0
ARC
  8
_0-0_
  6
DASHED1
 62
    7
 10
1087.9467695461972
 20
350.19024389920878
 40
36.512444626051284
 50
270
 51
299.53680866691025
  0
LINE
  8
_0-0_
  6
DASHED1
 62
    7
 10
1069.9467695461972
 20
313.59990150995282
 11
1087.9467695461972
 21
313.59990150995282
  0
LINE
  8
_0-0_
  6
DASHED1
 62
    7
 10
999.69936249988962
 20
385.59990150995282
 11
806.76577222419576
 21
385.59990150995282
  0
LINE
  8
_0-0_
  6
DASHED1
 62
    7
 10
999.69936249988962
 20
313.59990150995282
 11
806.76577222419576
 21
313.59990150995282
  0
LINE
  8
_0-0_
  6
CONTINUOUS
 62
    7
 10
1087.9467695461972
 20
385.59990150995282
 11
999.69936249988962
 21
385.59990150995282
  0
LINE
  8
_0-0_
  6
CONTINUOUS
 62
    7
 10
1069.9467695461972
 20
313.59990150995282
 11
999.69936249988962
 21
313.59990150995282
  0
LINE
  8
_0-0_
  6
CONTINUOUS
 62
    7
 10
999.69936249988962
 20
313.59990150995282
 11
981.69936249988962
 21
313.59990150995282
  0
LINE
  8
_0-0_
  6
CONTINUOUS
 62
    7
 10
981.69936249988962
 20
313.59990150995282
 11
981.69936249988962
 21
295.59990150995282
  0
LINE
  8
_0-0_
  6
CONTINUOUS
 62
    7
 10
981.69936249988962
 20
295.59990150995282
 11
999.69936249988962
 21
295.59990150995282
  0
LINE
  8
_0-0_
  6
CONTINUOUS
 62
    7
 10
999.69936249988962
 20
385.59990150995282
 11
981.69936249988962
 21
385.59990150995282
  0
LINE
  8
_0-0_
  6
CONTINUOUS
 62
    7
 10
981.69936249988962
 20
385.59990150995282
 11
981.69936249988962
 21
403.59990150995282
  0
LINE
  8
_0-0_
  6
CONTINUOUS
 62
    7
 10
981.69936249988962
 20
403.59990150995282
 11
999.69936249988962
 21
403.59990150995282
  0
LINE
  8
_0-0_
  6
CONTINUOUS
 62
    7
 10
999.69936249988962
 20
403.59990150995282
 11
999.69936249988962
 21
439.59990150995282
  0
LINE
  8
_0-0_
  6
CONTINUOUS
 62
    2
 10
993.30861635301255
 20
385.59990150995282
 11
999.14035761029675
 21
391.43164276723701
  0
LINE
  8
_0-0_
  6
CONTINUOUS
 62
    2
 10
988.21744752846837
 20
385.59990150995282
 11
999.08987216674007
 21
396.47232614822451
  0
LINE
  8
_0-0_
  6
CONTINUOUS
 62
    2
 10
983.12627870392328
 20
385.59990150995236
 11
999.48560186505267
 21
401.9592246710813
  0
LINE
  8
_0-0_
  6
CONTINUOUS
 62
    2
 10
981.69936249988962
 20
389.2641541304597
 11
996.03510987938364
 21
403.59990150995282
  0
LINE
  8
_0-0_
  6
CONTINUOUS
 62
    2
 10
981.69936249988871
 20
394.35532295500298
 11
990.94394105484037
 21
403.59990150995372
  0
LINE
  8
_0-0_
  6
CONTINUOUS
 62
    2
 10
981.69936249988871
 20
399.4464917795467
 11
985.85277223029618
 21
403.59990150995372
  0
LINE
  8
_0-0_
  6
CONTINUOUS
 62
    2
 10
994.94965519478785
 20
295.59990150995282
 11
999.23500046152742
 21
299.88524677669193
  0
LINE
  8
_0-0_
  6
CONTINUOUS
 62
    2
 10
989.85848637024367
 20
295.59990150995282
 11
999.06316177485689
 21
304.8045769145665
  0
LINE
  8
_0-0_
  6
CONTINUOUS
 62
    2
 10
984.76731754570312
 20
295.59990150995282
 11
999.30044591854869
 21
310.13302988279838
  0
LINE
  8
_0-0_
  6
CONTINUOUS
 62
    2
 10
981.69936249988962
 20
297.62311528868349
 11
997.67614872115894
 21
313.59990150995282
  0
LINE
  8
_0-0_
  6
CONTINUOUS
 62
    2
 10
981.69936249988871
 20
302.71428411322677
 11
992.58497989661566
 21
313.59990150995282
  0
LINE
  8
_0-0_
  6
CONTINUOUS
 62
    2
 10
981.69936249988962
 20
307.80545293777141
 11
987.49381107207057
 21
313.59990150995282
  0
LINE
  8
_0-0_
  6
CONTINUOUS
 62
    2
 10
981.69936249988962
 20
312.89662176231241
 11
982.40264224753003
 21
313.59990150995282
  0
LINE
  8
_0-0_
  6
CONTINUOUS
 62
    2
 10
998.39978517755492
 20
385.59990150995282
 11
999.54530460284616
 21
386.74542093524497
  0
LINE
  8
_0-0_
  6
CONTINUOUS
 62
    2
 10
993.30861635301255
 20
385.59990150995282
 11
999.14035761029675
 21
391.43164276723701
  0
LINE
  8
_0-0_
  6
CONTINUOUS
 62
    2
 10
988.21744752846837
 20
385.59990150995282
 11
999.08987216674007
 21
396.47232614822451
  0
LINE
  8
_0-0_
  6
CONTINUOUS
 62
    2
 10
983.12627870392328
 20
385.59990150995236
 11
999.48560186505267
 21
401.9592246710813
  0
LINE
  8
_0-0_
  6
CONTINUOUS
 62
    2
 10
981.69936249988962
 20
389.2641541304597
 11
996.03510987938364
 21
403.59990150995282
  0
LINE
  8
_0-0_
  6
CONTINUOUS
 62
    2
 10
981.69936249988871
 20
394.35532295500298
 11
990.94394105484037
 21
403.59990150995372
  0
LINE
  8
_0-0_
  6
CONTINUOUS
 62
    2
 10
981.69936249988871
 20
399.4464917795467
 11
985.85277223029618
 21
403.59990150995372
  0
LINE
  8
_0-0_
  6
CONTINUOUS
 62
    4
 10
739.0134579702127
 20
478.27704544893322
 11
985.68132618481116
 21
469.66321368199124
  0
LINE
  8
_0-0_
  6
CONTINUOUS
 62
    4
 10
729.69936249988962
 20
469.28252800576138
 11
729.69936249988962
 21
467.79571775144859
  0
ARC
  8
_0-0_
  6
CONTINUOUS
 62
    4
 10
738.69936249988962
 20
469.28252800576138
 40
9
 50
88.000000000000227
 51
180.00000000000006
  0
LINE
  8
_0-0_
  6
CONTINUOUS
 62
    7
 10
729.69936249988962
 20
467.79571775144859
 11
729.69936249988962
 21
215.85605947792851
  0
LINE
  8
_0-0_
  6
CONTINUOUS
 62
    7
 10
932.66490318412082
 20
215.85605947792851
 11
999.69936249988962
 21
282.89051879369754
  0
LINE
  8
_0-0_
  6
CONTINUOUS
 62
    7
 10
945.39282524547718
 20
215.85605947792851
 11
999.69936249989144
 21
270.16259673234299
  0
LINE
  8
_0-0_
  6
CONTINUOUS
 62
    7
 10
958.12074730683355
 20
215.85605947792851
 11
999.69936249988962
 21
257.43467467098435
  0
LINE
  8
_0-0_
  6
CONTINUOUS
 62
    7
 10
994.06652102213968
 20
393.09746984793674
 11
1040.5563971570937
 21
439.58734598289084
  0
POINT
  8
_0-0_
 62
    7
 10
994.06652102213968
 20
393.09746984793674
  0
TEXT
  8
_0-0_
 62
    7
 10
1041.8079959714078
 20
430.02915325219101
 40
21.617968000000001
 41
1
 50
0
  1
ｼｰﾘﾝｸﾞ
  0
LINE
  8
_0-0_
  6
CONTINUOUS
 62
    7
 10
991.97341625591719
 20
306.02644133478179
 11
1040.5563971570937
 21
439.58734598289084
  0
POINT
  8
_0-0_
 62
    7
 10
991.97341625591719
 20
306.02644133478179
  0
LINE
  8
_0-0_
  6
CONTINUOUS
 62
    7
 10
980.94358649749677
 20
459.02207611909625
 11
729.69936249988962
 21
467.79571775144723
  0
LINE
  8
_0-0_
  6
CONTINUOUS
 62
    7
 10
1023.925499156113
 20
1187.3279057056284
 11
1013.925499156113
 21
1187.3279057056284
  0
LINE
  8
_0-0_
  6
CONTINUOUS
 62
    7
 10
1013.925499156113
 20
1187.3279057056284
 11
1013.925499156113
 21
1177.3279057056284
  0
LINE
  8
_0-0_
  6
CONTINUOUS
 62
    7
 10
1013.925499156113
 20
1177.3279057056284
 11
1023.925499156113
 21
1177.3279057056284
  0
LINE
  8
_0-0_
  6
CONTINUOUS
 62
    7
 10
1023.925499156113
 20
1227.3279057056284
 11
1013.925499156113
 21
1227.3279057056284
  0
LINE
  8
_0-0_
  6
CONTINUOUS
 62
    7
 10
1013.925499156113
 20
1227.3279057056284
 11
1013.925499156113
 21
1237.3279057056284
  0
LINE
  8
_0-0_
  6
CONTINUOUS
 62
    7
 10
1013.925499156113
 20
1237.3279057056284
 11
1023.925499156113
 21
1237.3279057056284
  0
LINE
  8
_0-0_
  6
CONTINUOUS
 62
    2
 10
1023.2035117548158
 20
1227.3279057056284
 11
1023.8399114355335
 21
1227.964305386346
  0
LINE
  8
_0-0_
  6
CONTINUOUS
 62
    2
 10
1020.3750846300701
 20
1227.3279057056284
 11
1023.6149408841176
 21
1230.5677619596752
  0
LINE
  8
_0-0_
  6
CONTINUOUS
 62
    2
 10
1017.5466575053234
 20
1227.3279057056284
 11
1023.5868934154743
 21
1233.3681416157792
  0
LINE
  8
_0-0_
  6
CONTINUOUS
 62
    2
 10
1014.7182303805768
 20
1227.3279057056279
 11
1023.8067432478703
 21
1236.4164185729219
  0
LINE
  8
_0-0_
  6
CONTINUOUS
 62
    2
 10
1013.925499156113
 20
1229.3636016059097
 11
1021.8898032558319
 21
1237.3279057056282
  0
LINE
  8
_0-0_
  6
CONTINUOUS
 62
    2
 10
1013.925499156113
 20
1232.1920287306559
 11
1019.0613761310852
 21
1237.3279057056286
  0
LINE
  8
_0-0_
  6
CONTINUOUS
 62
    2
 10
1013.925499156113
 20
1235.0204558554026
 11
1016.2329490063386
 21
1237.3279057056286
  0
LINE
  8
_0-0_
  6
CONTINUOUS
 62
    2
 10
1021.286772875501
 20
1177.3279057056284
 11
1023.667520245912
 21
1179.7086530760389
  0
LINE
  8
_0-0_
  6
CONTINUOUS
 62
    2
 10
1018.4583457507543
 20
1177.3279057056284
 11
1023.5720543088729
 21
1182.4416142637469
  0
LINE
  8
_0-0_
  6
CONTINUOUS
 62
    2
 10
1015.6299186260095
 20
1177.3279057056282
 11
1023.7038788331457
 21
1185.4018659127646
  0
LINE
  8
_0-0_
  6
CONTINUOUS
 62
    2
 10
1013.925499156113
 20
1178.4519133604786
 11
1022.8014915012628
 21
1187.3279057056284
  0
LINE
  8
_0-0_
  6
CONTINUOUS
 62
    2
 10
1013.925499156113
 20
1181.280340485225
 11
1019.9730643765162
 21
1187.3279057056284
  0
LINE
  8
_0-0_
  6
CONTINUOUS
 62
    2
 10
1013.925499156113
 20
1184.1087676099719
 11
1017.1446372517695
 21
1187.3279057056282
  0
LINE
  8
_0-0_
  6
CONTINUOUS
 62
    2
 10
1013.925499156113
 20
1186.937194734717
 11
1014.3162101270246
 21
1187.3279057056282
  0
LINE
  8
_0-0_
  6
CONTINUOUS
 62
    2
 10
1023.2035117548158
 20
1227.3279057056284
 11
1023.8399114355335
 21
1227.964305386346
  0
LINE
  8
_0-0_
  6
CONTINUOUS
 62
    2
 10
1020.3750846300701
 20
1227.3279057056284
 11
1023.6149408841176
 21
1230.5677619596752
  0
LINE
  8
_0-0_
  6
CONTINUOUS
 62
    2
 10
1017.5466575053234
 20
1227.3279057056284
 11
1023.5868934154743
 21
1233.3681416157792
  0
LINE
  8
_0-0_
  6
CONTINUOUS
 62
    2
 10
1014.7182303805768
 20
1227.3279057056279
 11
1023.8067432478703
 21
1236.4164185729219
  0
LINE
  8
_0-0_
  6
CONTINUOUS
 62
    2
 10
1013.925499156113
 20
1229.3636016059097
 11
1021.8898032558319
 21
1237.3279057056282
  0
LINE
  8
_0-0_
  6
CONTINUOUS
 62
    2
 10
1013.925499156113
 20
1232.1920287306559
 11
1019.0613761310852
 21
1237.3279057056286
  0
LINE
  8
_0-0_
  6
CONTINUOUS
 62
    2
 10
1013.925499156113
 20
1235.0204558554026
 11
1016.2329490063386
 21
1237.3279057056286
  0
LINE
  8
_0-0_
  6
CONTINUOUS
 62
    7
 10
1023.925499156113
 20
1237.3279057056284
 11
1023.925499156113
 21
1257.3279057056284
  0
LINE
  8
_0-0_
  6
CONTINUOUS
 62
    7
 10
1023.925499156113
 20
1052.9922480620157
 11
1023.925499156113
 21
1177.3279057056284
  0
LINE
  8
_0-0_
  6
CONTINUOUS
 62
    7
 10
873.92549915611391
 20
1232.3991718858972
 11
913.14886520765515
 21
1271.6225379374384
  0
LINE
  8
_0-0_
  6
CONTINUOUS
 62
    7
 10
873.92549915611301
 20
1239.4702396977611
 11
906.3163925968903
 21
1271.8611331385384
  0
LINE
  8
_0-0_
  6
CONTINUOUS
 62
    7
 10
873.92549915611301
 20
1246.541307509626
 11
899.48391998612453
 21
1272.0997283396375
  0
LINE
  8
_0-0_
  6
CONTINUOUS
 62
    4
 10
873.92549915611301
 20
1273.8182537588552
 11
873.92549915611301
 21
1272.9922480620146
  0
LINE
  8
_0-0_
  6
CONTINUOUS
 62
    7
 10
873.92549915611301
 20
1272.9922480620148
 11
873.92549915611301
 21
772.99224806201573
  0
LINE
  8
_0-0_
  6
CONTINUOUS
 62
    7
 10
873.92549915611301
 20
1272.9922480620148
 11
1013.505623599228
 21
1268.118002710708
  0
ARC
  8
_0-0_
  6
CONTINUOUS
 62
    4
 10
878.92549915611301
 20
1273.8182537588552
 40
5
 50
87.999999999996376
 51
180
  0
LINE
  8
_0-0_
  6
CONTINUOUS
 62
    4
 10
879.09999663962583
 20
1278.8152078939509
 11
1016.1377012032918
 21
1274.0297458012051
  0
TEXT
  8
_0-0_
 62
    7
 10
1025.2045460979161
 20
482.40606426200384
 40
21.617968000000001
 41
1
 50
0
  1
面取り
  0
LINE
  8
_0-0_
  6
CONTINUOUS
 62
    7
 10
1023.1771054353044
 20
479.94936032748626
 11
990.32147449869308
 21
449.31098881452459
  0
POINT
  8
_0-0_
 62
    7
 10
990.32147449869308
 20
449.31098881452459
  0
TEXT
  8
_0-0_
 62
    7
 10
696.13606690525205
 20
1577.3565543671134
 40
20
 41
1
 50
0
  1
図面番号：UPM-10-para-03
  0
LINE
  8
_0-0_
  6
CONTINUOUS
 62
    7
 10
672.13606690525205
 20
1553.3565543671134
 11
1706.8525777203686
 21
1553.3565543671134
  0
LINE
  8
_0-0_
  6
CONTINUOUS
 62
    7
 10
672.13606690525205
 20
1633.3565543671134
 11
1706.8525777203686
 21
1633.3565543671134
  0
LINE
  8
_0-0_
  6
CONTINUOUS
 62
    7
 10
672.13606690525205
 20
1473.3565543671134
 11
1706.8525777203686
 21
1473.3565543671134
  0
LINE
  8
_0-0_
  6
CONTINUOUS
 62
    7
 10
1189.4943223128103
 20
1633.3565543671134
 11
1189.4943223128103
 21
1473.3565543671134
  0
TEXT
  8
_0-0_
 62
    7
 10
696.13606690525205
 20
1497.3565543671134
 40
20
 41
1
 50
0
  1
施工部位：パラペット(丸環)
  0
TEXT
  8
_0-0_
 62
    7
 10
1213.4943223128103
 20
1497.3565543671134
 40
20
 41
1
 50
0
  1
下地：コンクリートスラブ
  0
TEXT
  8
_0-0_
 62
    7
 10
1213.4943223128103
 20
1577.3565543671134
 40
20
 41
1
 50
0
  1
構造：ＲＣ造
  0
LINE
  8
_0-0_
  6
CONTINUOUS
 62
    2
 10
1023.9254991561129
 20
1187.3279057056284
 11
1023.9254991561129
 21
1187.3279057056284
  0
LINE
  8
_0-0_
  6
CONTINUOUS
 62
    2
 10
1023.9254991561129
 20
1187.3279057056284
 11
1023.6229474302655
 21
1184.2442698070806
  0
LINE
  8
_0-0_
  6
CONTINUOUS
 62
    2
 10
1023.6229474302655
 20
1184.2442698070806
 11
1023.5927260221493
 21
1181.1024061550374
  0
LINE
  8
_0-0_
  6
CONTINUOUS
 62
    2
 10
1023.5927260221493
 20
1181.1024061550374
 11
1023.8357531939573
 21
1177.9977786867062
  0
LINE
  8
_0-0_
  6
CONTINUOUS
 62
    2
 10
1023.8357531939573
 20
1177.9977786867062
 11
1023.9254991561129
 21
1177.3279057056284
  0
LINE
  8
_0-0_
  6
CONTINUOUS
 62
    2
 10
1023.9254991561129
 20
1237.3279057056284
 11
1023.9254991561129
 21
1237.3279057056284
  0
LINE
  8
_0-0_
  6
CONTINUOUS
 62
    2
 10
1023.9254991561129
 20
1237.3279057056284
 11
1023.6229474302655
 21
1234.2442698070806
  0
LINE
  8
_0-0_
  6
CONTINUOUS
 62
    2
 10
1023.6229474302655
 20
1234.2442698070806
 11
1023.5927260221493
 21
1231.1024061550374
  0
LINE
  8
_0-0_
  6
CONTINUOUS
 62
    2
 10
1023.5927260221493
 20
1231.1024061550374
 11
1023.8357531939573
 21
1227.9977786867062
  0
LINE
  8
_0-0_
  6
CONTINUOUS
 62
    2
 10
1023.8357531939573
 20
1227.9977786867062
 11
1023.9254991561129
 21
1227.3279057056284
  0
LINE
  8
_0-0_
  6
CONTINUOUS
 62
    4
 10
1037.9254991561124
 20
1233.3279057056284
 11
1029.9254991561124
 21
1233.3279057056284
  0
ARC
  8
_0-0_
  6
CONTINUOUS
 62
    4
 10
1037.9254991561124
 20
1227.3279057056284
 40
6
 50
0
 51
90
  0
LINE
  8
_0-0_
  6
CONTINUOUS
 62
    4
 10
1037.9254991561124
 20
1181.3279057056284
 11
1029.9254991561124
 21
1181.3279057056284
  0
ARC
  8
_0-0_
  6
CONTINUOUS
 62
    4
 10
1037.9254991561124
 20
1187.3279057056284
 40
6
 50
270
 51
0
  0
LINE
  8
_0-0_
  6
CONTINUOUS
 62
    4
 10
1029.9254991561129
 20
1181.3279057056284
 11
1029.9254991561129
 21
1061.9922480620157
  0
LINE
  8
_0-0_
  6
CONTINUOUS
 62
    4
 10
1029.9254991561129
 20
1233.3279057056284
 11
1029.9254991561129
 21
1259.7520630606391
  0
LINE
  8
_0-0_
  6
CONTINUOUS
 62
    2
 10
999.69936249988882
 20
313.59990150994838
 11
999.69936249988882
 21
313.59990150994838
  0
LINE
  8
_0-0_
  6
CONTINUOUS
 62
    2
 10
999.69936249988882
 20
313.59990150994838
 11
999.15476939336361
 21
308.04935689256257
  0
LINE
  8
_0-0_
  6
CONTINUOUS
 62
    2
 10
999.15476939336361
 20
308.04935689256257
 11
999.10037085875456
 21
302.39400231888465
  0
LINE
  8
_0-0_
  6
CONTINUOUS
 62
    2
 10
999.10037085875456
 20
302.39400231888465
 11
999.53781976800872
 21
296.80567287588838
  0
LINE
  8
_0-0_
  6
CONTINUOUS
 62
    2
 10
999.53781976800872
 20
296.80567287588838
 11
999.69936249988882
 21
295.59990150994838
  0
LINE
  8
_0-0_
  6
CONTINUOUS
 62
    2
 10
999.69936249988882
 20
403.59990150994838
 11
999.69936249988882
 21
403.59990150994838
  0
LINE
  8
_0-0_
  6
CONTINUOUS
 62
    2
 10
999.69936249988882
 20
403.59990150994838
 11
999.15476939336361
 21
398.04935689256257
  0
LINE
  8
_0-0_
  6
CONTINUOUS
 62
    2
 10
999.15476939336361
 20
398.04935689256257
 11
999.10037085875456
 21
392.39400231888465
  0
LINE
  8
_0-0_
  6
CONTINUOUS
 62
    2
 10
999.10037085875456
 20
392.39400231888465
 11
999.53781976800872
 21
386.80567287588838
  0
LINE
  8
_0-0_
  6
CONTINUOUS
 62
    2
 10
999.53781976800872
 20
386.80567287588838
 11
999.69936249988882
 21
385.59990150994838
  0
LINE
  8
_0-0_
  6
CONTINUOUS
 62
    2
 10
998.39978517755435
 20
385.59990150994838
 11
999.54530460284559
 21
386.74542093524053
  0
LINE
  8
_0-0_
  6
CONTINUOUS
 62
    2
 10
998.39978517755435
 20
385.59990150994838
 11
999.54530460284559
 21
386.74542093524053
  0
LINE
  8
_0-0_
  6
CONTINUOUS
 62
    4
 10
1024.8993624998893
 20
396.39990150994839
 11
1010.4993624998897
 21
396.39990150994839
  0
ARC
  8
_0-0_
  6
CONTINUOUS
 62
    4
 10
1024.8993624998893
 20
385.59990150994838
 40
10.800000000000001
 50
0
 51
90
  0
LINE
  8
_0-0_
  6
CONTINUOUS
 62
    4
 10
1024.8993624998893
 20
302.79990150994843
 11
1010.4993624998897
 21
302.79990150994843
  0
ARC
  8
_0-0_
  6
CONTINUOUS
 62
    4
 10
1024.8993624998893
 20
313.59990150994838
 40
10.800000000000001
 50
270
 51
0
  0
LINE
  8
_0-0_
  6
CONTINUOUS
 62
    4
 10
1010.4993624998898
 20
302.79990150994843
 11
1010.4993624998898
 21
215.85605947792851
  0
LINE
  8
_0-0_
  6
CONTINUOUS
 62
    4
 10
1010.4993624998898
 20
396.39990150994839
 11
1010.4993624998898
 21
443.96338474897266
  0
ENDSEC
  0
EOF
