  0
SECTION
  2
HEADER
  9
$ACADVER
  1
AC1009
  9
$INSBASE
 10
0
 20
0
 30
0
  9
$EXTMIN
 10
0
 20
0
  9
$EXTMAX
 10
2378
 20
1682
  9
$LIMMIN
 10
0
 20
0
  9
$LIMMAX
 10
2378
 20
1682
  9
$LTSCALE
 40
1
  0
ENDSEC
  0
SECTION
  2
TABLES
  0
TABLE
  2
LTYPE
 70
     9
  0
LTYPE
  2
CONTINUOUS
 70
    64
  3
実線
 72
    65
 73
     0
 40
0.0
  0
LTYPE
  2
DASHED1
 70
    64
  3
--  --  --  --  --  --  --  --  
 72
    65
 73
     2
 40
2.5
 49
1.25
 49
-1.25
  0
LTYPE
  2
DASHED2
 70
    64
  3
----    ----    ----    ----    
 72
    65
 73
     2
 40
5.0
 49
2.5
 49
-2.5
  0
LTYPE
  2
DASHED3
 70
    64
  3
------  ------  ------  ------  
 72
    65
 73
     2
 40
5.0
 49
3.75
 49
-1.25
  0
LTYPE
  2
CENTER1
 70
    64
  3
----- - ----- - ----- - ----- - 
 72
    65
 73
     4
 40
10.0
 49
6.25
 49
-1.25
 49
1.25
 49
-1.25
  0
LTYPE
  2
CENTER2
 70
    64
  3
----------  --  ----------  --  
 72
    65
 73
     4
 40
20.0
 49
12.5
 49
-2.5
 49
2.5
 49
-2.5
  0
LTYPE
  2
PHANTOM1
 70
    64
  3
--- - - --- - - --- - - --- - - 
 72
    65
 73
     6
 40
10.0
 49
3.25
 49
-1.25
 49
1.25
 49
-1.25
 49
1.25
 49
-1.25
  0
LTYPE
  2
PHANTOM2
 70
    64
  3
--------  -  -  --------  -  -  
 72
    65
 73
     6
 40
20.0
 49
10.0
 49
-2.5
 49
1.25
 49
-2.5
 49
1.25
 49
-2.5
  0
LTYPE
  2
DOT
 70
    64
  3
-   -   -   -   -   -   -   -   
 72
    65
 73
     2
 40
2.5
 49
0.625
 49
-1.875
  0
LTYPE
  2
DUMMY
 70
    64
  3
ダミー
 72
    65
 73
     0
 40
0.0
  0
LTYPE
  2
RAND1
 70
    64
  3
ランダム線1
 72
    65
 73
     4
 40
10.0
 49
1.0
 49
-2.0
 49
3.0
 49
-4.0
  0
LTYPE
  2
RAND2
 70
    64
  3
ランダム線2
 72
    65
 73
     4
 40
14.0
 49
2.0
 49
-3.0
 49
4.0
 49
-5.0
  0
LTYPE
  2
RAND3
 70
    64
  3
ランダム線3
 72
    65
 73
     4
 40
18.0
 49
3.0
 49
-4.0
 49
5.0
 49
-6.0
  0
LTYPE
  2
RAND4
 70
    64
  3
ランダム線4
 72
    65
 73
     4
 40
22.0
 49
4.0
 49
-5.0
 49
6.0
 49
-7.0
  0
LTYPE
  2
RAND5
 70
    64
  3
ランダム線5
 72
    65
 73
     4
 40
26.0
 49
5.0
 49
-6.0
 49
7.0
 49
-8.0
  0
LTYPE
  2
LONG1
 70
    64
  3
----------  --  ----------  --  
 72
    65
 73
     4
 40
40.0
 49
32.5
 49
-2.5
 49
2.5
 49
-2.5
  0
LTYPE
  2
LONG2
 70
    64
  3
--------  -  -  --------  -  -  
 72
    65
 73
     6
 40
40.0
 49
30.0
 49
-2.5
 49
1.25
 49
-2.5
 49
1.25
 49
-2.5
  0
LTYPE
  2
LONG3
 70
    64
  3
+++++++++++++++..+++++++++++++++
 72
    65
 73
     2
 40
40.0
 49
37.5
 49
-2.5
  0
LTYPE
  2
LONG4
 70
    64
  3
+++++++++++++++..+++++++++++++++
 72
    65
 73
     2
 40
80.0
 49
75.0
 49
-5.0
  0
LTYPE
  2
LONG5
 70
    64
  3
----------  --  ----------  --  
 72
    65
 73
     4
 40
60.0
 49
37.5
 49
-7.5
 49
7.5
 49
-7.5
  0
LTYPE
  2
dashed
 70
   64
  3
-------   -------------   ------
 72
   65
 73
    2
 40
7.5
 49
6
 49
-1.5
  0
LTYPE
  2
dashed_spaced
 70
   64
  3
----        --------        ----
 72
   65
 73
    2
 40
12
 49
6
 49
-6
  0
LTYPE
  2
long_dashed_dotted
 70
   64
  3
------------- --- --------------
 72
   65
 73
    4
 40
15.25
 49
12
 49
-1.5
 49
0.25
 49
-1.5
  0
LTYPE
  2
long_dashed_double-dotted
 70
   64
  3
----------- --- --- ------------
 72
   65
 73
    6
 40
17
 49
12
 49
-1.5
 49
0.25
 49
-1.5
 49
0.25
 49
-1.5
  0
LTYPE
  2
long_dashed_triplicate-dotted
 70
   64
  3
--------- --- --- --- ----------
 72
   65
 73
    8
 40
18.75
 49
12
 49
-1.5
 49
0.25
 49
-1.5
 49
0.25
 49
-1.5
 49
0.25
 49
-1.5
  0
LTYPE
  2
dotted
 70
   64
  3
   -       -       -       -    
 72
   65
 73
    2
 40
1.75
 49
0.25
 49
-1.5
  0
LTYPE
  2
chain
 70
   64
  3
-------------- -- --------------
 72
   65
 73
    4
 40
18.5
 49
12
 49
-1.5
 49
3.5
 49
-1.5
  0
LTYPE
  2
chain_double_dash
 70
   64
  3
------------ -- -- -------------
 72
   65
 73
    6
 40
23.5
 49
12
 49
-1.5
 49
3.5
 49
-1.5
 49
3.5
 49
-1.5
  0
LTYPE
  2
dashed_dotted
 70
   64
  3
-----------     -     ----------
 72
   65
 73
    4
 40
9.25
 49
6
 49
-1.5
 49
0.25
 49
-1.5
  0
LTYPE
  2
double-dashed_dotted
 70
   64
  3
------   -----------   -   -----
 72
   65
 73
    6
 40
16.75
 49
6
 49
-1.5
 49
6
 49
-1.5
 49
0.25
 49
-1.5
  0
LTYPE
  2
dashed_double-dotted
 70
   64
  3
---------    -    -    ---------
 72
   65
 73
    6
 40
11
 49
6
 49
-1.5
 49
0.25
 49
-1.5
 49
0.25
 49
-1.5
  0
LTYPE
  2
double-dashed_double-dotted
 70
   64
  3
-----   ---------   -   -   ----
 72
   65
 73
    8
 40
18.5
 49
6
 49
-1.5
 49
6
 49
-1.5
 49
0.25
 49
-1.5
 49
0.25
 49
-1.5
  0
LTYPE
  2
dashed_triplicate-dotted
 70
   64
  3
-------    -    -    -    ------
 72
   65
 73
    8
 40
12.75
 49
6
 49
-1.5
 49
0.25
 49
-1.5
 49
0.25
 49
-1.5
 49
0.25
 49
-1.5
  0
LTYPE
  2
double-dashed_triplicate-dotted
 70
   64
  3
-----  ---------  -  -  -  -----
 72
   65
 73
   10
 40
20.25
 49
6
 49
-1.5
 49
6
 49
-1.5
 49
0.25
 49
-1.5
 49
0.25
 49
-1.5
 49
0.25
 49
-1.5
  0
LTYPE
  2
undefined
 70
   64
  3
--------------------------------
 72
   65
 73
    0
 40
0
  0
ENDTAB
  0
TABLE
  2
STYLE
  5
3
100
AcDbSymbolTable
 70
     1
  0
STYLE
  5
10
100
AcDbSymbolTableRecord
100
AcDbTextStyleTableRecord
  2
STANDARD
 70
     0
 40
0.0
 41
1.0
 50
0.0
 71
     0
 42
0.2
  3
txt
  4
bigfont.shx
  0
STYLE
  5
26
100
AcDbSymbolTableRecord
100
AcDbTextStyleTableRecord
  2
TATEGAKI
 70
    68
 40
0.0
 41
1.0
 50
0.0
 71
     0
 42
1.0
  3
txt
  4
bigfont.shx
  0
ENDTAB
  0
TABLE
  2
LAYER
 70
    2
  0
LAYER
  2
_0-0_
 70
   64
 62
    7
  6
CONTINUOUS
  0
LAYER
  2
ADD_LINE
 70
   64
 62
    7
  6
CONTINUOUS
  0
ENDTAB
  0
ENDSEC
  0
SECTION
  2
BLOCKS
  0
ENDSEC
  0
SECTION
  2
ENTITIES
  0
LINE
  8
_0-0_
  6
CONTINUOUS
 62
    7
 10
672.13606690525205
 20
1633.3565543671132
 11
672.13606690525205
 21
167.53106997205509
  0
LINE
  8
_0-0_
  6
CONTINUOUS
 62
    4
 10
898.19191446582238
 20
434.25395556029912
 11
1079.0726214463757
 21
427.93746208632751
  0
LINE
  8
_0-0_
  6
CONTINUOUS
 62
    2
 10
873.44191446582238
 20
416.90498708782457
 11
891.29690681604654
 21
434.75997943804964
  0
LINE
  8
_0-0_
  6
CONTINUOUS
 62
    3
 10
924.74627587860152
 20
1278.0365555609226
 11
866.42549915611301
 21
1278.0365555609226
  0
LINE
  8
_0-0_
  6
CONTINUOUS
 62
    7
 10
1013.505623599228
 20
1268.1180027107077
 11
1023.925499156113
 21
1257.3279057056282
  0
LINE
  8
_0-0_
  6
CONTINUOUS
 62
    4
 10
1016.1377012032918
 20
1274.0297458012049
 11
1029.9254991561129
 21
1259.7520630606389
  0
LINE
  8
_0-0_
  6
CONTINUOUS
 62
    3
 10
924.74627587860152
 20
1270.5365555609226
 11
873.92549915611301
 21
1270.5365555609226
  0
LINE
  8
_0-0_
  6
CONTINUOUS
 62
    3
 10
873.92549915611301
 20
1270.5365555609226
 11
873.92549915611301
 21
1188.0365555609226
  0
LINE
  8
_0-0_
  6
CONTINUOUS
 62
    3
 10
866.42549915611301
 20
1278.0365555609226
 11
866.42549915611301
 21
1188.0365555609226
  0
LINE
  8
_0-0_
  6
CONTINUOUS
 62
    3
 10
873.92549915611301
 20
1188.0365555609226
 11
866.42549915611301
 21
1188.0365555609226
  0
LINE
  8
_0-0_
  6
CONTINUOUS
 62
    3
 10
873.92549915611301
 20
1180.5365555609226
 11
866.42549915611301
 21
1180.5365555609226
  0
LINE
  8
_0-0_
  6
CONTINUOUS
 62
    3
 10
870.17549915611301
 20
1188.0365555609226
 11
870.17549915611301
 21
1180.5365555609226
  0
LINE
  8
_0-0_
  6
CONTINUOUS
 62
    7
 10
873.92549915611301
 20
1246.541307509626
 11
897.92074720740959
 21
1270.5365555609226
  0
LINE
  8
_0-0_
  6
CONTINUOUS
 62
    7
 10
873.92549915611301
 20
1239.4702396977611
 11
904.99181501927444
 21
1270.5365555609226
  0
LINE
  8
_0-0_
  6
CONTINUOUS
 62
    7
 10
873.92549915611391
 20
1232.3991718858972
 11
912.06288283113929
 21
1270.5365555609226
  0
LINE
  8
_0-0_
  6
CONTINUOUS
 62
    7
 10
939.74627587860152
 20
1270.6937358903208
 11
939.74627587860152
 21
1255.6937358903208
  0
LINE
  8
_0-0_
  6
CONTINUOUS
 62
    7
 10
939.74627587860152
 20
1255.6937358903208
 11
924.74627587860152
 21
1255.6937358903208
  0
LINE
  8
_0-0_
  6
CONTINUOUS
 62
    7
 10
924.74627587860152
 20
1255.6937358903208
 11
924.74627587860152
 21
1270.6937358903208
  0
LINE
  8
_0-0_
  6
CONTINUOUS
 62
    3
 10
924.74627587860152
 20
1278.0365555609226
 11
924.74627587860152
 21
1270.5365555609226
  0
LINE
  8
_0-0_
  6
CONTINUOUS
 62
    7
 10
1013.505623599228
 20
1268.1180027107077
 11
939.74627587860152
 21
1270.6937358903208
  0
LINE
  8
_0-0_
  6
CONTINUOUS
 62
    4
 10
935.74627587860152
 20
1276.8370762340812
 11
1016.1377012032918
 21
1274.0297458012049
  0
LINE
  8
_0-0_
  6
CONTINUOUS
 62
    4
 10
935.74627587860152
 20
1261.6937358903208
 11
924.74627587860152
 21
1261.6937358903208
  0
LINE
  8
_0-0_
  6
CONTINUOUS
 62
    4
 10
935.74627587860152
 20
1276.8370762340812
 11
935.74627587860152
 21
1261.6937358903208
  0
ARC
  8
_0-0_
  6
CONTINUOUS
 62
    2
 10
942.49073712220536
 20
1389.7264324549644
 40
113.0906472942477
 50
260.97271697893774
 51
266.5809851959296
  0
LINE
  8
_0-0_
  6
CONTINUOUS
 62
    2
 10
934.28415093775141
 20
1261.6937358903208
 11
935.74627587860152
 21
1263.1558608311709
  0
LINE
  8
_0-0_
  6
CONTINUOUS
 62
    2
 10
931.45572381300474
 20
1261.6937358903208
 11
935.74627587860152
 21
1265.9842879559176
  0
LINE
  8
_0-0_
  6
CONTINUOUS
 62
    2
 10
928.62729668825807
 20
1261.6937358903208
 11
935.74627587860152
 21
1268.8127150806642
  0
LINE
  8
_0-0_
  6
CONTINUOUS
 62
    2
 10
925.79886956351231
 20
1261.6937358903199
 11
935.74627587860152
 21
1271.6411422054091
  0
LINE
  8
_0-0_
  6
CONTINUOUS
 62
    2
 10
924.74627587860061
 20
1263.4695693301549
 11
935.74627587860152
 21
1274.4695693301558
  0
LINE
  8
_0-0_
  6
CONTINUOUS
 62
    2
 10
924.74627587860243
 20
1266.2979964549033
 11
935.31213117918207
 21
1276.863851755483
  0
LINE
  8
_0-0_
  6
CONTINUOUS
 62
    2
 10
924.74627587860152
 20
1269.1264235796482
 11
932.68182803425691
 21
1277.0619757353036
  0
LINE
  8
_0-0_
  6
CONTINUOUS
 62
    2
 10
924.74627587860152
 20
1271.9548507043939
 11
930.10725382804424
 21
1277.3158286538367
  0
LINE
  8
_0-0_
  6
CONTINUOUS
 62
    2
 10
924.74627587860061
 20
1274.7832778291397
 11
927.58535364371994
 21
1277.622355594259
  0
LINE
  8
_0-0_
  6
CONTINUOUS
 62
    2
 10
924.74627587860061
 20
1277.6117049538864
 11
925.11341626769183
 21
1277.9788453429776
  0
LINE
  8
_0-0_
  6
CONTINUOUS
 62
    3
 10
870.17549915611301
 20
775.53655556092258
 11
870.17549915611301
 21
768.03655556092258
  0
LINE
  8
_0-0_
  6
CONTINUOUS
 62
    7
 10
672.13606690525205
 20
567.53106997205509
 11
1706.8525777203677
 21
567.53106997205509
  0
LINE
  8
_0-0_
  6
CONTINUOUS
 62
    7
 10
672.13606690525205
 20
167.53106997205509
 11
1706.8525777203677
 21
167.53106997205509
  0
LINE
  8
_0-0_
  6
CONTINUOUS
 62
    7
 10
672.13606690525205
 20
627.53106997205509
 11
1706.8525777203677
 21
627.53106997205509
  0
LINE
  8
_0-0_
  6
CONTINUOUS
 62
    7
 10
1189.4943223128103
 20
627.53106997205509
 11
1189.4943223128103
 21
167.53106997205509
  0
LINE
  8
_0-0_
  6
CONTINUOUS
 62
    7
 10
1706.8525777203677
 20
1633.3565543671132
 11
1706.8525777203677
 21
167.53106997205509
  0
LINE
  8
_0-0_
  6
CONTINUOUS
 62
    7
 10
1093.3410852713168
 20
772.9922480620146
 11
1373.3410852713178
 21
1052.9922480620155
  0
LINE
  8
_0-0_
  6
CONTINUOUS
 62
    7
 10
1086.2700174594529
 20
772.99224806201551
 11
1366.2700174594529
 21
1052.9922480620146
  0
LINE
  8
_0-0_
  6
CONTINUOUS
 62
    7
 10
873.92549915611391
 20
779.85083192650677
 11
1147.0669152916225
 21
1052.9922480620146
  0
LINE
  8
_0-0_
  6
CONTINUOUS
 62
    7
 10
873.92549915611301
 20
786.92189973837071
 11
1139.9958474797568
 21
1052.9922480620146
  0
LINE
  8
_0-0_
  6
CONTINUOUS
 62
    7
 10
873.92549915611301
 20
793.99296755023647
 11
1132.9247796678928
 21
1052.9922480620146
  0
LINE
  8
_0-0_
  6
CONTINUOUS
 62
    7
 10
873.92549915611391
 20
1006.125001906202
 11
1023.925499156113
 21
1156.1250019062011
  0
LINE
  8
_0-0_
  6
CONTINUOUS
 62
    7
 10
873.92549915611301
 20
1013.1960697180659
 11
1023.9254991561139
 21
1163.1960697180668
  0
LINE
  8
_0-0_
  6
CONTINUOUS
 62
    7
 10
873.92549915611301
 20
1020.2671375299308
 11
1023.925499156113
 21
1170.2671375299308
  0
LINE
  8
_0-0_
  6
CONTINUOUS
 62
    7
 10
1223.9254991561129
 20
872.99224806201551
 11
1523.9254991561129
 21
872.99224806201551
  0
LINE
  8
_0-0_
  6
CONTINUOUS
 62
    7
 10
1223.9254991561129
 20
872.99224806201551
 11
1223.9254991561129
 21
772.99224806201551
  0
LINE
  8
_0-0_
  6
CONTINUOUS
 62
    7
 10
1405.4731196272833
 20
872.99224806201551
 11
1523.9254991561138
 21
991.44462759084604
  0
LINE
  8
_0-0_
  6
CONTINUOUS
 62
    7
 10
1412.5441874391481
 20
872.99224806201551
 11
1523.9254991561129
 21
984.37355977898028
  0
LINE
  8
_0-0_
  6
CONTINUOUS
 62
    7
 10
1419.615255251013
 20
872.99224806201551
 11
1523.9254991561138
 21
977.30249196711543
  0
LINE
  8
_0-0_
  6
CONTINUOUS
 62
    7
 10
1079.1989496475881
 20
772.99224806201551
 11
1359.1989496475881
 21
1052.9922480620155
  0
LINE
  8
_0-0_
  6
CONTINUOUS
 62
    7
 10
1023.925499156113
 20
1052.9922480620155
 11
1023.925499156113
 21
1257.3279057056282
  0
LINE
  8
_0-0_
  6
CONTINUOUS
 62
    7
 10
1023.925499156113
 20
1052.9922480620155
 11
1523.9254991561129
 21
1052.9922480620155
  0
CIRCLE
  8
_0-0_
  6
DASHED2
 62
    1
 10
951.16433613602578
 20
1269.5458920707845
 40
94.513505632925799
  0
TEXT
  8
_0-0_
 62
    7
 10
941.25844822473857
 20
1351.4850665766119
 40
24
 41
1
 50
0
  1
Ａ
  0
LINE
  8
_0-0_
  6
CONTINUOUS
 62
    4
 10
1110.0951668402231
 20
395.81267592005338
 11
1110.0951668402231
 21
252.65735719276404
  0
LINE
  8
_0-0_
  6
CONTINUOUS
 62
    7
 10
1096.5951668402231
 20
252.65735719276404
 11
1096.5951668402231
 21
390.35832187127949
  0
TEXT
  8
_0-0_
 62
    7
 10
906.73245032900388
 20
575.67973412101151
 40
40
 41
1
 50
0
  1
Ａ
  0
TEXT
  8
_0-0_
 62
    7
 10
1429.6891920142098
 20
576.02721287347708
 40
40
 41
1
 50
0
  1
Ｂ
  0
LINE
  8
_0-0_
  6
CONTINUOUS
 62
    7
 10
1216.1733265094581
 20
1060.4922480620155
 11
1275.9312715000369
 21
1163.9960449416042
  0
POINT
  8
_0-0_
 62
    7
 10
1216.1733265094581
 20
1060.4922480620155
  0
LINE
  8
_0-0_
  6
CONTINUOUS
 62
    3
 10
873.92549915611301
 20
1105.5365555609226
 11
866.42549915611301
 21
1105.5365555609226
  0
LINE
  8
_0-0_
  6
CONTINUOUS
 62
    3
 10
873.92549915611301
 20
1098.0365555609226
 11
866.42549915611301
 21
1098.0365555609226
  0
LINE
  8
_0-0_
  6
CONTINUOUS
 62
    3
 10
873.92549915611301
 20
1023.0365555609226
 11
866.42549915611301
 21
1023.0365555609226
  0
LINE
  8
_0-0_
  6
CONTINUOUS
 62
    3
 10
873.92549915611301
 20
1015.5365555609226
 11
866.42549915611301
 21
1015.5365555609226
  0
LINE
  8
_0-0_
  6
CONTINUOUS
 62
    3
 10
873.92549915611301
 20
940.53655556092258
 11
866.42549915611301
 21
940.53655556092258
  0
LINE
  8
_0-0_
  6
CONTINUOUS
 62
    3
 10
873.92549915611301
 20
933.03655556092258
 11
866.42549915611301
 21
933.03655556092258
  0
LINE
  8
_0-0_
  6
CONTINUOUS
 62
    3
 10
873.92549915611301
 20
858.03655556092258
 11
866.42549915611301
 21
858.03655556092258
  0
LINE
  8
_0-0_
  6
CONTINUOUS
 62
    3
 10
873.92549915611301
 20
850.53655556092258
 11
866.42549915611301
 21
850.53655556092258
  0
LINE
  8
_0-0_
  6
CONTINUOUS
 62
    3
 10
873.92549915611301
 20
775.53655556092258
 11
866.42549915611301
 21
775.53655556092258
  0
LINE
  8
_0-0_
  6
CONTINUOUS
 62
    3
 10
866.42549915611301
 20
1180.5365555609226
 11
866.42549915611301
 21
1105.5365555609226
  0
LINE
  8
_0-0_
  6
CONTINUOUS
 62
    3
 10
866.42549915611301
 20
1098.0365555609226
 11
866.42549915611301
 21
1023.0365555609226
  0
LINE
  8
_0-0_
  6
CONTINUOUS
 62
    3
 10
873.92549915611301
 20
1180.5365555609226
 11
873.92549915611301
 21
1105.5365555609226
  0
LINE
  8
_0-0_
  6
CONTINUOUS
 62
    3
 10
873.92549915611301
 20
1098.0365555609226
 11
873.92549915611301
 21
1023.0365555609226
  0
LINE
  8
_0-0_
  6
CONTINUOUS
 62
    3
 10
873.92549915611301
 20
1015.5365555609226
 11
873.92549915611301
 21
940.53655556092258
  0
LINE
  8
_0-0_
  6
CONTINUOUS
 62
    3
 10
873.92549915611301
 20
933.03655556092258
 11
873.92549915611301
 21
858.03655556092258
  0
LINE
  8
_0-0_
  6
CONTINUOUS
 62
    3
 10
873.92549915611301
 20
850.53655556092258
 11
873.92549915611301
 21
775.53655556092258
  0
LINE
  8
_0-0_
  6
CONTINUOUS
 62
    3
 10
866.42549915611301
 20
1015.5365555609226
 11
866.42549915611301
 21
940.53655556092258
  0
LINE
  8
_0-0_
  6
CONTINUOUS
 62
    3
 10
866.42549915611301
 20
933.03655556092258
 11
866.42549915611301
 21
858.03655556092258
  0
LINE
  8
_0-0_
  6
CONTINUOUS
 62
    3
 10
866.42549915611301
 20
850.53655556092258
 11
866.42549915611301
 21
775.53655556092258
  0
LINE
  8
_0-0_
  6
CONTINUOUS
 62
    3
 10
870.17549915611301
 20
1105.5365555609226
 11
870.17549915611301
 21
1098.0365555609226
  0
LINE
  8
_0-0_
  6
CONTINUOUS
 62
    3
 10
870.17549915611301
 20
1023.0365555609226
 11
870.17549915611301
 21
1015.5365555609226
  0
LINE
  8
_0-0_
  6
CONTINUOUS
 62
    3
 10
870.17549915611301
 20
940.53655556092258
 11
870.17549915611301
 21
933.03655556092258
  0
LINE
  8
_0-0_
  6
CONTINUOUS
 62
    3
 10
870.17549915611301
 20
858.03655556092258
 11
870.17549915611301
 21
850.53655556092258
  0
LINE
  8
_0-0_
  6
CONTINUOUS
 62
    7
 10
873.92549915611301
 20
1270.5365555609226
 11
873.92549915611301
 21
772.99224806201551
  0
LINE
  8
_0-0_
  6
CONTINUOUS
 62
    3
 10
873.44191446582238
 20
436.9527840456924
 11
742.22016684022321
 21
436.9527840456924
  0
LINE
  8
_0-0_
  6
CONTINUOUS
 62
    7
 10
1073.1504468372323
 20
414.63604013270856
 11
1096.5951668402231
 21
390.35832187127949
  0
LINE
  8
_0-0_
  6
CONTINUOUS
 62
    4
 10
1079.0726214463757
 20
427.93746208632751
 11
1110.0951668402231
 21
395.81267592005338
  0
LINE
  8
_0-0_
  6
CONTINUOUS
 62
    3
 10
873.44191446582238
 20
420.0777840456924
 11
759.09516684022321
 21
420.0777840456924
  0
LINE
  8
_0-0_
  6
CONTINUOUS
 62
    7
 10
759.09516684022321
 20
366.08847593027463
 11
813.08447495564099
 21
420.0777840456924
  0
LINE
  8
_0-0_
  6
CONTINUOUS
 62
    7
 10
759.09516684022321
 20
350.17857335357826
 11
828.99437753233644
 21
420.0777840456924
  0
LINE
  8
_0-0_
  6
CONTINUOUS
 62
    7
 10
759.09516684022503
 20
334.26867077688462
 11
844.9042801090319
 21
420.0777840456924
  0
LINE
  8
_0-0_
  6
CONTINUOUS
 62
    7
 10
907.19191446582238
 20
420.4314397868377
 11
907.19191446582238
 21
386.6814397868377
  0
LINE
  8
_0-0_
  6
CONTINUOUS
 62
    7
 10
907.19191446582238
 20
386.6814397868377
 11
873.44191446582238
 21
386.6814397868377
  0
LINE
  8
_0-0_
  6
CONTINUOUS
 62
    7
 10
873.44191446582238
 20
386.6814397868377
 11
873.44191446582238
 21
420.4314397868377
  0
LINE
  8
_0-0_
  6
CONTINUOUS
 62
    3
 10
873.44191446582238
 20
436.9527840456924
 11
873.44191446582238
 21
420.0777840456924
  0
LINE
  8
_0-0_
  6
CONTINUOUS
 62
    7
 10
1073.1504468372323
 20
414.63604013270856
 11
907.19191446582238
 21
420.4314397868377
  0
LINE
  8
_0-0_
  6
CONTINUOUS
 62
    4
 10
898.19191446582238
 20
400.1814397868377
 11
873.44191446582238
 21
400.1814397868377
  0
LINE
  8
_0-0_
  6
CONTINUOUS
 62
    4
 10
898.19191446582238
 20
434.25395556029912
 11
898.19191446582238
 21
400.1814397868377
  0
ARC
  8
_0-0_
  6
CONTINUOUS
 62
    2
 10
913.36695226393124
 20
688.25500705728632
 40
254.45395641205732
 50
260.97271697893774
 51
266.5809851959296
  0
LINE
  8
_0-0_
  6
CONTINUOUS
 62
    2
 10
894.90213334891007
 20
400.1814397868377
 11
898.19191446582238
 21
403.47122090375092
  0
LINE
  8
_0-0_
  6
CONTINUOUS
 62
    2
 10
888.53817231823007
 20
400.1814397868377
 11
898.19191446582238
 21
409.83518193443092
  0
LINE
  8
_0-0_
  6
CONTINUOUS
 62
    2
 10
882.17421128755007
 20
400.1814397868377
 11
898.19191446582238
 21
416.19914296511092
  0
LINE
  8
_0-0_
  6
CONTINUOUS
 62
    2
 10
875.81025025687188
 20
400.18143978683588
 11
898.19191446582238
 21
422.56310399578638
  0
LINE
  8
_0-0_
  6
CONTINUOUS
 62
    2
 10
873.44191446582056
 20
404.17706502646456
 11
898.19191446582238
 21
428.92706502646638
  0
LINE
  8
_0-0_
  6
CONTINUOUS
 62
    2
 10
873.4419144658242
 20
410.5410260571482
 11
897.21508889212885
 21
434.31420048345285
  0
LINE
  8
_0-0_
  6
CONTINUOUS
 62
    2
 10
873.44191446582238
 20
423.26894811850275
 11
885.50411485206871
 21
435.33114850474908
  0
LINE
  8
_0-0_
  6
CONTINUOUS
 62
    2
 10
873.44191446582056
 20
429.63290914918093
 11
879.82983943733882
 21
436.02083412069919
  0
LINE
  8
_0-0_
  6
CONTINUOUS
 62
    2
 10
873.44191446582056
 20
435.99687017986093
 11
874.2679803412758
 21
436.82293605531618
  0
LINE
  8
_0-0_
  6
CONTINUOUS
 62
    3
 10
742.22016684022321
 20
436.9527840456924
 11
742.22016684022321
 21
252.65735719276404
  0
LINE
  8
_0-0_
  6
CONTINUOUS
 62
    3
 10
759.09516684022321
 20
420.0777840456924
 11
759.09516684022321
 21
252.65735719276404
  0
CIRCLE
  8
_0-0_
  6
DASHED2
 62
    1
 10
1073.9254991561129
 20
1058.9922480620155
 40
67.350194333739935
  0
TEXT
  8
_0-0_
 62
    7
 10
1061.5090303863699
 20
1114.363304698619
 40
24
 41
1
 50
0
  1
Ｂ
  0
LINE
  8
_0-0_
  6
CONTINUOUS
 62
    7
 10
884.24025387602444
 20
415.67031022546666
 11
941.65834394223486
 21
515.12135949370827
  0
POINT
  8
_0-0_
 62
    7
 10
884.24025387602444
 20
415.67031022546666
  0
TEXT
  8
_0-0_
 62
    7
 10
943.97157890153278
 20
508.37830427547283
 40
21.617968000000001
 41
1
 50
0
  1
ｼｰﾘﾝｸﾞ
  0
TEXT
  8
_0-0_
 62
    7
 10
1285.7005863285476
 20
1152.9504726053292
 40
30
 41
1
 50
0
  1
防水層
  0
LINE
  8
_0-0_
  6
CONTINUOUS
 62
    4
 10
1029.9254991561129
 20
1259.7520630606389
 11
1029.9254991561129
 21
1061.9922480620155
  0
LINE
  8
_0-0_
  6
CONTINUOUS
 62
    4
 10
1029.9254991561129
 20
1061.9922480620155
 11
1523.9254991561129
 21
1061.9922480620155
  0
LINE
  8
_0-0_
  6
CONTINUOUS
 62
    7
 10
1216.8380563715555
 20
422.91945495405571
 11
1291.3616442759694
 21
497.44304285846874
  0
LINE
  8
_0-0_
  6
CONTINUOUS
 62
    7
 10
1216.8380563715555
 20
438.82935753075299
 11
1275.4517416992721
 21
497.44304285846874
  0
LINE
  8
_0-0_
  6
CONTINUOUS
 62
    7
 10
1216.8380563715555
 20
454.73926010744844
 11
1259.5418391225767
 21
497.44304285846874
  0
LINE
  8
_0-0_
  6
CONTINUOUS
 62
    7
 10
1306.2593947995438
 20
280.29209723262693
 11
1666.4309974189355
 21
280.29209723262693
  0
LINE
  8
_0-0_
  6
CONTINUOUS
 62
    7
 10
1502.109777843104
 20
199.07429397128953
 11
1583.3275811044396
 21
280.2920972326242
  0
LINE
  8
_0-0_
  6
CONTINUOUS
 62
    7
 10
1486.1998752664067
 20
199.07429397128953
 11
1567.4176785277423
 21
280.2920972326242
  0
LINE
  8
_0-0_
  6
CONTINUOUS
 62
    7
 10
1470.2899726897112
 20
199.07429397128953
 11
1551.5077759510486
 21
280.2920972326242
  0
LINE
  8
_0-0_
  6
CONTINUOUS
 62
    7
 10
1306.2593947995438
 20
280.29209723262693
 11
1306.2593947995438
 21
497.44304285846874
  0
LINE
  8
_0-0_
  6
CONTINUOUS
 62
    7
 10
1571.4943912164827
 20
280.29209723262693
 11
1602.8590992316394
 21
334.61736507944124
  0
POINT
  8
_0-0_
 62
    7
 10
1571.4943912164827
 20
280.29209723262693
  0
TEXT
  8
_0-0_
 62
    7
 10
1597.4538313435178
 20
335.97746291641602
 40
21.617968000000001
 41
1
 50
0
  1
ﾌﾟﾗｲﾏｰ
  0
LINE
  8
_0-0_
  6
CONTINUOUS
 62
    4
 10
1319.7593947995438
 20
497.44304285846874
 11
1319.7593947995438
 21
300.54209723262693
  0
LINE
  8
_0-0_
  6
CONTINUOUS
 62
    4
 10
1319.7593947995438
 20
300.54209723262693
 11
1666.4309974189355
 21
300.54209723262693
  0
LINE
  8
_0-0_
  6
CONTINUOUS
 62
    7
 10
1431.4313040523657
 20
289.29962678881429
 11
1494.8441850149438
 21
399.13395847031643
  0
TEXT
  8
_0-0_
 62
    7
 10
1498.704813840287
 20
389.70785035287645
 40
21.617968000000001
 41
1
 50
0
  1
ｳﾚﾀﾝ防水
  0
POINT
  8
_0-0_
 62
    7
 10
1431.4313040523657
 20
289.29962678881429
  0
LINE
  8
_0-0_
  6
CONTINUOUS
 62
    7
 10
1348.7660802008013
 20
300.54209723262693
 11
1440.0229512855949
 21
458.60363449125339
  0
POINT
  8
_0-0_
 62
    7
 10
1348.7660802008013
 20
300.54209723262693
  0
TEXT
  8
_0-0_
 62
    7
 10
1445.9904964691541
 20
449.45074337349342
 40
21.617968000000001
 41
1
 50
0
  1
ﾄｯﾌﾟｺｰﾄ
  0
LINE
  8
_0-0_
  6
CONTINUOUS
 62
    7
 10
1124.4670144048614
 20
439.4193768810805
 11
1084.8728068387275
 21
402.49718100199425
  0
POINT
  8
_0-0_
 62
    7
 10
1084.8728068387275
 20
402.49718100199425
  0
TEXT
  8
_0-0_
 62
    7
 10
1101.1833542781567
 20
440.32918547386288
 40
21.617968000000001
 41
1
 50
0
  1
面取り
  0
LINE
  8
_0-0_
  6
CONTINUOUS
 62
    7
 10
672.13606690525205
 20
1633.3565543671132
 11
1706.8525777203677
 21
1633.3565543671132
  0
LINE
  8
_0-0_
  6
CONTINUOUS
 62
    7
 10
672.13606690525205
 20
1553.3565543671132
 11
1706.8525777203677
 21
1553.3565543671132
  0
LINE
  8
_0-0_
  6
CONTINUOUS
 62
    7
 10
672.13606690525205
 20
1473.3565543671132
 11
1706.8525777203677
 21
1473.3565543671132
  0
LINE
  8
_0-0_
  6
CONTINUOUS
 62
    7
 10
1189.4943223128103
 20
1633.3565543671132
 11
1189.4943223128103
 21
1473.3565543671132
  0
TEXT
  8
_0-0_
 62
    7
 10
696.13606690525205
 20
1497.3565543671132
 40
20
 41
1
 50
0
  1
施工部位：パラペット(外壁タイル)
  0
TEXT
  8
_0-0_
 62
    7
 10
1213.4943223128103
 20
1577.3565543671132
 40
20
 41
1
 50
0
  1
構造：ＲＣ造
  0
TEXT
  8
_0-0_
 62
    7
 10
1213.4943223128103
 20
1497.3565543671132
 40
20
 41
1
 50
0
  1
下地：コンクリートスラブ
  0
TEXT
  8
_0-0_
 62
    7
 10
696.13606690525205
 20
1577.3565543671132
 40
20
 41
1
 50
0
  1
図面番号：UPM-10-para-02
  0
ENDSEC
  0
EOF
