  0
SECTION
  2
HEADER
  9
$ACADVER
  1
AC1009
  9
$INSBASE
 10
0
 20
0
 30
0
  9
$EXTMIN
 10
0
 20
0
  9
$EXTMAX
 10
2378
 20
1682
  9
$LIMMIN
 10
0
 20
0
  9
$LIMMAX
 10
2378
 20
1682
  9
$LTSCALE
 40
1
  0
ENDSEC
  0
SECTION
  2
TABLES
  0
TABLE
  2
LTYPE
 70
     9
  0
LTYPE
  2
CONTINUOUS
 70
    64
  3
実線
 72
    65
 73
     0
 40
0.0
  0
LTYPE
  2
DASHED1
 70
    64
  3
--  --  --  --  --  --  --  --  
 72
    65
 73
     2
 40
2.5
 49
1.25
 49
-1.25
  0
LTYPE
  2
DASHED2
 70
    64
  3
----    ----    ----    ----    
 72
    65
 73
     2
 40
5.0
 49
2.5
 49
-2.5
  0
LTYPE
  2
DASHED3
 70
    64
  3
------  ------  ------  ------  
 72
    65
 73
     2
 40
5.0
 49
3.75
 49
-1.25
  0
LTYPE
  2
CENTER1
 70
    64
  3
----- - ----- - ----- - ----- - 
 72
    65
 73
     4
 40
10.0
 49
6.25
 49
-1.25
 49
1.25
 49
-1.25
  0
LTYPE
  2
CENTER2
 70
    64
  3
----------  --  ----------  --  
 72
    65
 73
     4
 40
20.0
 49
12.5
 49
-2.5
 49
2.5
 49
-2.5
  0
LTYPE
  2
PHANTOM1
 70
    64
  3
--- - - --- - - --- - - --- - - 
 72
    65
 73
     6
 40
10.0
 49
3.25
 49
-1.25
 49
1.25
 49
-1.25
 49
1.25
 49
-1.25
  0
LTYPE
  2
PHANTOM2
 70
    64
  3
--------  -  -  --------  -  -  
 72
    65
 73
     6
 40
20.0
 49
10.0
 49
-2.5
 49
1.25
 49
-2.5
 49
1.25
 49
-2.5
  0
LTYPE
  2
DOT
 70
    64
  3
-   -   -   -   -   -   -   -   
 72
    65
 73
     2
 40
2.5
 49
0.625
 49
-1.875
  0
LTYPE
  2
DUMMY
 70
    64
  3
ダミー
 72
    65
 73
     0
 40
0.0
  0
LTYPE
  2
RAND1
 70
    64
  3
ランダム線1
 72
    65
 73
     4
 40
10.0
 49
1.0
 49
-2.0
 49
3.0
 49
-4.0
  0
LTYPE
  2
RAND2
 70
    64
  3
ランダム線2
 72
    65
 73
     4
 40
14.0
 49
2.0
 49
-3.0
 49
4.0
 49
-5.0
  0
LTYPE
  2
RAND3
 70
    64
  3
ランダム線3
 72
    65
 73
     4
 40
18.0
 49
3.0
 49
-4.0
 49
5.0
 49
-6.0
  0
LTYPE
  2
RAND4
 70
    64
  3
ランダム線4
 72
    65
 73
     4
 40
22.0
 49
4.0
 49
-5.0
 49
6.0
 49
-7.0
  0
LTYPE
  2
RAND5
 70
    64
  3
ランダム線5
 72
    65
 73
     4
 40
26.0
 49
5.0
 49
-6.0
 49
7.0
 49
-8.0
  0
LTYPE
  2
LONG1
 70
    64
  3
----------  --  ----------  --  
 72
    65
 73
     4
 40
40.0
 49
32.5
 49
-2.5
 49
2.5
 49
-2.5
  0
LTYPE
  2
LONG2
 70
    64
  3
--------  -  -  --------  -  -  
 72
    65
 73
     6
 40
40.0
 49
30.0
 49
-2.5
 49
1.25
 49
-2.5
 49
1.25
 49
-2.5
  0
LTYPE
  2
LONG3
 70
    64
  3
+++++++++++++++..+++++++++++++++
 72
    65
 73
     2
 40
40.0
 49
37.5
 49
-2.5
  0
LTYPE
  2
LONG4
 70
    64
  3
+++++++++++++++..+++++++++++++++
 72
    65
 73
     2
 40
80.0
 49
75.0
 49
-5.0
  0
LTYPE
  2
LONG5
 70
    64
  3
----------  --  ----------  --  
 72
    65
 73
     4
 40
60.0
 49
37.5
 49
-7.5
 49
7.5
 49
-7.5
  0
LTYPE
  2
dashed
 70
   64
  3
-------   -------------   ------
 72
   65
 73
    2
 40
7.5
 49
6
 49
-1.5
  0
LTYPE
  2
dashed_spaced
 70
   64
  3
----        --------        ----
 72
   65
 73
    2
 40
12
 49
6
 49
-6
  0
LTYPE
  2
long_dashed_dotted
 70
   64
  3
------------- --- --------------
 72
   65
 73
    4
 40
15.25
 49
12
 49
-1.5
 49
0.25
 49
-1.5
  0
LTYPE
  2
long_dashed_double-dotted
 70
   64
  3
----------- --- --- ------------
 72
   65
 73
    6
 40
17
 49
12
 49
-1.5
 49
0.25
 49
-1.5
 49
0.25
 49
-1.5
  0
LTYPE
  2
long_dashed_triplicate-dotted
 70
   64
  3
--------- --- --- --- ----------
 72
   65
 73
    8
 40
18.75
 49
12
 49
-1.5
 49
0.25
 49
-1.5
 49
0.25
 49
-1.5
 49
0.25
 49
-1.5
  0
LTYPE
  2
dotted
 70
   64
  3
   -       -       -       -    
 72
   65
 73
    2
 40
1.75
 49
0.25
 49
-1.5
  0
LTYPE
  2
chain
 70
   64
  3
-------------- -- --------------
 72
   65
 73
    4
 40
18.5
 49
12
 49
-1.5
 49
3.5
 49
-1.5
  0
LTYPE
  2
chain_double_dash
 70
   64
  3
------------ -- -- -------------
 72
   65
 73
    6
 40
23.5
 49
12
 49
-1.5
 49
3.5
 49
-1.5
 49
3.5
 49
-1.5
  0
LTYPE
  2
dashed_dotted
 70
   64
  3
-----------     -     ----------
 72
   65
 73
    4
 40
9.25
 49
6
 49
-1.5
 49
0.25
 49
-1.5
  0
LTYPE
  2
double-dashed_dotted
 70
   64
  3
------   -----------   -   -----
 72
   65
 73
    6
 40
16.75
 49
6
 49
-1.5
 49
6
 49
-1.5
 49
0.25
 49
-1.5
  0
LTYPE
  2
dashed_double-dotted
 70
   64
  3
---------    -    -    ---------
 72
   65
 73
    6
 40
11
 49
6
 49
-1.5
 49
0.25
 49
-1.5
 49
0.25
 49
-1.5
  0
LTYPE
  2
double-dashed_double-dotted
 70
   64
  3
-----   ---------   -   -   ----
 72
   65
 73
    8
 40
18.5
 49
6
 49
-1.5
 49
6
 49
-1.5
 49
0.25
 49
-1.5
 49
0.25
 49
-1.5
  0
LTYPE
  2
dashed_triplicate-dotted
 70
   64
  3
-------    -    -    -    ------
 72
   65
 73
    8
 40
12.75
 49
6
 49
-1.5
 49
0.25
 49
-1.5
 49
0.25
 49
-1.5
 49
0.25
 49
-1.5
  0
LTYPE
  2
double-dashed_triplicate-dotted
 70
   64
  3
-----  ---------  -  -  -  -----
 72
   65
 73
   10
 40
20.25
 49
6
 49
-1.5
 49
6
 49
-1.5
 49
0.25
 49
-1.5
 49
0.25
 49
-1.5
 49
0.25
 49
-1.5
  0
LTYPE
  2
undefined
 70
   64
  3
--------------------------------
 72
   65
 73
    0
 40
0
  0
ENDTAB
  0
TABLE
  2
STYLE
  5
3
100
AcDbSymbolTable
 70
     1
  0
STYLE
  5
10
100
AcDbSymbolTableRecord
100
AcDbTextStyleTableRecord
  2
STANDARD
 70
     0
 40
0.0
 41
1.0
 50
0.0
 71
     0
 42
0.2
  3
txt
  4
bigfont.shx
  0
STYLE
  5
26
100
AcDbSymbolTableRecord
100
AcDbTextStyleTableRecord
  2
TATEGAKI
 70
    68
 40
0.0
 41
1.0
 50
0.0
 71
     0
 42
1.0
  3
txt
  4
bigfont.shx
  0
ENDTAB
  0
TABLE
  2
LAYER
 70
    2
  0
LAYER
  2
_0-0_
 70
   64
 62
    7
  6
CONTINUOUS
  0
LAYER
  2
ADD_LINE
 70
   64
 62
    7
  6
CONTINUOUS
  0
ENDTAB
  0
ENDSEC
  0
SECTION
  2
BLOCKS
  0
ENDSEC
  0
SECTION
  2
ENTITIES
  0
LINE
  8
_0-0_
  6
CONTINUOUS
 62
    7
 10
1523.1585879596132
 20
744.25803850201851
 11
1308.7114099596147
 21
744.25803850201851
  0
LINE
  8
_0-0_
  6
CONTINUOUS
 62
    7
 10
672.13606690525205
 20
167.53106997205509
 11
1706.8525777203668
 21
167.53106997205509
  0
LINE
  8
_0-0_
  6
CONTINUOUS
 62
    7
 10
672.13606690525205
 20
1633.3565543671132
 11
672.13606690525205
 21
167.53106997205509
  0
LINE
  8
_0-0_
  6
CONTINUOUS
 62
    7
 10
1706.8525777203668
 20
1633.3565543671132
 11
1706.8525777203668
 21
167.53106997205509
  0
LINE
  8
_0-0_
  6
CONTINUOUS
 62
    7
 10
1062.036571677414
 20
963.96439150201809
 11
1062.036571677414
 21
953.96439150201809
  0
LINE
  8
_0-0_
  6
CONTINUOUS
 62
    2
 10
1127.4196184519988
 20
943.96439150201809
 11
1137.4196184519969
 21
953.964391502019
  0
LINE
  8
_0-0_
  6
CONTINUOUS
 62
    7
 10
1051.4299699596158
 20
927.3577897842199
 11
1051.4299699596158
 21
744.25803850201851
  0
LINE
  8
_0-0_
  6
CONTINUOUS
 62
    7
 10
1418.5237776748581
 20
753.07305004607883
 11
1478.281722665437
 21
856.5768469256675
  0
POINT
  8
_0-0_
 62
    7
 10
1418.5237776748581
 20
753.07305004607883
  0
LINE
  8
_0-0_
  6
CONTINUOUS
 62
    7
 10
1263.8917420716061
 20
564.25803850201851
 11
1443.8917420716061
 21
744.2580385020176
  0
LINE
  8
_0-0_
  6
CONTINUOUS
 62
    7
 10
1256.8206742597395
 20
564.2580385020176
 11
1436.8206742597395
 21
744.25803850201851
  0
LINE
  8
_0-0_
  6
CONTINUOUS
 62
    7
 10
1249.7496064478764
 20
564.25803850201851
 11
1429.7496064478764
 21
744.25803850201851
  0
LINE
  8
_0-0_
  6
CONTINUOUS
 62
    7
 10
1476.0237764275735
 20
564.25803850201851
 11
1523.1585879596132
 21
611.39285003406189
  0
LINE
  8
_0-0_
  6
CONTINUOUS
 62
    7
 10
1483.0948442394365
 20
564.25803850201942
 11
1523.1585879596132
 21
604.32178222219613
  0
LINE
  8
_0-0_
  6
CONTINUOUS
 62
    7
 10
1490.1659120512995
 20
564.25803850201669
 11
1523.1585879596132
 21
597.25071441033128
  0
LINE
  8
_0-0_
  6
CONTINUOUS
 62
    7
 10
1051.4299699596158
 20
744.25803850201851
 11
820.41859295961342
 21
744.25803850201851
  0
LINE
  8
_0-0_
  6
CONTINUOUS
 62
    7
 10
820.41859295961342
 20
587.47536497314672
 11
977.20126648848611
 21
744.25803850201851
  0
LINE
  8
_0-0_
  6
CONTINUOUS
 62
    7
 10
1051.4299699596158
 20
818.48674197314745
 11
1170.9076194884838
 21
937.96439150201809
  0
LINE
  8
_0-0_
  6
CONTINUOUS
 62
    7
 10
820.41859295961342
 20
580.40429716128187
 11
984.27233430035096
 21
744.25803850201851
  0
LINE
  8
_0-0_
  6
CONTINUOUS
 62
    7
 10
1051.4299699596158
 20
811.4156741612826
 11
1177.9786873003504
 21
937.96439150201809
  0
LINE
  8
_0-0_
  6
CONTINUOUS
 62
    7
 10
820.41859295961342
 20
573.33322934941702
 11
991.34340211221581
 21
744.25803850201851
  0
LINE
  8
_0-0_
  6
CONTINUOUS
 62
    7
 10
1051.4299699596158
 20
804.34460634941684
 11
1185.0497551122171
 21
937.96439150201809
  0
LINE
  8
_0-0_
  6
CONTINUOUS
 62
    7
 10
1023.4754364681795
 20
564.2580385020176
 11
1308.7114099596147
 21
849.49401199345107
  0
LINE
  8
_0-0_
  6
CONTINUOUS
 62
    7
 10
1030.5465042800461
 20
564.25803850201942
 11
1308.7114099596147
 21
842.42294418158622
  0
LINE
  8
_0-0_
  6
CONTINUOUS
 62
    7
 10
1037.6175720919109
 20
564.25803850201851
 11
1308.7114099596147
 21
835.35187636972137
  0
LINE
  8
_0-0_
  6
CONTINUOUS
 62
    7
 10
1062.036571677414
 20
937.96439150201809
 11
1051.4299699596158
 21
927.3577897842199
  0
LINE
  8
_0-0_
  6
CONTINUOUS
 62
    7
 10
1308.7114099596147
 20
927.3577897842199
 11
1308.7114099596147
 21
744.25803850201851
  0
LINE
  8
_0-0_
  6
CONTINUOUS
 62
    7
 10
1298.1048082418165
 20
937.96439150201809
 11
1308.7114099596147
 21
927.3577897842199
  0
LINE
  8
_0-0_
  6
CONTINUOUS
 62
    4
 10
1300.5900896160529
 20
943.96439150201809
 11
1314.7114099596147
 21
929.84307115845809
  0
LINE
  8
_0-0_
  6
CONTINUOUS
 62
    4
 10
1059.551290303174
 20
943.96439150201809
 11
1045.4299699596158
 21
929.84307115845809
  0
ARC
  8
_0-0_
  6
CONTINUOUS
 62
    4
 10
1140.0706899596153
 20
953.96439150201809
 40
10
 50
270
 51
0
  0
ARC
  8
_0-0_
  6
CONTINUOUS
 62
    4
 10
1220.0706899596153
 20
953.96439150201809
 40
10
 50
180
 51
270
  0
LINE
  8
_0-0_
  6
CONTINUOUS
 62
    7
 10
1298.1048082418165
 20
963.96439150201809
 11
1298.1048082418165
 21
953.96439150201809
  0
LINE
  8
_0-0_
  6
CONTINUOUS
 62
    7
 10
1150.0706899596153
 20
937.96439150201809
 11
1150.0706899596153
 21
953.96439150201809
  0
LINE
  8
_0-0_
  6
CONTINUOUS
 62
    7
 10
1210.0706899596153
 20
937.96439150201809
 11
1210.0706899596153
 21
953.96439150201809
  0
ARC
  8
_0-0_
  6
CONTINUOUS
 62
    2
 10
1045.4299699596158
 20
952.78276812042463
 40
16.648587160161849
 50
328.01635454645526
 51
4.0699550833350946
  0
ARC
  8
_0-0_
  6
CONTINUOUS
 62
    2
 10
1314.7114099596147
 20
952.78276812042463
 40
16.648587160161849
 50
175.93004491666491
 51
211.98364545354471
  0
LINE
  8
_0-0_
  6
CONTINUOUS
 62
    1
 10
1093.9503299596145
 20
966.04439150201893
 11
1122.5503299596148
 21
966.04439150201893
  0
LINE
  8
_0-0_
  6
CONTINUOUS
 62
    1
 10
1119.300329959613
 20
986.84439150201638
 11
1097.2003299596145
 21
986.84439150201638
  0
LINE
  8
_0-0_
  6
CONTINUOUS
 62
    1
 10
1115.0753299596145
 20
963.96439150201809
 11
1115.0753299596145
 21
966.04439150201893
  0
LINE
  8
_0-0_
  6
CONTINUOUS
 62
    1
 10
1122.5503299596148
 20
966.04439150201893
 11
1122.5503299596148
 21
963.96439150201809
  0
LINE
  8
_0-0_
  6
CONTINUOUS
 62
    1
 10
1122.5503299596148
 20
963.96439150201809
 11
1093.9503299596145
 21
963.96439150201809
  0
LINE
  8
_0-0_
  6
CONTINUOUS
 62
    1
 10
1101.4253299596148
 20
963.96439150201809
 11
1101.4253299596148
 21
966.04439150201893
  0
LINE
  8
_0-0_
  6
CONTINUOUS
 62
    1
 10
1093.9503299596145
 20
966.04439150201893
 11
1093.9503299596145
 21
963.96439150201809
  0
LINE
  8
_0-0_
  6
CONTINUOUS
 62
    1
 10
1121.0097709087022
 20
985.85744530989473
 11
1095.4908890105235
 21
985.85744530989473
  0
LINE
  8
_0-0_
  6
CONTINUOUS
 62
    1
 10
1097.2003299596145
 20
986.84439150201638
 11
1095.4908890105235
 21
985.85744530989473
  0
LINE
  8
_0-0_
  6
CONTINUOUS
 62
    1
 10
1095.4908890105235
 20
985.85744530989473
 11
1095.4908890105235
 21
976.44439150201765
  0
LINE
  8
_0-0_
  6
CONTINUOUS
 62
    1
 10
1121.0097709087022
 20
985.85744530989473
 11
1119.300329959613
 21
986.84439150201638
  0
LINE
  8
_0-0_
  6
CONTINUOUS
 62
    1
 10
1121.0097709087022
 20
976.44439150201765
 11
1121.0097709087022
 21
985.85744530989473
  0
LINE
  8
_0-0_
  6
CONTINUOUS
 62
    1
 10
1095.4908890105216
 20
976.44439150201765
 11
1121.0097709087022
 21
976.44439150201765
  0
LINE
  8
_0-0_
  6
CONTINUOUS
 62
    1
 10
1112.6300504341598
 20
976.44439150201765
 11
1112.6300504341598
 21
985.85744530989473
  0
LINE
  8
_0-0_
  6
CONTINUOUS
 62
    1
 10
1099.8706094850677
 20
985.85744530989473
 11
1097.2003299596145
 21
986.84439150201638
  0
LINE
  8
_0-0_
  6
CONTINUOUS
 62
    1
 10
1112.6300504341598
 20
985.85744530989473
 11
1119.300329959613
 21
986.84439150201638
  0
LINE
  8
_0-0_
  6
CONTINUOUS
 62
    1
 10
1099.8706094850677
 20
985.85744530989473
 11
1099.8706094850677
 21
976.44439150201765
  0
ARC
  8
_0-0_
  6
CONTINUOUS
 62
    1
 10
1106.2503299596137
 20
965.73133769413766
 40
21.113053807878593
 50
72.412046226006396
 51
107.5879537739936
  0
ARC
  8
_0-0_
  6
CONTINUOUS
 62
    1
 10
1106.2503299596137
 20
965.73133769414585
 40
21.113053807870138
 50
72.412046225996733
 51
107.58795377400018
  0
LINE
  8
_0-0_
  6
CONTINUOUS
 62
    1
 10
1097.2003299596145
 20
976.44439150201765
 11
1119.3003299596148
 21
976.44439150201765
  0
LINE
  8
_0-0_
  6
CONTINUOUS
 62
    1
 10
1097.2003299596145
 20
966.04439150201893
 11
1119.300329959613
 21
966.04439150201893
  0
LINE
  8
_0-0_
  6
CONTINUOUS
 62
    1
 10
1095.4908890105253
 20
975.457445309896
 11
1121.0097709087058
 21
975.457445309896
  0
LINE
  8
_0-0_
  6
CONTINUOUS
 62
    1
 10
1119.3003299596148
 20
976.44439150201765
 11
1121.0097709087058
 21
975.457445309896
  0
LINE
  8
_0-0_
  6
CONTINUOUS
 62
    1
 10
1121.0097709087058
 20
975.457445309896
 11
1121.0097709087058
 21
966.04439150201893
  0
LINE
  8
_0-0_
  6
CONTINUOUS
 62
    1
 10
1095.4908890105253
 20
975.457445309896
 11
1097.2003299596145
 21
976.44439150201765
  0
LINE
  8
_0-0_
  6
CONTINUOUS
 62
    1
 10
1095.4908890105253
 20
966.04439150201893
 11
1095.4908890105253
 21
975.457445309896
  0
LINE
  8
_0-0_
  6
CONTINUOUS
 62
    1
 10
1121.0097709087058
 20
966.04439150201893
 11
1095.4908890105253
 21
966.04439150201893
  0
LINE
  8
_0-0_
  6
CONTINUOUS
 62
    1
 10
1103.8706094850677
 20
966.04439150201893
 11
1103.8706094850677
 21
975.457445309896
  0
LINE
  8
_0-0_
  6
CONTINUOUS
 62
    1
 10
1116.6300504341598
 20
975.457445309896
 11
1119.3003299596148
 21
976.44439150201765
  0
LINE
  8
_0-0_
  6
CONTINUOUS
 62
    1
 10
1103.8706094850677
 20
975.457445309896
 11
1097.2003299596145
 21
976.44439150201765
  0
LINE
  8
_0-0_
  6
CONTINUOUS
 62
    1
 10
1116.6300504341598
 20
975.457445309896
 11
1116.6300504341598
 21
966.04439150201893
  0
ARC
  8
_0-0_
  6
CONTINUOUS
 62
    1
 10
1110.2503299596137
 20
955.33133769413894
 40
21.113053807878593
 50
72.412046226006396
 51
107.5879537739936
  0
ARC
  8
_0-0_
  6
CONTINUOUS
 62
    1
 10
1110.2503299596137
 20
955.33133769414712
 40
21.113053807870138
 50
72.412046225999816
 51
107.58795377400327
  0
LINE
  8
_0-0_
  6
CONTINUOUS
 62
    1
 10
1101.7503299596137
 20
993.27797189275248
 11
1114.7503299596137
 21
993.27797189275248
  0
LINE
  8
_0-0_
  6
CONTINUOUS
 62
    1
 10
1113.7103299596147
 20
994.31797189275335
 11
1113.7103299596147
 21
986.84439150201638
  0
LINE
  8
_0-0_
  6
CONTINUOUS
 62
    1
 10
1114.7503299596137
 20
986.84439150201638
 11
1114.7503299596137
 21
993.27797189275248
  0
LINE
  8
_0-0_
  6
CONTINUOUS
 62
    1
 10
1114.7503299596137
 20
993.27797189275248
 11
1112.8003299596148
 21
995.2279718927532
  0
LINE
  8
_0-0_
  6
CONTINUOUS
 62
    1
 10
1112.8003299596148
 20
995.2279718927532
 11
1103.7003299596145
 21
995.2279718927532
  0
LINE
  8
_0-0_
  6
CONTINUOUS
 62
    1
 10
1103.7003299596145
 20
995.2279718927532
 11
1101.7503299596137
 21
993.27797189275248
  0
LINE
  8
_0-0_
  6
CONTINUOUS
 62
    1
 10
1101.7503299596137
 20
993.27797189275248
 11
1101.7503299596137
 21
986.84439150201638
  0
LINE
  8
_0-0_
  6
CONTINUOUS
 62
    1
 10
1102.7903299596146
 20
994.31797189275335
 11
1102.7903299596146
 21
986.84439150201638
  0
LINE
  8
_0-0_
  6
CONTINUOUS
 62
    1
 10
1101.7503299596137
 20
987.12900406409176
 11
1114.7503299596137
 21
988.26635668992844
  0
LINE
  8
_0-0_
  6
CONTINUOUS
 62
    1
 10
1101.7503299596137
 20
989.13664373917914
 11
1114.7503299596137
 21
990.27399636501582
  0
LINE
  8
_0-0_
  6
CONTINUOUS
 62
    1
 10
1101.7503299596137
 20
991.14428341426469
 11
1114.7503299596137
 21
992.28163604010228
  0
LINE
  8
_0-0_
  6
CONTINUOUS
 62
    1
 10
1101.7503299596137
 20
993.15192308935116
 11
1113.8203857161898
 21
994.20791613617735
  0
LINE
  8
_0-0_
  6
CONTINUOUS
 62
    1
 10
1237.5910499596139
 20
966.04439150201893
 11
1266.1910499596161
 21
966.04439150201893
  0
LINE
  8
_0-0_
  6
CONTINUOUS
 62
    1
 10
1262.9410499596124
 20
986.84439150201638
 11
1240.8410499596139
 21
986.84439150201638
  0
LINE
  8
_0-0_
  6
CONTINUOUS
 62
    1
 10
1258.7160499596139
 20
963.96439150201809
 11
1258.7160499596139
 21
966.04439150201893
  0
LINE
  8
_0-0_
  6
CONTINUOUS
 62
    1
 10
1266.1910499596161
 20
966.04439150201893
 11
1266.1910499596161
 21
963.96439150201809
  0
LINE
  8
_0-0_
  6
CONTINUOUS
 62
    1
 10
1266.1910499596161
 20
963.96439150201809
 11
1237.5910499596139
 21
963.96439150201809
  0
LINE
  8
_0-0_
  6
CONTINUOUS
 62
    1
 10
1245.0660499596161
 20
963.96439150201809
 11
1245.0660499596161
 21
966.04439150201893
  0
LINE
  8
_0-0_
  6
CONTINUOUS
 62
    1
 10
1237.5910499596139
 20
966.04439150201893
 11
1237.5910499596139
 21
963.96439150201809
  0
LINE
  8
_0-0_
  6
CONTINUOUS
 62
    1
 10
1264.6504909087016
 20
985.85744530989473
 11
1239.1316090105247
 21
985.85744530989473
  0
LINE
  8
_0-0_
  6
CONTINUOUS
 62
    1
 10
1240.8410499596139
 20
986.84439150201638
 11
1239.1316090105247
 21
985.85744530989473
  0
LINE
  8
_0-0_
  6
CONTINUOUS
 62
    1
 10
1239.1316090105247
 20
985.85744530989473
 11
1239.1316090105247
 21
976.44439150201765
  0
LINE
  8
_0-0_
  6
CONTINUOUS
 62
    1
 10
1264.6504909087016
 20
985.85744530989473
 11
1262.9410499596124
 21
986.84439150201638
  0
LINE
  8
_0-0_
  6
CONTINUOUS
 62
    1
 10
1264.6504909087016
 20
976.44439150201765
 11
1264.6504909087016
 21
985.85744530989473
  0
LINE
  8
_0-0_
  6
CONTINUOUS
 62
    1
 10
1239.1316090105211
 20
976.44439150201765
 11
1264.6504909087016
 21
976.44439150201765
  0
LINE
  8
_0-0_
  6
CONTINUOUS
 62
    1
 10
1256.2707704341592
 20
976.44439150201765
 11
1256.2707704341592
 21
985.85744530989473
  0
LINE
  8
_0-0_
  6
CONTINUOUS
 62
    1
 10
1243.5113294850671
 20
985.85744530989473
 11
1240.8410499596139
 21
986.84439150201638
  0
LINE
  8
_0-0_
  6
CONTINUOUS
 62
    1
 10
1256.2707704341592
 20
985.85744530989473
 11
1262.9410499596124
 21
986.84439150201638
  0
LINE
  8
_0-0_
  6
CONTINUOUS
 62
    1
 10
1243.5113294850671
 20
985.85744530989473
 11
1243.5113294850671
 21
976.44439150201765
  0
ARC
  8
_0-0_
  6
CONTINUOUS
 62
    1
 10
1249.8910499596132
 20
965.73133769413766
 40
21.113053807878593
 50
72.412046226006396
 51
107.5879537739936
  0
ARC
  8
_0-0_
  6
CONTINUOUS
 62
    1
 10
1249.8910499596132
 20
965.73133769414585
 40
21.113053807870138
 50
72.412046225996733
 51
107.58795377400018
  0
LINE
  8
_0-0_
  6
CONTINUOUS
 62
    1
 10
1240.8410499596139
 20
976.44439150201765
 11
1262.9410499596161
 21
976.44439150201765
  0
LINE
  8
_0-0_
  6
CONTINUOUS
 62
    1
 10
1240.8410499596139
 20
966.04439150201893
 11
1262.9410499596124
 21
966.04439150201893
  0
LINE
  8
_0-0_
  6
CONTINUOUS
 62
    1
 10
1239.1316090105247
 20
975.457445309896
 11
1264.6504909087053
 21
975.457445309896
  0
LINE
  8
_0-0_
  6
CONTINUOUS
 62
    1
 10
1262.9410499596161
 20
976.44439150201765
 11
1264.6504909087053
 21
975.457445309896
  0
LINE
  8
_0-0_
  6
CONTINUOUS
 62
    1
 10
1264.6504909087053
 20
975.457445309896
 11
1264.6504909087053
 21
966.04439150201893
  0
LINE
  8
_0-0_
  6
CONTINUOUS
 62
    1
 10
1239.1316090105247
 20
975.457445309896
 11
1240.8410499596139
 21
976.44439150201765
  0
LINE
  8
_0-0_
  6
CONTINUOUS
 62
    1
 10
1239.1316090105247
 20
966.04439150201893
 11
1239.1316090105247
 21
975.457445309896
  0
LINE
  8
_0-0_
  6
CONTINUOUS
 62
    1
 10
1264.6504909087053
 20
966.04439150201893
 11
1239.1316090105247
 21
966.04439150201893
  0
LINE
  8
_0-0_
  6
CONTINUOUS
 62
    1
 10
1247.5113294850671
 20
966.04439150201893
 11
1247.5113294850671
 21
975.457445309896
  0
LINE
  8
_0-0_
  6
CONTINUOUS
 62
    1
 10
1260.2707704341592
 20
975.457445309896
 11
1262.9410499596161
 21
976.44439150201765
  0
LINE
  8
_0-0_
  6
CONTINUOUS
 62
    1
 10
1247.5113294850671
 20
975.457445309896
 11
1240.8410499596139
 21
976.44439150201765
  0
LINE
  8
_0-0_
  6
CONTINUOUS
 62
    1
 10
1260.2707704341592
 20
975.457445309896
 11
1260.2707704341592
 21
966.04439150201893
  0
ARC
  8
_0-0_
  6
CONTINUOUS
 62
    1
 10
1253.8910499596132
 20
955.33133769413894
 40
21.113053807878593
 50
72.412046226006396
 51
107.5879537739936
  0
ARC
  8
_0-0_
  6
CONTINUOUS
 62
    1
 10
1253.8910499596132
 20
955.33133769414712
 40
21.113053807870138
 50
72.412046225999816
 51
107.58795377400327
  0
LINE
  8
_0-0_
  6
CONTINUOUS
 62
    1
 10
1245.3910499596132
 20
993.27797189275248
 11
1258.3910499596132
 21
993.27797189275248
  0
LINE
  8
_0-0_
  6
CONTINUOUS
 62
    1
 10
1257.3510499596159
 20
994.31797189275335
 11
1257.3510499596159
 21
986.84439150201638
  0
LINE
  8
_0-0_
  6
CONTINUOUS
 62
    1
 10
1258.3910499596132
 20
986.84439150201638
 11
1258.3910499596132
 21
993.27797189275248
  0
LINE
  8
_0-0_
  6
CONTINUOUS
 62
    1
 10
1258.3910499596132
 20
993.27797189275248
 11
1256.4410499596161
 21
995.2279718927532
  0
LINE
  8
_0-0_
  6
CONTINUOUS
 62
    1
 10
1256.4410499596161
 20
995.2279718927532
 11
1247.3410499596139
 21
995.2279718927532
  0
LINE
  8
_0-0_
  6
CONTINUOUS
 62
    1
 10
1247.3410499596139
 20
995.2279718927532
 11
1245.3910499596132
 21
993.27797189275248
  0
LINE
  8
_0-0_
  6
CONTINUOUS
 62
    1
 10
1245.3910499596132
 20
993.27797189275248
 11
1245.3910499596132
 21
986.84439150201638
  0
LINE
  8
_0-0_
  6
CONTINUOUS
 62
    1
 10
1246.431049959614
 20
994.31797189275335
 11
1246.431049959614
 21
986.84439150201638
  0
LINE
  8
_0-0_
  6
CONTINUOUS
 62
    1
 10
1245.3910499596132
 20
987.12900406409176
 11
1258.3910499596132
 21
988.26635668992844
  0
LINE
  8
_0-0_
  6
CONTINUOUS
 62
    1
 10
1245.3910499596132
 20
989.13664373917914
 11
1258.3910499596132
 21
990.27399636501582
  0
LINE
  8
_0-0_
  6
CONTINUOUS
 62
    1
 10
1245.3910499596132
 20
991.14428341426469
 11
1258.3910499596132
 21
992.28163604010228
  0
LINE
  8
_0-0_
  6
CONTINUOUS
 62
    1
 10
1245.3910499596132
 20
993.15192308935116
 11
1257.4611057161892
 21
994.20791613617735
  0
LINE
  8
_0-0_
  6
CONTINUOUS
 62
    7
 10
1092.0900759217693
 20
937.96439150201809
 11
1100.7503299596137
 21
922.96439150201809
  0
LINE
  8
_0-0_
  6
CONTINUOUS
 62
    7
 10
1100.7503299596137
 20
922.96439150201809
 11
1115.7503299596137
 21
922.96439150201809
  0
LINE
  8
_0-0_
  6
CONTINUOUS
 62
    7
 10
1115.7503299596137
 20
922.96439150201809
 11
1124.4105839974582
 21
937.96439150201809
  0
LINE
  8
_0-0_
  6
CONTINUOUS
 62
    7
 10
1235.7307959217687
 20
937.96439150201809
 11
1244.3910499596132
 21
922.96439150201809
  0
LINE
  8
_0-0_
  6
CONTINUOUS
 62
    7
 10
1259.3910499596132
 20
922.96439150201809
 11
1268.0513039974576
 21
937.96439150201809
  0
LINE
  8
_0-0_
  6
CONTINUOUS
 62
    7
 10
1092.0900759217693
 20
937.96439150201809
 11
1062.036571677414
 21
937.96439150201809
  0
LINE
  8
_0-0_
  6
CONTINUOUS
 62
    7
 10
1298.1048082418165
 20
937.96439150201809
 11
1268.0513039974576
 21
937.96439150201809
  0
LINE
  8
_0-0_
  6
CONTINUOUS
 62
    7
 10
1235.7307959217687
 20
937.96439150201809
 11
1124.4105839974582
 21
937.96439150201809
  0
LINE
  8
_0-0_
  6
CONTINUOUS
 62
    2
 10
1141.6944673707003
 20
944.09710479698811
 11
1149.9379766646452
 21
952.34061409093306
  0
LINE
  8
_0-0_
  6
CONTINUOUS
 62
    2
 10
1138.73332695098
 20
943.96439150201718
 11
1148.73332695098
 21
953.96439150201718
  0
LINE
  8
_0-0_
  6
CONTINUOUS
 62
    2
 10
1135.9048998262369
 20
943.96439150201718
 11
1145.9048998262369
 21
953.96439150201809
  0
LINE
  8
_0-0_
  6
CONTINUOUS
 62
    2
 10
1133.0764727014903
 20
943.964391502019
 11
1143.0764727014903
 21
953.96439150201718
  0
LINE
  8
_0-0_
  6
CONTINUOUS
 62
    2
 10
1130.2480455767436
 20
943.96439150201718
 11
1140.2480455767436
 21
953.96439150201718
  0
LINE
  8
_0-0_
  6
CONTINUOUS
 62
    2
 10
1124.5911913272503
 20
943.96439150201718
 11
1134.5911913272503
 21
953.96439150201809
  0
LINE
  8
_0-0_
  6
CONTINUOUS
 62
    2
 10
1121.7627642025036
 20
943.96439150201809
 11
1131.7627642025036
 21
953.96439150201809
  0
LINE
  8
_0-0_
  6
CONTINUOUS
 62
    2
 10
1084.9932115808042
 20
943.96439150201809
 11
1094.993211580806
 21
953.964391502019
  0
LINE
  8
_0-0_
  6
CONTINUOUS
 62
    2
 10
1082.1647844560594
 20
943.964391502019
 11
1092.1647844560575
 21
953.96439150201809
  0
LINE
  8
_0-0_
  6
CONTINUOUS
 62
    2
 10
1079.3363573313109
 20
943.96439150201809
 11
1089.3363573313109
 21
953.96439150201809
  0
LINE
  8
_0-0_
  6
CONTINUOUS
 62
    2
 10
1076.507930206566
 20
943.96439150201718
 11
1086.507930206566
 21
953.96439150201718
  0
LINE
  8
_0-0_
  6
CONTINUOUS
 62
    2
 10
1073.6795030818212
 20
943.96439150201809
 11
1083.6795030818212
 21
953.964391502019
  0
LINE
  8
_0-0_
  6
CONTINUOUS
 62
    2
 10
1070.8510759570745
 20
943.964391502019
 11
1080.8510759570745
 21
953.964391502019
  0
LINE
  8
_0-0_
  6
CONTINUOUS
 62
    2
 10
1068.022648832326
 20
943.96439150201627
 11
1078.0226488323278
 21
953.96439150201809
  0
LINE
  8
_0-0_
  6
CONTINUOUS
 62
    2
 10
1065.1942217075812
 20
943.96439150201809
 11
1075.1942217075812
 21
953.96439150201718
  0
LINE
  8
_0-0_
  6
CONTINUOUS
 62
    2
 10
1062.3657945828345
 20
943.96439150201627
 11
1072.3657945828345
 21
953.96439150201809
  0
LINE
  8
_0-0_
  6
CONTINUOUS
 62
    2
 10
1059.5742647640345
 20
944.00128880796387
 11
1069.5373674580878
 21
953.96439150201627
  0
LINE
  8
_0-0_
  6
CONTINUOUS
 62
    2
 10
1061.6114966403093
 20
948.86694780898347
 11
1066.7089403333412
 21
953.96439150201627
  0
LINE
  8
_0-0_
  6
CONTINUOUS
 62
    2
 10
1062.0665439182521
 20
952.15042221167209
 11
1063.8805132085945
 21
953.96439150201627
  0
LINE
  8
_0-0_
  6
CONTINUOUS
 62
    2
 10
1299.9536730615146
 20
943.96439150201809
 11
1300.350122071879
 21
944.36084051238254
  0
LINE
  8
_0-0_
  6
CONTINUOUS
 62
    2
 10
1297.1252459367679
 20
943.96439150201718
 11
1299.4018948461235
 21
946.24104041137457
  0
LINE
  8
_0-0_
  6
CONTINUOUS
 62
    2
 10
1294.2968188120212
 20
943.96439150201809
 11
1298.6678315314748
 21
948.33540422147257
  0
LINE
  8
_0-0_
  6
CONTINUOUS
 62
    2
 10
1291.4683916872746
 20
943.96439150201718
 11
1298.1947806949574
 21
950.69078050969915
  0
LINE
  8
_0-0_
  6
CONTINUOUS
 62
    2
 10
1288.6399645625315
 20
943.964391502019
 11
1298.0742181912356
 21
953.39864513072303
  0
LINE
  8
_0-0_
  6
CONTINUOUS
 62
    2
 10
1285.8115374377849
 20
943.964391502019
 11
1295.8115374377849
 21
953.96439150201809
  0
LINE
  8
_0-0_
  6
CONTINUOUS
 62
    2
 10
1282.9831103130346
 20
943.96439150201627
 11
1292.9831103130382
 21
953.96439150201809
  0
LINE
  8
_0-0_
  6
CONTINUOUS
 62
    2
 10
1280.1546831882915
 20
943.96439150201809
 11
1290.1546831882915
 21
953.96439150201718
  0
LINE
  8
_0-0_
  6
CONTINUOUS
 62
    2
 10
1277.3262560635449
 20
943.96439150201718
 11
1287.3262560635449
 21
953.96439150201809
  0
LINE
  8
_0-0_
  6
CONTINUOUS
 62
    2
 10
1274.4978289387982
 20
943.96439150201627
 11
1284.4978289387982
 21
953.96439150201627
  0
LINE
  8
_0-0_
  6
CONTINUOUS
 62
    2
 10
1271.6694018140515
 20
943.96439150201536
 11
1281.6694018140515
 21
953.96439150201627
  0
LINE
  8
_0-0_
  6
CONTINUOUS
 62
    2
 10
1268.8409746893049
 20
943.96439150201536
 11
1278.8409746893049
 21
953.96439150201627
  0
LINE
  8
_0-0_
  6
CONTINUOUS
 62
    2
 10
1266.0125475645618
 20
943.964391502019
 11
1276.0125475645618
 21
953.96439150201809
  0
LINE
  8
_0-0_
  6
CONTINUOUS
 62
    2
 10
1263.1841204398152
 20
943.964391502019
 11
1273.1841204398152
 21
953.96439150201809
  0
LINE
  8
_0-0_
  6
CONTINUOUS
 62
    2
 10
1229.2429949428588
 20
943.96439150201536
 11
1239.2429949428588
 21
953.96439150201627
  0
LINE
  8
_0-0_
  6
CONTINUOUS
 62
    2
 10
1226.4145678181121
 20
943.96439150201536
 11
1236.4145678181121
 21
953.96439150201627
  0
LINE
  8
_0-0_
  6
CONTINUOUS
 62
    2
 10
1223.5861406933691
 20
943.964391502019
 11
1233.5861406933691
 21
953.96439150201809
  0
LINE
  8
_0-0_
  6
CONTINUOUS
 62
    2
 10
1220.7577135686224
 20
943.96439150201718
 11
1230.7577135686224
 21
953.96439150201809
  0
LINE
  8
_0-0_
  6
CONTINUOUS
 62
    2
 10
1218.1211604848977
 20
944.15626554304004
 11
1227.9292864438758
 21
953.96439150201809
  0
LINE
  8
_0-0_
  6
CONTINUOUS
 62
    2
 10
1215.9771175099959
 20
944.84064969288579
 11
1225.1008593191291
 21
953.96439150201718
  0
LINE
  8
_0-0_
  6
CONTINUOUS
 62
    2
 10
1214.1867144227836
 20
945.87867373042013
 11
1222.2724321943824
 21
953.96439150201809
  0
LINE
  8
_0-0_
  6
CONTINUOUS
 62
    2
 10
1212.6932257353692
 20
947.21361216775153
 11
1219.4440050696358
 21
953.96439150201809
  0
LINE
  8
_0-0_
  6
CONTINUOUS
 62
    2
 10
1211.4863453277285
 20
948.83515888485658
 11
1216.6155779448891
 21
953.96439150201809
  0
LINE
  8
_0-0_
  6
CONTINUOUS
 62
    2
 10
1210.594152519574
 20
950.77139320144602
 11
1213.7871508201424
 21
953.96439150201718
  0
LINE
  8
_0-0_
  6
CONTINUOUS
 62
    2
 10
1210.1070254667029
 20
953.11269327332252
 11
1210.9587236953994
 21
953.96439150201809
  0
LINE
  8
_0-0_
  6
CONTINUOUS
 62
    7
 10
1244.3910499596132
 20
922.96439150201809
 11
1259.3910499596132
 21
922.96439150201809
  0
LINE
  8
_0-0_
  6
CONTINUOUS
 62
    1
 10
1244.3910499596132
 20
953.96439150201809
 11
1246.431049959614
 21
953.96439150201809
  0
LINE
  8
_0-0_
  6
CONTINUOUS
 62
    1
 10
1257.3510499596123
 20
953.96439150201809
 11
1259.3910499596132
 21
953.96439150201809
  0
LINE
  8
_0-0_
  6
CONTINUOUS
 62
    7
 10
1062.036571677414
 20
953.96439150201809
 11
1298.0742181912356
 21
953.96439150201809
  0
LINE
  8
_0-0_
  6
CONTINUOUS
 62
    1
 10
1143.2503299596137
 20
795.47112337415842
 11
1143.2503299596137
 21
785.47112337415842
  0
LINE
  8
_0-0_
  6
CONTINUOUS
 62
    1
 10
1216.8910499596132
 20
795.47112337415842
 11
1216.8910499596132
 21
785.47112337415842
  0
LINE
  8
_0-0_
  6
CONTINUOUS
 62
    1
 10
1113.2503299596137
 20
785.47112337415842
 11
1143.2503299596137
 21
785.47112337415842
  0
ARC
  8
_0-0_
  6
CONTINUOUS
 62
    1
 10
1113.2503299596137
 20
795.47112337415842
 40
10
 50
180
 51
270
  0
LINE
  8
_0-0_
  6
CONTINUOUS
 62
    1
 10
1246.8910499596132
 20
785.47112337415842
 11
1216.8910499596132
 21
785.47112337415842
  0
ARC
  8
_0-0_
  6
CONTINUOUS
 62
    1
 10
1246.8910499596132
 20
795.47112337415842
 40
10
 50
270
 51
0
  0
LINE
  8
_0-0_
  6
CONTINUOUS
 62
    1
 10
1117.2503299596137
 20
795.47112337415842
 11
1143.2503299596137
 21
795.47112337415842
  0
ARC
  8
_0-0_
  6
CONTINUOUS
 62
    1
 10
1117.2503299596137
 20
799.47112337415842
 40
4
 50
180
 51
270
  0
LINE
  8
_0-0_
  6
CONTINUOUS
 62
    1
 10
1242.8910499596132
 20
795.47112337415842
 11
1216.8910499596132
 21
795.47112337415842
  0
ARC
  8
_0-0_
  6
CONTINUOUS
 62
    1
 10
1242.8910499596132
 20
799.47112337415842
 40
4
 50
270
 51
0
  0
LINE
  8
_0-0_
  6
CONTINUOUS
 62
    7
 10
1165.0706899596153
 20
963.96439150201809
 11
1062.036571677414
 21
963.96439150201809
  0
ARC
  8
_0-0_
  6
CONTINUOUS
 62
    7
 10
1165.0706899596153
 20
973.96439150201809
 40
10
 50
270
 51
0
  0
LINE
  8
_0-0_
  6
CONTINUOUS
 62
    7
 10
1195.0706899596153
 20
963.96439150201809
 11
1298.1048082418165
 21
963.96439150201809
  0
ARC
  8
_0-0_
  6
CONTINUOUS
 62
    7
 10
1195.0706899596153
 20
973.96439150201809
 40
10
 50
180
 51
270
  0
LINE
  8
_0-0_
  6
CONTINUOUS
 62
    7
 10
1062.036571677414
 20
1198.9643915020181
 11
1298.1048082418165
 21
1198.9643915020181
  0
LINE
  8
_0-0_
  6
CONTINUOUS
 62
    7
 10
1062.036571677414
 20
1198.9643915020181
 11
1062.036571677414
 21
1188.9643915020181
  0
LINE
  8
_0-0_
  6
CONTINUOUS
 62
    7
 10
1298.1048082418165
 20
1198.9643915020181
 11
1298.1048082418165
 21
1188.9643915020181
  0
LINE
  8
_0-0_
  6
CONTINUOUS
 62
    7
 10
1165.0706899596153
 20
1188.9643915020181
 11
1062.036571677414
 21
1188.9643915020181
  0
LINE
  8
_0-0_
  6
CONTINUOUS
 62
    7
 10
1175.0706899596153
 20
1178.9643915020181
 11
1175.0706899596153
 21
973.96439150201809
  0
ARC
  8
_0-0_
  6
CONTINUOUS
 62
    7
 10
1165.0706899596153
 20
1178.9643915020181
 40
10
 50
0
 51
90
  0
LINE
  8
_0-0_
  6
CONTINUOUS
 62
    7
 10
1195.0706899596153
 20
1188.9643915020181
 11
1298.1048082418165
 21
1188.9643915020181
  0
LINE
  8
_0-0_
  6
CONTINUOUS
 62
    7
 10
1185.0706899596153
 20
1178.9643915020181
 11
1185.0706899596153
 21
973.96439150201809
  0
ARC
  8
_0-0_
  6
CONTINUOUS
 62
    7
 10
1195.0706899596153
 20
1178.9643915020181
 40
10
 50
90
 51
180
  0
LINE
  8
_0-0_
  6
CONTINUOUS
 62
    1
 10
1246.8910499596132
 20
799.47112337415842
 11
1246.8910499596132
 21
963.96439150201809
  0
LINE
  8
_0-0_
  6
CONTINUOUS
 62
    1
 10
1256.8910499596132
 20
795.47112337415842
 11
1256.8910499596132
 21
963.96439150201809
  0
LINE
  8
_0-0_
  6
CONTINUOUS
 62
    1
 10
1113.2503299596137
 20
799.47112337415842
 11
1113.2503299596137
 21
963.96439150201809
  0
LINE
  8
_0-0_
  6
CONTINUOUS
 62
    1
 10
1103.2503299596137
 20
795.47112337415842
 11
1103.2503299596137
 21
963.96439150201809
  0
LINE
  8
_0-0_
  6
CONTINUOUS
 62
    5
 10
1088.2503299596137
 20
963.51638545728861
 11
1128.2503299596137
 21
963.51638545728861
  0
LINE
  8
_0-0_
  6
CONTINUOUS
 62
    5
 10
1231.8910499596132
 20
963.51638545728861
 11
1271.8910499596132
 21
963.51638545728861
  0
LINE
  8
_0-0_
  6
CONTINUOUS
 62
    5
 10
1271.8910499596132
 20
978.41742386724331
 11
1271.8910499596132
 21
978.41742386724331
  0
LINE
  8
_0-0_
  6
CONTINUOUS
 62
    5
 10
1271.8910499596132
 20
978.41742386724331
 11
1271.3334172608209
 21
983.075949869243
  0
LINE
  8
_0-0_
  6
CONTINUOUS
 62
    5
 10
1271.3334172608209
 20
983.075949869243
 11
1270.1850380698938
 21
987.53297932598502
  0
LINE
  8
_0-0_
  6
CONTINUOUS
 62
    5
 10
1270.1850380698938
 20
987.53297932598502
 11
1268.4808053074405
 21
991.65308765279201
  0
LINE
  8
_0-0_
  6
CONTINUOUS
 62
    5
 10
1268.4808053074405
 20
991.65308765279201
 11
1266.2725012235649
 21
995.31108744302924
  0
LINE
  8
_0-0_
  6
CONTINUOUS
 62
    5
 10
1266.2725012235649
 20
995.31108744302924
 11
1263.6272240203996
 21
998.39583222410761
  0
LINE
  8
_0-0_
  6
CONTINUOUS
 62
    5
 10
1263.6272240203996
 20
998.39583222410761
 11
1260.6253491071877
 21
1000.8135935868103
  0
LINE
  8
_0-0_
  6
CONTINUOUS
 62
    5
 10
1260.6253491071877
 20
1000.8135935868103
 11
1257.3580869341456
 21
1002.4909090755779
  0
LINE
  8
_0-0_
  6
CONTINUOUS
 62
    5
 10
1257.3580869341456
 20
1002.4909090755779
 11
1253.9247116090864
 21
1003.3768143080466
  0
LINE
  8
_0-0_
  6
CONTINUOUS
 62
    5
 10
1253.9247116090864
 20
1003.3768143080466
 11
1250.4295445038904
 21
1003.4443915020177
  0
LINE
  8
_0-0_
  6
CONTINUOUS
 62
    5
 10
1250.4295445038904
 20
1003.4443915020177
 11
1246.9787845024091
 21
1002.6915873586479
  0
LINE
  8
_0-0_
  6
CONTINUOUS
 62
    5
 10
1246.9787845024091
 20
1002.6915873586479
 11
1243.6772812011188
 21
1001.1412754508965
  0
LINE
  8
_0-0_
  6
CONTINUOUS
 62
    5
 10
1243.6772812011188
 20
1001.1412754508965
 11
1240.6253491071877
 21
998.84056122158461
  0
LINE
  8
_0-0_
  6
CONTINUOUS
 62
    5
 10
1240.6253491071877
 20
998.84056122158461
 11
1237.9157196329379
 21
995.85935070835251
  0
LINE
  8
_0-0_
  6
CONTINUOUS
 62
    5
 10
1237.9157196329379
 20
995.85935070835251
 11
1235.6307234988058
 21
992.28822648407925
  0
LINE
  8
_0-0_
  6
CONTINUOUS
 62
    5
 10
1235.6307234988058
 20
992.28822648407925
 11
1233.839789156063
 21
988.23569535124329
  0
LINE
  8
_0-0_
  6
CONTINUOUS
 62
    5
 10
1233.839789156063
 20
988.23569535124329
 11
1232.5973332384574
 21
983.82489141763642
  0
LINE
  8
_0-0_
  6
CONTINUOUS
 62
    5
 10
1232.5973332384574
 20
983.82489141763642
 11
1231.9411071403324
 21
979.18983472880655
  0
LINE
  8
_0-0_
  6
CONTINUOUS
 62
    5
 10
1231.9411071403324
 20
979.18983472880655
 11
1231.8910499596132
 21
978.41742386724331
  0
LINE
  8
_0-0_
  6
CONTINUOUS
 62
    5
 10
1231.8910499596132
 20
978.41742386724331
 11
1231.8910499596132
 21
963.51638545728861
  0
LINE
  8
_0-0_
  6
CONTINUOUS
 62
    5
 10
1271.8910499596132
 20
963.51638545728861
 11
1271.8910499596132
 21
978.41742386724331
  0
LINE
  8
_0-0_
  6
CONTINUOUS
 62
    5
 10
1128.2503299596137
 20
978.41742386724331
 11
1128.2503299596137
 21
978.41742386724331
  0
LINE
  8
_0-0_
  6
CONTINUOUS
 62
    5
 10
1128.2503299596137
 20
978.41742386724331
 11
1127.6926972608214
 21
983.075949869243
  0
LINE
  8
_0-0_
  6
CONTINUOUS
 62
    5
 10
1127.6926972608214
 20
983.075949869243
 11
1126.5443180698944
 21
987.53297932598502
  0
LINE
  8
_0-0_
  6
CONTINUOUS
 62
    5
 10
1126.5443180698944
 20
987.53297932598502
 11
1124.8400853074411
 21
991.65308765279201
  0
LINE
  8
_0-0_
  6
CONTINUOUS
 62
    5
 10
1124.8400853074411
 20
991.65308765279201
 11
1122.6317812235654
 21
995.31108744302924
  0
LINE
  8
_0-0_
  6
CONTINUOUS
 62
    5
 10
1122.6317812235654
 20
995.31108744302924
 11
1119.9865040204002
 21
998.39583222410761
  0
LINE
  8
_0-0_
  6
CONTINUOUS
 62
    5
 10
1119.9865040204002
 20
998.39583222410761
 11
1116.9846291071883
 21
1000.8135935868103
  0
LINE
  8
_0-0_
  6
CONTINUOUS
 62
    5
 10
1116.9846291071883
 20
1000.8135935868103
 11
1113.7173669341462
 21
1002.4909090755779
  0
LINE
  8
_0-0_
  6
CONTINUOUS
 62
    5
 10
1113.7173669341462
 20
1002.4909090755779
 11
1110.283991609087
 21
1003.3768143080466
  0
LINE
  8
_0-0_
  6
CONTINUOUS
 62
    5
 10
1110.283991609087
 20
1003.3768143080466
 11
1106.788824503891
 21
1003.4443915020177
  0
LINE
  8
_0-0_
  6
CONTINUOUS
 62
    5
 10
1106.788824503891
 20
1003.4443915020177
 11
1103.3380645024097
 21
1002.6915873586479
  0
LINE
  8
_0-0_
  6
CONTINUOUS
 62
    5
 10
1103.3380645024097
 20
1002.6915873586479
 11
1100.0365612011194
 21
1001.1412754508965
  0
LINE
  8
_0-0_
  6
CONTINUOUS
 62
    5
 10
1100.0365612011194
 20
1001.1412754508965
 11
1096.9846291071883
 21
998.84056122158461
  0
LINE
  8
_0-0_
  6
CONTINUOUS
 62
    5
 10
1096.9846291071883
 20
998.84056122158461
 11
1094.2749996329385
 21
995.85935070835251
  0
LINE
  8
_0-0_
  6
CONTINUOUS
 62
    5
 10
1094.2749996329385
 20
995.85935070835251
 11
1091.9900034988063
 21
992.28822648407925
  0
LINE
  8
_0-0_
  6
CONTINUOUS
 62
    5
 10
1091.9900034988063
 20
992.28822648407925
 11
1090.1990691560636
 21
988.23569535124329
  0
LINE
  8
_0-0_
  6
CONTINUOUS
 62
    5
 10
1090.1990691560636
 20
988.23569535124329
 11
1088.956613238458
 21
983.82489141763642
  0
LINE
  8
_0-0_
  6
CONTINUOUS
 62
    5
 10
1088.956613238458
 20
983.82489141763642
 11
1088.300387140333
 21
979.18983472880655
  0
LINE
  8
_0-0_
  6
CONTINUOUS
 62
    5
 10
1088.300387140333
 20
979.18983472880655
 11
1088.2503299596137
 21
978.41742386724331
  0
LINE
  8
_0-0_
  6
CONTINUOUS
 62
    5
 10
1128.2503299596137
 20
963.51638545728861
 11
1128.2503299596137
 21
978.41742386724331
  0
LINE
  8
_0-0_
  6
CONTINUOUS
 62
    5
 10
1088.2503299596137
 20
978.41742386724331
 11
1088.2503299596137
 21
963.51638545728861
  0
LINE
  8
_0-0_
  6
CONTINUOUS
 62
    7
 10
1295.4361522691361
 20
947.64408175655649
 11
1351.4464393078815
 21
1044.6567446541833
  0
POINT
  8
_0-0_
 62
    7
 10
1295.4361522691361
 20
947.64408175655649
  0
LINE
  8
_0-0_
  6
CONTINUOUS
 62
    7
 10
1112.5950774397152
 20
1000.1722256292364
 11
1067.055636413952
 21
1079.048851234144
  0
POINT
  8
_0-0_
 62
    7
 10
1112.5950774397152
 20
1000.1722256292364
  0
LINE
  8
_0-0_
  6
CONTINUOUS
 62
    7
 10
1099.2466750413241
 20
934.38367095145009
 11
1044.1004810359227
 21
1029.8996808128545
  0
POINT
  8
_0-0_
 62
    7
 10
1099.2466750413241
 20
934.38367095145009
  0
TEXT
  8
_0-0_
 62
    7
 10
1483.2465696893923
 20
844.19346331571796
 40
30
 41
1
 50
0
  1
防水層
  0
TEXT
  8
_0-0_
 62
    7
 10
940.09522578000008
 20
1068.4388617981549
 40
30
 41
1
 50
0
  1
塩ﾋﾞｷｬｯﾌﾟ
  0
TEXT
  8
_0-0_
 62
    7
 10
922.94816897165776
 20
1012.4251428909022
 40
30
 41
1
 50
0
  1
ｳﾚﾀﾝ充填
  0
TEXT
  8
_0-0_
 62
    7
 10
1354.4824319816144
 20
1031.5726896602182
 40
30
 41
1
 50
0
  1
ｼｰﾘﾝｸﾞ
  0
LINE
  8
_0-0_
  6
CONTINUOUS
 62
    4
 10
1045.4299699596158
 20
753.25803850201851
 11
820.41859295961342
 21
753.25803850201851
  0
LINE
  8
_0-0_
  6
CONTINUOUS
 62
    4
 10
1045.4299699596158
 20
929.84307115845809
 11
1045.4299699596158
 21
753.25803850201851
  0
LINE
  8
_0-0_
  6
CONTINUOUS
 62
    4
 10
1523.1585879596132
 20
753.25803850201851
 11
1314.7114099596147
 21
753.25803850201851
  0
LINE
  8
_0-0_
  6
CONTINUOUS
 62
    4
 10
1314.7114099596147
 20
929.84307115845809
 11
1314.7114099596147
 21
753.25803850201851
  0
LINE
  8
_0-0_
  6
CONTINUOUS
 62
    4
 10
1262.8910499596132
 20
943.964391502019
 11
1262.8910499596132
 21
963.96439150201809
  0
LINE
  8
_0-0_
  6
CONTINUOUS
 62
    4
 10
1240.8910499596132
 20
943.96439150201809
 11
1240.8910499596132
 21
963.96439150201809
  0
LINE
  8
_0-0_
  6
CONTINUOUS
 62
    4
 10
1300.5900896160529
 20
943.96439150201809
 11
1262.8910499596132
 21
943.96439150201809
  0
LINE
  8
_0-0_
  6
CONTINUOUS
 62
    4
 10
1240.8910499596132
 20
943.96439150201809
 11
1220.0706899596153
 21
943.96439150201809
  0
LINE
  8
_0-0_
  6
CONTINUOUS
 62
    2
 10
1262.8910499596132
 20
952.15660239605631
 11
1264.6988390655752
 21
953.96439150201809
  0
LINE
  8
_0-0_
  6
CONTINUOUS
 62
    2
 10
1262.8910499596132
 20
949.32817527130896
 11
1267.5272661903218
 21
953.96439150201718
  0
LINE
  8
_0-0_
  6
CONTINUOUS
 62
    2
 10
1262.8910499596132
 20
946.49974814656412
 11
1270.3556933150685
 21
953.96439150201809
  0
LINE
  8
_0-0_
  6
CONTINUOUS
 62
    2
 10
1240.5567034418418
 20
943.96439150201627
 11
1240.8910499596132
 21
944.29873801978761
  0
LINE
  8
_0-0_
  6
CONTINUOUS
 62
    2
 10
1237.7282763170988
 20
943.96439150201809
 11
1240.8910499596132
 21
947.12716514453223
  0
LINE
  8
_0-0_
  6
CONTINUOUS
 62
    2
 10
1234.8998491923521
 20
943.964391502019
 11
1240.8910499596132
 21
949.95559226927946
  0
LINE
  8
_0-0_
  6
CONTINUOUS
 62
    2
 10
1232.0714220676055
 20
943.96439150201627
 11
1240.8910499596132
 21
952.78401939402397
  0
LINE
  8
_0-0_
  6
CONTINUOUS
 62
    4
 10
1097.2503299596137
 20
943.96439150201809
 11
1097.2503299596137
 21
963.96439150201809
  0
LINE
  8
_0-0_
  6
CONTINUOUS
 62
    4
 10
1119.2503299596137
 20
943.96439150201718
 11
1119.2503299596137
 21
963.96439150201809
  0
LINE
  8
_0-0_
  6
CONTINUOUS
 62
    2
 10
1119.2503299596137
 20
944.28038438387216
 11
1128.9343370777588
 21
953.96439150201718
  0
LINE
  8
_0-0_
  6
CONTINUOUS
 62
    2
 10
1119.2503299596137
 20
947.1088115086186
 11
1126.1059099530139
 21
953.96439150201809
  0
LINE
  8
_0-0_
  6
CONTINUOUS
 62
    2
 10
1119.2503299596137
 20
949.9372386333655
 11
1123.2774828282672
 21
953.964391502019
  0
LINE
  8
_0-0_
  6
CONTINUOUS
 62
    4
 10
1140.0706899596153
 20
943.96439150201809
 11
1119.2503299596137
 21
943.96439150201809
  0
LINE
  8
_0-0_
  6
CONTINUOUS
 62
    4
 10
1097.2503299596137
 20
943.96439150201809
 11
1059.551290303174
 21
943.96439150201809
  0
LINE
  8
_0-0_
  6
CONTINUOUS
 62
    2
 10
1119.2503299596137
 20
952.76566575811125
 11
1120.4490557035206
 21
953.96439150201809
  0
LINE
  8
_0-0_
  6
CONTINUOUS
 62
    2
 10
1096.3069200797872
 20
943.96439150201627
 11
1097.2503299596137
 21
944.90780138184277
  0
LINE
  8
_0-0_
  6
CONTINUOUS
 62
    2
 10
1093.4784929550442
 20
943.964391502019
 11
1097.2503299596137
 21
947.73622850658819
  0
LINE
  8
_0-0_
  6
CONTINUOUS
 62
    2
 10
1090.6500658302975
 20
943.964391502019
 11
1097.2503299596137
 21
950.56465563133406
  0
LINE
  8
_0-0_
  6
CONTINUOUS
 62
    2
 10
1087.821638705549
 20
943.96439150201627
 11
1097.2503299596137
 21
953.39308275608096
  0
LINE
  8
_0-0_
  6
CONTINUOUS
 62
    7
 10
672.13606690525205
 20
1633.3565543671132
 11
1706.8525777203668
 21
1633.3565543671132
  0
LINE
  8
_0-0_
  6
CONTINUOUS
 62
    7
 10
672.13606690525205
 20
1553.3565543671132
 11
1706.8525777203668
 21
1553.3565543671132
  0
LINE
  8
_0-0_
  6
CONTINUOUS
 62
    7
 10
672.13606690525205
 20
1473.3565543671132
 11
1706.8525777203668
 21
1473.3565543671132
  0
LINE
  8
_0-0_
  6
CONTINUOUS
 62
    7
 10
1189.4943223128103
 20
1633.3565543671132
 11
1189.4943223128103
 21
1473.3565543671132
  0
TEXT
  8
_0-0_
 62
    7
 10
1213.4943223128103
 20
1577.3565543671132
 40
20
 41
1
 50
0
  1
構造：ＲＣ造
  0
TEXT
  8
_0-0_
 62
    7
 10
1213.4943223128103
 20
1497.3565543671132
 40
20
 41
1
 50
0
  1
下地：コンクリートスラブ
  0
TEXT
  8
_0-0_
 62
    7
 10
696.13606690525205
 20
1577.3565543671132
 40
20
 41
1
 50
0
  1
図面番号：UPM-10-kiso-02
  0
TEXT
  8
_0-0_
 62
    7
 10
696.13606690525205
 20
1497.3565543671132
 40
20
 41
1
 50
0
  1
施工部位：基礎・架台(Ｈ鋼)
  0
ENDSEC
  0
EOF
