  0
SECTION
  2
HEADER
  9
$ACADVER
  1
AC1009
  9
$INSBASE
 10
0
 20
0
 30
0
  9
$EXTMIN
 10
0
 20
0
  9
$EXTMAX
 10
2378
 20
1682
  9
$LIMMIN
 10
0
 20
0
  9
$LIMMAX
 10
2378
 20
1682
  9
$LTSCALE
 40
1
  0
ENDSEC
  0
SECTION
  2
TABLES
  0
TABLE
  2
LTYPE
 70
     9
  0
LTYPE
  2
CONTINUOUS
 70
    64
  3
実線
 72
    65
 73
     0
 40
0.0
  0
LTYPE
  2
DASHED1
 70
    64
  3
--  --  --  --  --  --  --  --  
 72
    65
 73
     2
 40
2.5
 49
1.25
 49
-1.25
  0
LTYPE
  2
DASHED2
 70
    64
  3
----    ----    ----    ----    
 72
    65
 73
     2
 40
5.0
 49
2.5
 49
-2.5
  0
LTYPE
  2
DASHED3
 70
    64
  3
------  ------  ------  ------  
 72
    65
 73
     2
 40
5.0
 49
3.75
 49
-1.25
  0
LTYPE
  2
CENTER1
 70
    64
  3
----- - ----- - ----- - ----- - 
 72
    65
 73
     4
 40
10.0
 49
6.25
 49
-1.25
 49
1.25
 49
-1.25
  0
LTYPE
  2
CENTER2
 70
    64
  3
----------  --  ----------  --  
 72
    65
 73
     4
 40
20.0
 49
12.5
 49
-2.5
 49
2.5
 49
-2.5
  0
LTYPE
  2
PHANTOM1
 70
    64
  3
--- - - --- - - --- - - --- - - 
 72
    65
 73
     6
 40
10.0
 49
3.25
 49
-1.25
 49
1.25
 49
-1.25
 49
1.25
 49
-1.25
  0
LTYPE
  2
PHANTOM2
 70
    64
  3
--------  -  -  --------  -  -  
 72
    65
 73
     6
 40
20.0
 49
10.0
 49
-2.5
 49
1.25
 49
-2.5
 49
1.25
 49
-2.5
  0
LTYPE
  2
DOT
 70
    64
  3
-   -   -   -   -   -   -   -   
 72
    65
 73
     2
 40
2.5
 49
0.625
 49
-1.875
  0
LTYPE
  2
DUMMY
 70
    64
  3
ダミー
 72
    65
 73
     0
 40
0.0
  0
LTYPE
  2
RAND1
 70
    64
  3
ランダム線1
 72
    65
 73
     4
 40
10.0
 49
1.0
 49
-2.0
 49
3.0
 49
-4.0
  0
LTYPE
  2
RAND2
 70
    64
  3
ランダム線2
 72
    65
 73
     4
 40
14.0
 49
2.0
 49
-3.0
 49
4.0
 49
-5.0
  0
LTYPE
  2
RAND3
 70
    64
  3
ランダム線3
 72
    65
 73
     4
 40
18.0
 49
3.0
 49
-4.0
 49
5.0
 49
-6.0
  0
LTYPE
  2
RAND4
 70
    64
  3
ランダム線4
 72
    65
 73
     4
 40
22.0
 49
4.0
 49
-5.0
 49
6.0
 49
-7.0
  0
LTYPE
  2
RAND5
 70
    64
  3
ランダム線5
 72
    65
 73
     4
 40
26.0
 49
5.0
 49
-6.0
 49
7.0
 49
-8.0
  0
LTYPE
  2
LONG1
 70
    64
  3
----------  --  ----------  --  
 72
    65
 73
     4
 40
40.0
 49
32.5
 49
-2.5
 49
2.5
 49
-2.5
  0
LTYPE
  2
LONG2
 70
    64
  3
--------  -  -  --------  -  -  
 72
    65
 73
     6
 40
40.0
 49
30.0
 49
-2.5
 49
1.25
 49
-2.5
 49
1.25
 49
-2.5
  0
LTYPE
  2
LONG3
 70
    64
  3
+++++++++++++++..+++++++++++++++
 72
    65
 73
     2
 40
40.0
 49
37.5
 49
-2.5
  0
LTYPE
  2
LONG4
 70
    64
  3
+++++++++++++++..+++++++++++++++
 72
    65
 73
     2
 40
80.0
 49
75.0
 49
-5.0
  0
LTYPE
  2
LONG5
 70
    64
  3
----------  --  ----------  --  
 72
    65
 73
     4
 40
60.0
 49
37.5
 49
-7.5
 49
7.5
 49
-7.5
  0
LTYPE
  2
dashed
 70
   64
  3
-------   -------------   ------
 72
   65
 73
    2
 40
7.5
 49
6
 49
-1.5
  0
LTYPE
  2
dashed_spaced
 70
   64
  3
----        --------        ----
 72
   65
 73
    2
 40
12
 49
6
 49
-6
  0
LTYPE
  2
long_dashed_dotted
 70
   64
  3
------------- --- --------------
 72
   65
 73
    4
 40
15.25
 49
12
 49
-1.5
 49
0.25
 49
-1.5
  0
LTYPE
  2
long_dashed_double-dotted
 70
   64
  3
----------- --- --- ------------
 72
   65
 73
    6
 40
17
 49
12
 49
-1.5
 49
0.25
 49
-1.5
 49
0.25
 49
-1.5
  0
LTYPE
  2
long_dashed_triplicate-dotted
 70
   64
  3
--------- --- --- --- ----------
 72
   65
 73
    8
 40
18.75
 49
12
 49
-1.5
 49
0.25
 49
-1.5
 49
0.25
 49
-1.5
 49
0.25
 49
-1.5
  0
LTYPE
  2
dotted
 70
   64
  3
   -       -       -       -    
 72
   65
 73
    2
 40
1.75
 49
0.25
 49
-1.5
  0
LTYPE
  2
chain
 70
   64
  3
-------------- -- --------------
 72
   65
 73
    4
 40
18.5
 49
12
 49
-1.5
 49
3.5
 49
-1.5
  0
LTYPE
  2
chain_double_dash
 70
   64
  3
------------ -- -- -------------
 72
   65
 73
    6
 40
23.5
 49
12
 49
-1.5
 49
3.5
 49
-1.5
 49
3.5
 49
-1.5
  0
LTYPE
  2
dashed_dotted
 70
   64
  3
-----------     -     ----------
 72
   65
 73
    4
 40
9.25
 49
6
 49
-1.5
 49
0.25
 49
-1.5
  0
LTYPE
  2
double-dashed_dotted
 70
   64
  3
------   -----------   -   -----
 72
   65
 73
    6
 40
16.75
 49
6
 49
-1.5
 49
6
 49
-1.5
 49
0.25
 49
-1.5
  0
LTYPE
  2
dashed_double-dotted
 70
   64
  3
---------    -    -    ---------
 72
   65
 73
    6
 40
11
 49
6
 49
-1.5
 49
0.25
 49
-1.5
 49
0.25
 49
-1.5
  0
LTYPE
  2
double-dashed_double-dotted
 70
   64
  3
-----   ---------   -   -   ----
 72
   65
 73
    8
 40
18.5
 49
6
 49
-1.5
 49
6
 49
-1.5
 49
0.25
 49
-1.5
 49
0.25
 49
-1.5
  0
LTYPE
  2
dashed_triplicate-dotted
 70
   64
  3
-------    -    -    -    ------
 72
   65
 73
    8
 40
12.75
 49
6
 49
-1.5
 49
0.25
 49
-1.5
 49
0.25
 49
-1.5
 49
0.25
 49
-1.5
  0
LTYPE
  2
double-dashed_triplicate-dotted
 70
   64
  3
-----  ---------  -  -  -  -----
 72
   65
 73
   10
 40
20.25
 49
6
 49
-1.5
 49
6
 49
-1.5
 49
0.25
 49
-1.5
 49
0.25
 49
-1.5
 49
0.25
 49
-1.5
  0
LTYPE
  2
undefined
 70
   64
  3
--------------------------------
 72
   65
 73
    0
 40
0
  0
ENDTAB
  0
TABLE
  2
STYLE
  5
3
100
AcDbSymbolTable
 70
     1
  0
STYLE
  5
10
100
AcDbSymbolTableRecord
100
AcDbTextStyleTableRecord
  2
STANDARD
 70
     0
 40
0.0
 41
1.0
 50
0.0
 71
     0
 42
0.2
  3
txt
  4
bigfont.shx
  0
STYLE
  5
26
100
AcDbSymbolTableRecord
100
AcDbTextStyleTableRecord
  2
TATEGAKI
 70
    68
 40
0.0
 41
1.0
 50
0.0
 71
     0
 42
1.0
  3
txt
  4
bigfont.shx
  0
ENDTAB
  0
TABLE
  2
LAYER
 70
    2
  0
LAYER
  2
_0-0_
 70
   64
 62
    7
  6
CONTINUOUS
  0
LAYER
  2
ADD_LINE
 70
   64
 62
    7
  6
CONTINUOUS
  0
ENDTAB
  0
ENDSEC
  0
SECTION
  2
BLOCKS
  0
ENDSEC
  0
SECTION
  2
ENTITIES
  0
LINE
  8
_0-0_
  6
CONTINUOUS
 62
    4
 10
1316.4364183677499
 20
310.79986542926235
 11
1663.1080209871434
 21
310.79986542926235
  0
LINE
  8
_0-0_
  6
CONTINUOUS
 62
    7
 10
873.92549915611391
 20
1239.4702396977609
 11
906.31639259689121
 21
1271.8611331385382
  0
TEXT
  8
_0-0_
 62
    7
 10
1429.6891920142116
 20
576.02721287347686
 40
40
 41
1
 50
0
  1
Ｂ
  0
TEXT
  8
_0-0_
 62
    7
 10
906.73245032900388
 20
575.67973412101128
 40
40
 41
1
 50
0
  1
Ａ
  0
LINE
  8
_0-0_
  6
CONTINUOUS
 62
    7
 10
1706.8525777203686
 20
1633.3565543671132
 11
1706.8525777203686
 21
167.53106997205509
  0
LINE
  8
_0-0_
  6
CONTINUOUS
 62
    7
 10
672.13606690525205
 20
1633.3565543671132
 11
672.13606690525205
 21
167.53106997205509
  0
LINE
  8
_0-0_
  6
CONTINUOUS
 62
    7
 10
1189.4943223128103
 20
627.53106997205487
 11
1189.4943223128103
 21
167.53106997205509
  0
LINE
  8
_0-0_
  6
CONTINUOUS
 62
    7
 10
672.13606690525205
 20
627.53106997205487
 11
1706.8525777203686
 21
627.53106997205487
  0
LINE
  8
_0-0_
  6
CONTINUOUS
 62
    7
 10
672.13606690525205
 20
167.53106997205509
 11
1706.8525777203686
 21
167.53106997205509
  0
LINE
  8
_0-0_
  6
CONTINUOUS
 62
    7
 10
672.13606690525205
 20
567.53106997205487
 11
1706.8525777203686
 21
567.53106997205487
  0
LINE
  8
_0-0_
  6
DASHED2
 62
    5
 10
1415.4364183677499
 20
293.54986542926235
 11
1514.3970054503588
 21
293.54986542926235
  0
LINE
  8
_0-0_
  6
CONTINUOUS
 62
    7
 10
1363.7821263458936
 20
305.90515897056684
 11
1410.7991753243077
 21
387.34107662313909
  0
LINE
  8
_0-0_
  6
CONTINUOUS
 62
    7
 10
1213.5150799397634
 20
419.67722315069113
 11
1288.0386678441755
 21
494.20081105510417
  0
LINE
  8
_0-0_
  6
CONTINUOUS
 62
    7
 10
1213.5150799397634
 20
435.58712572738841
 11
1272.12876526748
 21
494.20081105510417
  0
LINE
  8
_0-0_
  6
CONTINUOUS
 62
    7
 10
1213.5150799397634
 20
451.49702830408387
 11
1256.2188626907846
 21
494.20081105510417
  0
LINE
  8
_0-0_
  6
CONTINUOUS
 62
    7
 10
1302.9364183677499
 20
277.04986542926235
 11
1663.1080209871434
 21
277.04986542926235
  0
LINE
  8
_0-0_
  6
CONTINUOUS
 62
    3
 10
1415.4364183677499
 20
290.54986542926235
 11
1663.1080209871434
 21
290.54986542926235
  0
LINE
  8
_0-0_
  6
CONTINUOUS
 62
    7
 10
1498.7868014113119
 20
195.83206216792519
 11
1580.0046046726457
 21
277.04986542925963
  0
LINE
  8
_0-0_
  6
CONTINUOUS
 62
    7
 10
1482.8768988346128
 20
195.83206216792519
 11
1564.0947020959502
 21
277.04986542925963
  0
LINE
  8
_0-0_
  6
CONTINUOUS
 62
    7
 10
1466.9669962579173
 20
195.83206216792519
 11
1548.1847995192547
 21
277.04986542925963
  0
LINE
  8
_0-0_
  6
CONTINUOUS
 62
    4
 10
1316.4364183677499
 20
494.20081105510417
 11
1316.4364183677499
 21
310.79986542926235
  0
LINE
  8
_0-0_
  6
CONTINUOUS
 62
    7
 10
1302.9364183677499
 20
277.04986542926235
 11
1302.9364183677499
 21
494.20081105510417
  0
LINE
  8
_0-0_
  6
DASHED2
 62
    5
 10
1302.9364183677499
 20
283.04986542926235
 11
1404.9364183677499
 21
283.04986542926235
  0
LINE
  8
_0-0_
  6
CONTINUOUS
 62
    3
 10
1415.4364183677499
 20
290.54986542926235
 11
1415.4364183677499
 21
277.04986542926235
  0
LINE
  8
_0-0_
  6
DASHED2
 62
    5
 10
1415.4364183677499
 20
293.54986542926235
 11
1404.9364183677499
 21
283.04986542926235
  0
POINT
  8
_0-0_
 62
    7
 10
1363.7821263458936
 20
305.90515897056684
  0
LINE
  8
_0-0_
  6
CONTINUOUS
 62
    7
 10
1323.9179412830308
 20
310.79986542926235
 11
1402.629806996003
 21
447.13281600267237
  0
POINT
  8
_0-0_
 62
    7
 10
1323.9179412830308
 20
310.79986542926235
  0
POINT
  8
_0-0_
 62
    7
 10
1463.2830663466666
 20
293.54986542926235
  0
POINT
  8
_0-0_
 62
    7
 10
1521.1928681366771
 20
283.79986542926235
  0
LINE
  8
_0-0_
  6
CONTINUOUS
 62
    7
 10
1568.1714147846906
 20
277.04986542926235
 11
1599.5361227998474
 21
331.37513327607667
  0
POINT
  8
_0-0_
 62
    7
 10
1568.1714147846906
 20
277.04986542926235
  0
TEXT
  8
_0-0_
 62
    7
 10
1392.2385952695695
 20
449.48135349236009
 40
21.617968000000001
 41
1
 50
0
  1
ﾄｯﾌﾟｺｰﾄ
  0
TEXT
  8
_0-0_
 62
    7
 10
1515.2818917113764
 20
408.95589554005528
 40
21.617968000000001
 41
1
 50
0
  1
DFﾒｯｼｭﾃｰﾌﾟ
  0
TEXT
  8
_0-0_
 62
    7
 10
1394.7086854841764
 20
390.22926677997248
 40
21.617968000000001
 41
1
 50
0
  1
ｳﾚﾀﾝ防水
  0
LINE
  8
_0-0_
  6
CONTINUOUS
 62
    7
 10
1463.2830663466666
 20
293.54986542926235
 11
1525.8620688576084
 21
401.93987726519026
  0
TEXT
  8
_0-0_
 62
    7
 10
1541.9692331022634
 20
367.23714644876736
 40
21.617968000000001
 41
1
 50
0
  1
通気緩衝ｼｰﾄ
  0
TEXT
  8
_0-0_
 62
    7
 10
1594.1308549117239
 20
332.73523111305121
 40
21.617968000000001
 41
1
 50
0
  1
ﾌﾟﾗｲﾏｰ
  0
LINE
  8
_0-0_
  6
CONTINUOUS
 62
    7
 10
1521.1928681366771
 20
283.79986542926235
 11
1566.0945521438734
 21
361.57186347513152
  0
ARC
  8
_0-0_
  6
CONTINUOUS
 62
    7
 10
1072.9518364040632
 20
1207.3279057056279
 40
10
 50
0
 51
180
  0
POINT
  8
_0-0_
 62
    7
 10
1216.173326509459
 20
1060.4922480620153
  0
LINE
  8
_0-0_
  6
CONTINUOUS
 62
    7
 10
1216.173326509459
 20
1060.4922480620153
 11
1275.9312715000378
 21
1163.9960449416039
  0
LINE
  8
_0-0_
  6
CONTINUOUS
 62
    3
 10
1073.9254991561138
 20
1058.9922480620153
 11
1523.9254991561138
 21
1058.9922480620153
  0
LINE
  8
_0-0_
  6
CONTINUOUS
 62
    4
 10
1029.9254991561138
 20
1067.9922480620153
 11
1523.9254991561138
 21
1067.9922480620153
  0
LINE
  8
_0-0_
  6
CONTINUOUS
 62
    7
 10
1023.9254991561139
 20
1052.9922480620153
 11
1523.9254991561138
 21
1052.9922480620153
  0
LINE
  8
_0-0_
  6
CONTINUOUS
 62
    7
 10
1079.1989496475908
 20
772.99224806201528
 11
1359.1989496475908
 21
1052.9922480620153
  0
LINE
  8
_0-0_
  6
CONTINUOUS
 62
    7
 10
1419.6152552510139
 20
872.99224806201528
 11
1523.9254991561138
 21
977.3024919671152
  0
LINE
  8
_0-0_
  6
CONTINUOUS
 62
    7
 10
1412.5441874391508
 20
872.99224806201528
 11
1523.9254991561138
 21
984.37355977898005
  0
LINE
  8
_0-0_
  6
CONTINUOUS
 62
    7
 10
1405.4731196272842
 20
872.99224806201528
 11
1523.9254991561138
 21
991.44462759084581
  0
LINE
  8
_0-0_
  6
CONTINUOUS
 62
    7
 10
1223.9254991561138
 20
872.99224806201528
 11
1223.9254991561138
 21
772.99224806201528
  0
LINE
  8
_0-0_
  6
CONTINUOUS
 62
    7
 10
1223.9254991561138
 20
872.99224806201528
 11
1523.9254991561138
 21
872.99224806201528
  0
LINE
  8
_0-0_
  6
CONTINUOUS
 62
    4
 10
1016.1377012032937
 20
1274.0297458012046
 11
1029.9254991561138
 21
1259.7520630606386
  0
LINE
  8
_0-0_
  6
CONTINUOUS
 62
    7
 10
1013.5056235992307
 20
1268.1180027107075
 11
1023.9254991561139
 21
1257.3279057056279
  0
LINE
  8
_0-0_
  6
CONTINUOUS
 62
    7
 10
873.92549915611391
 20
1232.399171885897
 11
913.14886520765515
 21
1271.6225379374382
  0
LINE
  8
_0-0_
  6
CONTINUOUS
 62
    7
 10
873.92549915611391
 20
1246.5413075096258
 11
899.48391998612726
 21
1272.0997283396373
  0
LINE
  8
_0-0_
  6
CONTINUOUS
 62
    7
 10
873.92549915611391
 20
1020.2671375299306
 11
1023.9254991561139
 21
1170.2671375299306
  0
LINE
  8
_0-0_
  6
CONTINUOUS
 62
    7
 10
873.92549915611391
 20
1013.1960697180657
 11
1023.9254991561139
 21
1163.1960697180666
  0
LINE
  8
_0-0_
  6
CONTINUOUS
 62
    7
 10
873.92549915611391
 20
1006.1250019062018
 11
1023.9254991561139
 21
1156.1250019062009
  0
LINE
  8
_0-0_
  6
CONTINUOUS
 62
    7
 10
873.92549915611391
 20
793.99296755023624
 11
1132.9247796678937
 21
1052.9922480620144
  0
LINE
  8
_0-0_
  6
CONTINUOUS
 62
    7
 10
873.92549915611391
 20
786.92189973837048
 11
1139.9958474797568
 21
1052.9922480620144
  0
LINE
  8
_0-0_
  6
CONTINUOUS
 62
    7
 10
873.92549915611391
 20
779.85083192650654
 11
1147.0669152916234
 21
1052.9922480620144
  0
LINE
  8
_0-0_
  6
CONTINUOUS
 62
    7
 10
1086.2700174594538
 20
772.99224806201528
 11
1366.2700174594538
 21
1052.9922480620144
  0
LINE
  8
_0-0_
  6
CONTINUOUS
 62
    7
 10
1093.3410852713168
 20
772.99224806201437
 11
1373.3410852713205
 21
1052.9922480620153
  0
LINE
  8
_0-0_
  6
DASHED1
 62
    7
 10
916.74017122517409
 20
1227.3279057056279
 11
916.74017122517409
 21
1187.3279057056279
  0
LINE
  8
_0-0_
  6
DASHED1
 62
    7
 10
916.74017122517409
 20
1227.3279057056279
 11
916.74017122517409
 21
1187.3279057056279
  0
ARC
  8
_0-0_
  6
CONTINUOUS
 62
    7
 10
1072.9518364040632
 20
1207.3279057056279
 40
20
 50
1.8794552231624875
 51
90
  0
LINE
  8
_0-0_
  6
CONTINUOUS
 62
    7
 10
1082.9518364040632
 20
1207.3279057056279
 11
1082.9518364040632
 21
1147.3279057056279
  0
LINE
  8
_0-0_
  6
CONTINUOUS
 62
    7
 10
1062.9518364040632
 20
1207.3279057056279
 11
1062.9518364040632
 21
1147.3279057056279
  0
ARC
  8
_0-0_
  6
DASHED1
 62
    7
 10
1072.9518364040632
 20
1207.3279057056279
 40
10
 50
180
 51
1.879455223162438
  0
ARC
  8
_0-0_
  6
CONTINUOUS
 62
    7
 10
1072.9518364040632
 20
1147.3279057056279
 40
10
 50
180
 51
0
  0
CIRCLE
  8
_0-0_
  6
DASHED1
 62
    7
 10
937.06813921920559
 20
1207.655873699659
 40
9.6720320059689584
  0
ARC
  8
_0-0_
  6
CONTINUOUS
 62
    7
 10
1072.9518364040632
 20
1207.3279057056279
 40
20
 50
299.99999999999989
 51
1.8794552231624542
  0
ARC
  8
_0-0_
  6
DASHED1
 62
    7
 10
1072.9518364040632
 20
1207.655873699659
 40
20.284691458917379
 50
270
 51
299.53680866691025
  0
LINE
  8
_0-0_
  6
DASHED1
 62
    7
 10
1062.9518364040632
 20
1187.3279057056279
 11
1072.9518364040632
 21
1187.3279057056279
  0
LINE
  8
_0-0_
  6
DASHED1
 62
    7
 10
1023.9254991561139
 20
1227.3279057056279
 11
916.74017122517409
 21
1227.3279057056279
  0
LINE
  8
_0-0_
  6
DASHED1
 62
    7
 10
1023.9254991561139
 20
1187.3279057056279
 11
916.74017122517409
 21
1187.3279057056279
  0
LINE
  8
_0-0_
  6
CONTINUOUS
 62
    7
 10
1072.9518364040632
 20
1227.3279057056279
 11
1023.9254991561139
 21
1227.3279057056279
  0
LINE
  8
_0-0_
  6
CONTINUOUS
 62
    7
 10
1062.9518364040632
 20
1187.3279057056279
 11
1023.9254991561139
 21
1187.3279057056279
  0
LINE
  8
_0-0_
  6
CONTINUOUS
 62
    3
 10
1073.9254991561138
 20
1058.9922480620153
 11
1073.9254991561138
 21
1052.9922480620153
  0
CIRCLE
  8
_0-0_
  6
DASHED2
 62
    1
 10
951.16433613602578
 20
1269.5458920707842
 40
94.513505632925799
  0
TEXT
  8
_0-0_
 62
    7
 10
941.25844822474039
 20
1351.4850665766116
 40
24
 41
1
 50
0
  1
Ａ
  0
CIRCLE
  8
_0-0_
  6
DASHED2
 62
    1
 10
1073.9254991561138
 20
1058.9922480620153
 40
67.350194333739935
  0
TEXT
  8
_0-0_
 62
    7
 10
1060.6039995918036
 20
1114.1237376053605
 40
24
 41
1
 50
0
  1
Ｂ
  0
TEXT
  8
_0-0_
 62
    7
 10
1278.0307866011317
 20
1149.9441219393939
 40
30
 41
1
 50
0
  1
防水層
  0
LINE
  8
_0-0_
  6
CONTINUOUS
 62
    7
 10
1023.9254991561139
 20
1187.3279057056279
 11
1013.9254991561139
 21
1187.3279057056279
  0
LINE
  8
_0-0_
  6
CONTINUOUS
 62
    7
 10
1013.9254991561139
 20
1187.3279057056279
 11
1013.9254991561139
 21
1177.3279057056279
  0
LINE
  8
_0-0_
  6
CONTINUOUS
 62
    7
 10
1013.9254991561139
 20
1177.3279057056279
 11
1023.9254991561139
 21
1177.3279057056279
  0
LINE
  8
_0-0_
  6
CONTINUOUS
 62
    7
 10
1023.9254991561139
 20
1052.9922480620153
 11
1023.9254991561139
 21
1177.3279057056279
  0
LINE
  8
_0-0_
  6
CONTINUOUS
 62
    7
 10
1023.9254991561139
 20
1227.3279057056279
 11
1013.9254991561139
 21
1227.3279057056279
  0
LINE
  8
_0-0_
  6
CONTINUOUS
 62
    7
 10
1013.9254991561139
 20
1227.3279057056279
 11
1013.9254991561139
 21
1237.3279057056279
  0
LINE
  8
_0-0_
  6
CONTINUOUS
 62
    7
 10
1013.9254991561139
 20
1237.3279057056279
 11
1023.9254991561139
 21
1237.3279057056279
  0
LINE
  8
_0-0_
  6
CONTINUOUS
 62
    7
 10
1023.9254991561139
 20
1187.3279057056279
 11
1023.9254991561139
 21
1227.3279057056279
  0
LINE
  8
_0-0_
  6
CONTINUOUS
 62
    7
 10
1023.9254991561139
 20
1237.3279057056279
 11
1023.9254991561139
 21
1257.3279057056279
  0
LINE
  8
_0-0_
  6
CONTINUOUS
 62
    2
 10
1023.9254991561138
 20
1187.3279057056279
 11
1023.9254991561138
 21
1187.3279057056279
  0
LINE
  8
_0-0_
  6
CONTINUOUS
 62
    2
 10
1023.9254991561138
 20
1187.3279057056279
 11
1023.6229474302664
 21
1184.2442698070802
  0
LINE
  8
_0-0_
  6
CONTINUOUS
 62
    2
 10
1023.6229474302664
 20
1184.2442698070802
 11
1023.5927260221503
 21
1181.102406155037
  0
LINE
  8
_0-0_
  6
CONTINUOUS
 62
    2
 10
1023.5927260221503
 20
1181.102406155037
 11
1023.8357531939582
 21
1177.9977786867057
  0
LINE
  8
_0-0_
  6
CONTINUOUS
 62
    2
 10
1023.8357531939582
 20
1177.9977786867057
 11
1023.9254991561138
 21
1177.3279057056279
  0
LINE
  8
_0-0_
  6
CONTINUOUS
 62
    2
 10
1023.9254991561138
 20
1237.3279057056279
 11
1023.9254991561138
 21
1237.3279057056279
  0
LINE
  8
_0-0_
  6
CONTINUOUS
 62
    2
 10
1023.9254991561138
 20
1237.3279057056279
 11
1023.6229474302664
 21
1234.2442698070802
  0
LINE
  8
_0-0_
  6
CONTINUOUS
 62
    2
 10
1023.6229474302664
 20
1234.2442698070802
 11
1023.5927260221503
 21
1231.102406155037
  0
LINE
  8
_0-0_
  6
CONTINUOUS
 62
    2
 10
1023.5927260221503
 20
1231.102406155037
 11
1023.8357531939582
 21
1227.9977786867057
  0
LINE
  8
_0-0_
  6
CONTINUOUS
 62
    2
 10
1023.8357531939582
 20
1227.9977786867057
 11
1023.9254991561138
 21
1227.3279057056279
  0
LINE
  8
_0-0_
  6
CONTINUOUS
 62
    2
 10
1023.2035117548186
 20
1227.3279057056279
 11
1023.8399114355344
 21
1227.9643053863456
  0
LINE
  8
_0-0_
  6
CONTINUOUS
 62
    2
 10
1020.3750846300719
 20
1227.3279057056279
 11
1023.6149408841194
 21
1230.5677619596747
  0
LINE
  8
_0-0_
  6
CONTINUOUS
 62
    2
 10
1017.5466575053252
 20
1227.3279057056279
 11
1023.5868934154752
 21
1233.3681416157788
  0
LINE
  8
_0-0_
  6
CONTINUOUS
 62
    2
 10
1014.7182303805786
 20
1227.3279057056275
 11
1023.8067432478712
 21
1236.4164185729214
  0
LINE
  8
_0-0_
  6
CONTINUOUS
 62
    2
 10
1013.9254991561139
 20
1229.3636016059093
 11
1021.8898032558319
 21
1237.3279057056277
  0
LINE
  8
_0-0_
  6
CONTINUOUS
 62
    2
 10
1013.9254991561139
 20
1232.1920287306555
 11
1019.0613761310889
 21
1237.3279057056282
  0
LINE
  8
_0-0_
  6
CONTINUOUS
 62
    2
 10
1013.9254991561139
 20
1235.0204558554021
 11
1016.2329490063422
 21
1237.3279057056282
  0
LINE
  8
_0-0_
  6
CONTINUOUS
 62
    2
 10
1021.286772875501
 20
1177.3279057056279
 11
1023.667520245912
 21
1179.7086530760384
  0
LINE
  8
_0-0_
  6
CONTINUOUS
 62
    2
 10
1018.4583457507543
 20
1177.3279057056279
 11
1023.5720543088756
 21
1182.4416142637465
  0
LINE
  8
_0-0_
  6
CONTINUOUS
 62
    2
 10
1015.6299186260113
 20
1177.3279057056277
 11
1023.7038788331485
 21
1185.4018659127642
  0
LINE
  8
_0-0_
  6
CONTINUOUS
 62
    2
 10
1013.9254991561139
 20
1178.4519133604781
 11
1022.8014915012646
 21
1187.3279057056279
  0
LINE
  8
_0-0_
  6
CONTINUOUS
 62
    2
 10
1013.9254991561139
 20
1181.2803404852245
 11
1019.973064376518
 21
1187.3279057056279
  0
LINE
  8
_0-0_
  6
CONTINUOUS
 62
    2
 10
1013.9254991561139
 20
1184.1087676099714
 11
1017.1446372517713
 21
1187.3279057056277
  0
LINE
  8
_0-0_
  6
CONTINUOUS
 62
    2
 10
1013.9254991561139
 20
1186.9371947347165
 11
1014.3162101270246
 21
1187.3279057056277
  0
LINE
  8
_0-0_
  6
CONTINUOUS
 62
    2
 10
1023.2035117548186
 20
1227.3279057056279
 11
1023.8399114355344
 21
1227.9643053863456
  0
LINE
  8
_0-0_
  6
CONTINUOUS
 62
    2
 10
1020.3750846300719
 20
1227.3279057056279
 11
1023.6149408841194
 21
1230.5677619596747
  0
LINE
  8
_0-0_
  6
CONTINUOUS
 62
    2
 10
1017.5466575053252
 20
1227.3279057056279
 11
1023.5868934154752
 21
1233.3681416157788
  0
LINE
  8
_0-0_
  6
CONTINUOUS
 62
    2
 10
1014.7182303805786
 20
1227.3279057056275
 11
1023.8067432478712
 21
1236.4164185729214
  0
LINE
  8
_0-0_
  6
CONTINUOUS
 62
    2
 10
1013.9254991561139
 20
1229.3636016059093
 11
1021.8898032558319
 21
1237.3279057056277
  0
LINE
  8
_0-0_
  6
CONTINUOUS
 62
    2
 10
1013.9254991561139
 20
1232.1920287306555
 11
1019.0613761310889
 21
1237.3279057056282
  0
LINE
  8
_0-0_
  6
CONTINUOUS
 62
    2
 10
1013.9254991561139
 20
1235.0204558554021
 11
1016.2329490063422
 21
1237.3279057056282
  0
LINE
  8
_0-0_
  6
CONTINUOUS
 62
    7
 10
873.92549915611391
 20
1272.9922480620144
 11
1013.5056235992307
 21
1268.1180027107075
  0
LINE
  8
_0-0_
  6
CONTINUOUS
 62
    7
 10
873.92549915611391
 20
1272.9922480620144
 11
873.92549915611391
 21
772.99224806201528
  0
LINE
  8
_0-0_
  6
CONTINUOUS
 62
    4
 10
879.09999663962674
 20
1278.8152078939502
 11
1016.1377012032937
 21
1274.0297458012046
  0
LINE
  8
_0-0_
  6
CONTINUOUS
 62
    4
 10
873.92549915611391
 20
1273.8182537588548
 11
873.92549915611391
 21
1272.9922480620144
  0
ARC
  8
_0-0_
  6
CONTINUOUS
 62
    4
 10
878.92549915611391
 20
1273.8182537588548
 40
5
 50
88.000000000000227
 51
180.00000000000006
  0
LINE
  8
_0-0_
  6
CONTINUOUS
 62
    7
 10
995.53502522587962
 20
219.54716566112324
 11
995.53502522587962
 21
299.29100769314732
  0
ARC
  8
_0-0_
  6
CONTINUOUS
 62
    7
 10
1083.7824322721899
 20
353.29100769314732
 40
18
 50
0
 51
180
  0
LINE
  8
_0-0_
  6
CONTINUOUS
 62
    4
 10
981.51698891080389
 20
473.35431986518574
 11
1006.3350252258825
 21
447.65449093216716
  0
LINE
  8
_0-0_
  6
CONTINUOUS
 62
    7
 10
976.77924922348768
 20
462.71318230229076
 11
995.53502522587962
 21
443.29100769314732
  0
LINE
  8
_0-0_
  6
CONTINUOUS
 62
    7
 10
725.53502522588326
 20
398.41928681763216
 11
796.13708411865821
 21
469.02134571040619
  0
LINE
  8
_0-0_
  6
CONTINUOUS
 62
    7
 10
725.53502522587962
 20
411.1472088789867
 11
783.8386334192802
 21
469.45081707238637
  0
LINE
  8
_0-0_
  6
CONTINUOUS
 62
    7
 10
725.53502522587962
 20
423.87513094034398
 11
771.54018271990219
 21
469.88028843436473
  0
LINE
  8
_0-0_
  6
DASHED1
 62
    7
 10
802.60143495018576
 20
389.29100769314732
 11
802.60143495018576
 21
317.29100769314732
  0
LINE
  8
_0-0_
  6
DASHED1
 62
    7
 10
802.60143495018576
 20
389.29100769314732
 11
802.60143495018576
 21
317.29100769314732
  0
ARC
  8
_0-0_
  6
CONTINUOUS
 62
    7
 10
1083.7824322721899
 20
353.29100769314732
 40
36
 50
1.8794552231624875
 51
90
  0
LINE
  8
_0-0_
  6
CONTINUOUS
 62
    7
 10
1101.7824322721899
 20
353.29100769314732
 11
1101.7824322721899
 21
245.29100769314732
  0
LINE
  8
_0-0_
  6
CONTINUOUS
 62
    7
 10
1065.7824322721899
 20
353.29100769314732
 11
1065.7824322721899
 21
245.29100769314732
  0
ARC
  8
_0-0_
  6
DASHED1
 62
    7
 10
1083.7824322721899
 20
353.29100769314732
 40
18
 50
180
 51
1.879455223162438
  0
ARC
  8
_0-0_
  6
CONTINUOUS
 62
    7
 10
1083.7824322721899
 20
245.29100769314732
 40
18
 50
180
 51
0
  0
CIRCLE
  8
_0-0_
  6
DASHED1
 62
    7
 10
839.19177733944173
 20
353.88135008240329
 40
17.409657610744127
  0
ARC
  8
_0-0_
  6
CONTINUOUS
 62
    7
 10
1083.7824322721899
 20
353.29100769314732
 40
36
 50
299.99999999999989
 51
1.8794552231624542
  0
ARC
  8
_0-0_
  6
DASHED1
 62
    7
 10
1083.7824322721899
 20
353.88135008240329
 40
36.512444626051284
 50
270
 51
299.53680866691025
  0
LINE
  8
_0-0_
  6
DASHED1
 62
    7
 10
1065.7824322721899
 20
317.29100769314732
 11
1083.7824322721899
 21
317.29100769314732
  0
LINE
  8
_0-0_
  6
DASHED1
 62
    7
 10
995.53502522587962
 20
389.29100769314732
 11
802.60143495018576
 21
389.29100769314732
  0
LINE
  8
_0-0_
  6
DASHED1
 62
    7
 10
995.53502522587962
 20
317.29100769314732
 11
802.60143495018576
 21
317.29100769314732
  0
LINE
  8
_0-0_
  6
CONTINUOUS
 62
    7
 10
1083.7824322721899
 20
389.29100769314732
 11
995.53502522587962
 21
389.29100769314732
  0
LINE
  8
_0-0_
  6
CONTINUOUS
 62
    7
 10
1065.7824322721899
 20
317.29100769314732
 11
995.53502522587962
 21
317.29100769314732
  0
LINE
  8
_0-0_
  6
CONTINUOUS
 62
    7
 10
995.53502522587962
 20
317.29100769314732
 11
977.53502522587962
 21
317.29100769314732
  0
LINE
  8
_0-0_
  6
CONTINUOUS
 62
    7
 10
977.53502522587962
 20
317.29100769314732
 11
977.53502522587962
 21
299.29100769314732
  0
LINE
  8
_0-0_
  6
CONTINUOUS
 62
    7
 10
977.53502522587962
 20
299.29100769314732
 11
995.53502522587962
 21
299.29100769314732
  0
LINE
  8
_0-0_
  6
CONTINUOUS
 62
    7
 10
995.53502522587962
 20
389.29100769314732
 11
977.53502522587962
 21
389.29100769314732
  0
LINE
  8
_0-0_
  6
CONTINUOUS
 62
    7
 10
977.53502522587962
 20
389.29100769314732
 11
977.53502522587962
 21
407.29100769314732
  0
LINE
  8
_0-0_
  6
CONTINUOUS
 62
    7
 10
977.53502522587962
 20
407.29100769314732
 11
995.53502522587962
 21
407.29100769314732
  0
LINE
  8
_0-0_
  6
CONTINUOUS
 62
    7
 10
995.53502522587962
 20
407.29100769314732
 11
995.53502522587962
 21
443.29100769314732
  0
LINE
  8
_0-0_
  6
CONTINUOUS
 62
    2
 10
995.5350252258803
 20
317.29100769314732
 11
995.5350252258803
 21
317.29100769314732
  0
LINE
  8
_0-0_
  6
CONTINUOUS
 62
    2
 10
995.5350252258803
 20
317.29100769314732
 11
994.99043211935509
 21
311.74046307576151
  0
LINE
  8
_0-0_
  6
CONTINUOUS
 62
    2
 10
994.99043211935509
 20
311.74046307576151
 11
994.93603358474604
 21
306.08510850208359
  0
LINE
  8
_0-0_
  6
CONTINUOUS
 62
    2
 10
994.93603358474604
 20
306.08510850208359
 11
995.3734824940002
 21
300.49677905908732
  0
LINE
  8
_0-0_
  6
CONTINUOUS
 62
    2
 10
995.3734824940002
 20
300.49677905908732
 11
995.5350252258803
 21
299.29100769314732
  0
LINE
  8
_0-0_
  6
CONTINUOUS
 62
    2
 10
995.5350252258803
 20
407.29100769314732
 11
995.5350252258803
 21
407.29100769314732
  0
LINE
  8
_0-0_
  6
CONTINUOUS
 62
    2
 10
995.5350252258803
 20
407.29100769314732
 11
994.99043211935509
 21
401.74046307576151
  0
LINE
  8
_0-0_
  6
CONTINUOUS
 62
    2
 10
994.99043211935509
 20
401.74046307576151
 11
994.93603358474604
 21
396.08510850208359
  0
LINE
  8
_0-0_
  6
CONTINUOUS
 62
    2
 10
994.93603358474604
 20
396.08510850208359
 11
995.3734824940002
 21
390.49677905908732
  0
LINE
  8
_0-0_
  6
CONTINUOUS
 62
    2
 10
995.3734824940002
 20
390.49677905908732
 11
995.5350252258803
 21
389.29100769314732
  0
LINE
  8
_0-0_
  6
CONTINUOUS
 62
    2
 10
994.23544790354583
 20
389.29100769314732
 11
995.38096732883798
 21
390.43652711843947
  0
LINE
  8
_0-0_
  6
CONTINUOUS
 62
    2
 10
989.1442790790062
 20
389.29100769314732
 11
994.97602033628948
 21
395.12274895043151
  0
LINE
  8
_0-0_
  6
CONTINUOUS
 62
    2
 10
984.05311025445928
 20
389.29100769314732
 11
994.9255348927328
 21
400.16343233141902
  0
LINE
  8
_0-0_
  6
CONTINUOUS
 62
    2
 10
978.96194142991601
 20
389.29100769314687
 11
995.32126459104268
 21
405.65033085427581
  0
LINE
  8
_0-0_
  6
CONTINUOUS
 62
    2
 10
977.53502522588326
 20
392.95526031365421
 11
991.87077260537637
 21
407.29100769314732
  0
LINE
  8
_0-0_
  6
CONTINUOUS
 62
    2
 10
977.53502522587962
 20
398.04642913819748
 11
986.7796037808331
 21
407.29100769314823
  0
LINE
  8
_0-0_
  6
CONTINUOUS
 62
    2
 10
977.53502522587962
 20
403.13759796274121
 11
981.68843495628619
 21
407.29100769314823
  0
LINE
  8
_0-0_
  6
CONTINUOUS
 62
    2
 10
990.78531792077786
 20
299.29100769314732
 11
995.07066318751833
 21
303.57635295988644
  0
LINE
  8
_0-0_
  6
CONTINUOUS
 62
    2
 10
985.69414909623458
 20
299.29100769314732
 11
994.89882450084781
 21
308.495683097761
  0
LINE
  8
_0-0_
  6
CONTINUOUS
 62
    2
 10
980.60298027169495
 20
299.29100769314732
 11
995.1361086445396
 21
313.82413606599289
  0
LINE
  8
_0-0_
  6
CONTINUOUS
 62
    2
 10
977.53502522587962
 20
301.314221471878
 11
993.51181144715167
 21
317.29100769314732
  0
LINE
  8
_0-0_
  6
CONTINUOUS
 62
    2
 10
977.53502522587962
 20
306.40539029642127
 11
988.4206426226084
 21
317.29100769314732
  0
LINE
  8
_0-0_
  6
CONTINUOUS
 62
    2
 10
977.53502522587962
 20
311.49655912096591
 11
983.32947379806149
 21
317.29100769314732
  0
LINE
  8
_0-0_
  6
CONTINUOUS
 62
    2
 10
977.53502522588326
 20
316.58772794550691
 11
978.23830497352185
 21
317.29100769314732
  0
LINE
  8
_0-0_
  6
CONTINUOUS
 62
    2
 10
994.23544790354583
 20
389.29100769314732
 11
995.38096732883798
 21
390.43652711843947
  0
LINE
  8
_0-0_
  6
CONTINUOUS
 62
    2
 10
989.1442790790062
 20
389.29100769314732
 11
994.97602033628948
 21
395.12274895043151
  0
LINE
  8
_0-0_
  6
CONTINUOUS
 62
    2
 10
984.05311025445928
 20
389.29100769314732
 11
994.9255348927328
 21
400.16343233141902
  0
LINE
  8
_0-0_
  6
CONTINUOUS
 62
    2
 10
978.96194142991601
 20
389.29100769314687
 11
995.32126459104268
 21
405.65033085427581
  0
LINE
  8
_0-0_
  6
CONTINUOUS
 62
    2
 10
977.53502522588326
 20
392.95526031365421
 11
991.87077260537637
 21
407.29100769314732
  0
LINE
  8
_0-0_
  6
CONTINUOUS
 62
    2
 10
977.53502522587962
 20
398.04642913819748
 11
986.7796037808331
 21
407.29100769314823
  0
LINE
  8
_0-0_
  6
CONTINUOUS
 62
    2
 10
977.53502522587962
 20
403.13759796274121
 11
981.68843495628619
 21
407.29100769314823
  0
LINE
  8
_0-0_
  6
CONTINUOUS
 62
    4
 10
734.8491206962027
 20
481.96815163212773
 11
981.51698891080389
 21
473.35431986518574
  0
LINE
  8
_0-0_
  6
CONTINUOUS
 62
    4
 10
725.53502522587962
 20
472.97363418895588
 11
725.53502522587962
 21
471.4868239346431
  0
ARC
  8
_0-0_
  6
CONTINUOUS
 62
    4
 10
734.53502522587962
 20
472.97363418895588
 40
9
 50
88.000000000000227
 51
180.00000000000006
  0
LINE
  8
_0-0_
  6
CONTINUOUS
 62
    7
 10
725.53502522587962
 20
471.4868239346431
 11
725.53502522587962
 21
219.54716566112324
  0
LINE
  8
_0-0_
  6
CONTINUOUS
 62
    7
 10
928.50056591011173
 20
219.54716566112324
 11
995.53502522587962
 21
286.58162497689204
  0
LINE
  8
_0-0_
  6
CONTINUOUS
 62
    7
 10
941.2284879714681
 20
219.54716566112324
 11
995.53502522588326
 21
273.8537029155375
  0
LINE
  8
_0-0_
  6
CONTINUOUS
 62
    7
 10
953.95641003282446
 20
219.54716566112324
 11
995.53502522587962
 21
261.12578085417908
  0
LINE
  8
_0-0_
  6
CONTINUOUS
 62
    7
 10
989.9021837481306
 20
396.78857603113124
 11
1036.3920598830846
 21
443.27845216608534
  0
POINT
  8
_0-0_
 62
    7
 10
989.9021837481306
 20
396.78857603113124
  0
TEXT
  8
_0-0_
 62
    7
 10
1037.6436586973978
 20
433.72025943538551
 40
21.617968000000001
 41
1
 50
0
  1
ｼｰﾘﾝｸﾞ
  0
LINE
  8
_0-0_
  6
CONTINUOUS
 62
    7
 10
987.80907898190719
 20
309.7175475179763
 11
1036.3920598830846
 21
443.27845216608534
  0
POINT
  8
_0-0_
 62
    7
 10
987.80907898190719
 20
309.7175475179763
  0
LINE
  8
_0-0_
  6
CONTINUOUS
 62
    7
 10
976.77924922348768
 20
462.71318230229076
 11
725.53502522587962
 21
471.48682393464173
  0
LINE
  8
_0-0_
  6
CONTINUOUS
 62
    7
 10
1019.0127681612958
 20
483.64046651068082
 11
986.15713722468479
 21
453.00209499771785
  0
POINT
  8
_0-0_
 62
    7
 10
986.15713722468479
 20
453.00209499771785
  0
TEXT
  8
_0-0_
 62
    7
 10
1021.0402088239063
 20
486.09717044519834
 40
21.617968000000001
 41
1
 50
0
  1
面取り
  0
LINE
  8
_0-0_
  6
CONTINUOUS
 62
    4
 10
1029.9254991561138
 20
1233.3279057056279
 11
1029.9254991561138
 21
1259.7520630606386
  0
LINE
  8
_0-0_
  6
CONTINUOUS
 62
    4
 10
1029.9254991561138
 20
1181.3279057056279
 11
1029.9254991561138
 21
1067.9922480620153
  0
LINE
  8
_0-0_
  6
CONTINUOUS
 62
    4
 10
1037.9254991561138
 20
1233.3279057056279
 11
1029.9254991561138
 21
1233.3279057056279
  0
ARC
  8
_0-0_
  6
CONTINUOUS
 62
    4
 10
1037.9254991561138
 20
1227.3279057056279
 40
6
 50
0
 51
90.000000000000014
  0
LINE
  8
_0-0_
  6
CONTINUOUS
 62
    4
 10
1037.9254991561138
 20
1181.3279057056279
 11
1029.9254991561138
 21
1181.3279057056279
  0
ARC
  8
_0-0_
  6
CONTINUOUS
 62
    4
 10
1037.9254991561138
 20
1187.3279057056279
 40
6
 50
270
 51
0
  0
LINE
  8
_0-0_
  6
CONTINUOUS
 62
    4
 10
1006.3350252258825
 20
400.09100769314733
 11
1006.3350252258825
 21
447.65449093216716
  0
LINE
  8
_0-0_
  6
CONTINUOUS
 62
    4
 10
1006.3350252258825
 20
306.49100769314737
 11
1006.3350252258825
 21
219.54716566112324
  0
LINE
  8
_0-0_
  6
CONTINUOUS
 62
    4
 10
1020.7350252258796
 20
400.09100769314733
 11
1006.3350252258825
 21
400.09100769314733
  0
ARC
  8
_0-0_
  6
CONTINUOUS
 62
    4
 10
1020.7350252258796
 20
389.29100769314732
 40
10.800000000000001
 50
0
 51
90
  0
LINE
  8
_0-0_
  6
CONTINUOUS
 62
    4
 10
1020.7350252258796
 20
306.49100769314737
 11
1006.3350252258825
 21
306.49100769314737
  0
ARC
  8
_0-0_
  6
CONTINUOUS
 62
    4
 10
1020.7350252258796
 20
317.29100769314732
 40
10.800000000000001
 50
270
 51
0
  0
LINE
  8
_0-0_
  6
CONTINUOUS
 62
    7
 10
672.13606690525205
 20
1553.3565543671132
 11
1706.8525777203686
 21
1553.3565543671132
  0
LINE
  8
_0-0_
  6
CONTINUOUS
 62
    7
 10
672.13606690525205
 20
1633.3565543671132
 11
1706.8525777203686
 21
1633.3565543671132
  0
LINE
  8
_0-0_
  6
CONTINUOUS
 62
    7
 10
672.13606690525205
 20
1473.3565543671132
 11
1706.8525777203686
 21
1473.3565543671132
  0
LINE
  8
_0-0_
  6
CONTINUOUS
 62
    7
 10
1189.4943223128103
 20
1633.3565543671132
 11
1189.4943223128103
 21
1473.3565543671132
  0
TEXT
  8
_0-0_
 62
    7
 10
696.13606690525205
 20
1497.3565543671132
 40
20
 41
1
 50
0
  1
施工部位：パラペット(丸環)
  0
TEXT
  8
_0-0_
 62
    7
 10
1213.4943223128103
 20
1497.3565543671132
 40
20
 41
1
 50
0
  1
下地：コンクリートスラブ
  0
TEXT
  8
_0-0_
 62
    7
 10
1213.4943223128103
 20
1577.3565543671132
 40
20
 41
1
 50
0
  1
構造：ＲＣ造
  0
TEXT
  8
_0-0_
 62
    7
 10
696.13606690525205
 20
1577.3565543671132
 40
20
 41
1
 50
0
  1
図面番号：tsuki-SP-para-03
  0
ENDSEC
  0
EOF
