  0
SECTION
  2
HEADER
  9
$ACADVER
  1
AC1009
  9
$INSBASE
 10
0
 20
0
 30
0
  9
$EXTMIN
 10
0
 20
0
  9
$EXTMAX
 10
2378
 20
1682
  9
$LIMMIN
 10
0
 20
0
  9
$LIMMAX
 10
2378
 20
1682
  9
$LTSCALE
 40
1
  0
ENDSEC
  0
SECTION
  2
TABLES
  0
TABLE
  2
LTYPE
 70
     9
  0
LTYPE
  2
CONTINUOUS
 70
    64
  3
実線
 72
    65
 73
     0
 40
0.0
  0
LTYPE
  2
DASHED1
 70
    64
  3
--  --  --  --  --  --  --  --  
 72
    65
 73
     2
 40
2.5
 49
1.25
 49
-1.25
  0
LTYPE
  2
DASHED2
 70
    64
  3
----    ----    ----    ----    
 72
    65
 73
     2
 40
5.0
 49
2.5
 49
-2.5
  0
LTYPE
  2
DASHED3
 70
    64
  3
------  ------  ------  ------  
 72
    65
 73
     2
 40
5.0
 49
3.75
 49
-1.25
  0
LTYPE
  2
CENTER1
 70
    64
  3
----- - ----- - ----- - ----- - 
 72
    65
 73
     4
 40
10.0
 49
6.25
 49
-1.25
 49
1.25
 49
-1.25
  0
LTYPE
  2
CENTER2
 70
    64
  3
----------  --  ----------  --  
 72
    65
 73
     4
 40
20.0
 49
12.5
 49
-2.5
 49
2.5
 49
-2.5
  0
LTYPE
  2
PHANTOM1
 70
    64
  3
--- - - --- - - --- - - --- - - 
 72
    65
 73
     6
 40
10.0
 49
3.25
 49
-1.25
 49
1.25
 49
-1.25
 49
1.25
 49
-1.25
  0
LTYPE
  2
PHANTOM2
 70
    64
  3
--------  -  -  --------  -  -  
 72
    65
 73
     6
 40
20.0
 49
10.0
 49
-2.5
 49
1.25
 49
-2.5
 49
1.25
 49
-2.5
  0
LTYPE
  2
DOT
 70
    64
  3
-   -   -   -   -   -   -   -   
 72
    65
 73
     2
 40
2.5
 49
0.625
 49
-1.875
  0
LTYPE
  2
DUMMY
 70
    64
  3
ダミー
 72
    65
 73
     0
 40
0.0
  0
LTYPE
  2
RAND1
 70
    64
  3
ランダム線1
 72
    65
 73
     4
 40
10.0
 49
1.0
 49
-2.0
 49
3.0
 49
-4.0
  0
LTYPE
  2
RAND2
 70
    64
  3
ランダム線2
 72
    65
 73
     4
 40
14.0
 49
2.0
 49
-3.0
 49
4.0
 49
-5.0
  0
LTYPE
  2
RAND3
 70
    64
  3
ランダム線3
 72
    65
 73
     4
 40
18.0
 49
3.0
 49
-4.0
 49
5.0
 49
-6.0
  0
LTYPE
  2
RAND4
 70
    64
  3
ランダム線4
 72
    65
 73
     4
 40
22.0
 49
4.0
 49
-5.0
 49
6.0
 49
-7.0
  0
LTYPE
  2
RAND5
 70
    64
  3
ランダム線5
 72
    65
 73
     4
 40
26.0
 49
5.0
 49
-6.0
 49
7.0
 49
-8.0
  0
LTYPE
  2
LONG1
 70
    64
  3
----------  --  ----------  --  
 72
    65
 73
     4
 40
40.0
 49
32.5
 49
-2.5
 49
2.5
 49
-2.5
  0
LTYPE
  2
LONG2
 70
    64
  3
--------  -  -  --------  -  -  
 72
    65
 73
     6
 40
40.0
 49
30.0
 49
-2.5
 49
1.25
 49
-2.5
 49
1.25
 49
-2.5
  0
LTYPE
  2
LONG3
 70
    64
  3
+++++++++++++++..+++++++++++++++
 72
    65
 73
     2
 40
40.0
 49
37.5
 49
-2.5
  0
LTYPE
  2
LONG4
 70
    64
  3
+++++++++++++++..+++++++++++++++
 72
    65
 73
     2
 40
80.0
 49
75.0
 49
-5.0
  0
LTYPE
  2
LONG5
 70
    64
  3
----------  --  ----------  --  
 72
    65
 73
     4
 40
60.0
 49
37.5
 49
-7.5
 49
7.5
 49
-7.5
  0
LTYPE
  2
dashed
 70
   64
  3
-------   -------------   ------
 72
   65
 73
    2
 40
7.5
 49
6
 49
-1.5
  0
LTYPE
  2
dashed_spaced
 70
   64
  3
----        --------        ----
 72
   65
 73
    2
 40
12
 49
6
 49
-6
  0
LTYPE
  2
long_dashed_dotted
 70
   64
  3
------------- --- --------------
 72
   65
 73
    4
 40
15.25
 49
12
 49
-1.5
 49
0.25
 49
-1.5
  0
LTYPE
  2
long_dashed_double-dotted
 70
   64
  3
----------- --- --- ------------
 72
   65
 73
    6
 40
17
 49
12
 49
-1.5
 49
0.25
 49
-1.5
 49
0.25
 49
-1.5
  0
LTYPE
  2
long_dashed_triplicate-dotted
 70
   64
  3
--------- --- --- --- ----------
 72
   65
 73
    8
 40
18.75
 49
12
 49
-1.5
 49
0.25
 49
-1.5
 49
0.25
 49
-1.5
 49
0.25
 49
-1.5
  0
LTYPE
  2
dotted
 70
   64
  3
   -       -       -       -    
 72
   65
 73
    2
 40
1.75
 49
0.25
 49
-1.5
  0
LTYPE
  2
chain
 70
   64
  3
-------------- -- --------------
 72
   65
 73
    4
 40
18.5
 49
12
 49
-1.5
 49
3.5
 49
-1.5
  0
LTYPE
  2
chain_double_dash
 70
   64
  3
------------ -- -- -------------
 72
   65
 73
    6
 40
23.5
 49
12
 49
-1.5
 49
3.5
 49
-1.5
 49
3.5
 49
-1.5
  0
LTYPE
  2
dashed_dotted
 70
   64
  3
-----------     -     ----------
 72
   65
 73
    4
 40
9.25
 49
6
 49
-1.5
 49
0.25
 49
-1.5
  0
LTYPE
  2
double-dashed_dotted
 70
   64
  3
------   -----------   -   -----
 72
   65
 73
    6
 40
16.75
 49
6
 49
-1.5
 49
6
 49
-1.5
 49
0.25
 49
-1.5
  0
LTYPE
  2
dashed_double-dotted
 70
   64
  3
---------    -    -    ---------
 72
   65
 73
    6
 40
11
 49
6
 49
-1.5
 49
0.25
 49
-1.5
 49
0.25
 49
-1.5
  0
LTYPE
  2
double-dashed_double-dotted
 70
   64
  3
-----   ---------   -   -   ----
 72
   65
 73
    8
 40
18.5
 49
6
 49
-1.5
 49
6
 49
-1.5
 49
0.25
 49
-1.5
 49
0.25
 49
-1.5
  0
LTYPE
  2
dashed_triplicate-dotted
 70
   64
  3
-------    -    -    -    ------
 72
   65
 73
    8
 40
12.75
 49
6
 49
-1.5
 49
0.25
 49
-1.5
 49
0.25
 49
-1.5
 49
0.25
 49
-1.5
  0
LTYPE
  2
double-dashed_triplicate-dotted
 70
   64
  3
-----  ---------  -  -  -  -----
 72
   65
 73
   10
 40
20.25
 49
6
 49
-1.5
 49
6
 49
-1.5
 49
0.25
 49
-1.5
 49
0.25
 49
-1.5
 49
0.25
 49
-1.5
  0
LTYPE
  2
undefined
 70
   64
  3
--------------------------------
 72
   65
 73
    0
 40
0
  0
ENDTAB
  0
TABLE
  2
STYLE
  5
3
100
AcDbSymbolTable
 70
     1
  0
STYLE
  5
10
100
AcDbSymbolTableRecord
100
AcDbTextStyleTableRecord
  2
STANDARD
 70
     0
 40
0.0
 41
1.0
 50
0.0
 71
     0
 42
0.2
  3
txt
  4
bigfont.shx
  0
STYLE
  5
26
100
AcDbSymbolTableRecord
100
AcDbTextStyleTableRecord
  2
TATEGAKI
 70
    68
 40
0.0
 41
1.0
 50
0.0
 71
     0
 42
1.0
  3
txt
  4
bigfont.shx
  0
ENDTAB
  0
TABLE
  2
LAYER
 70
    2
  0
LAYER
  2
_0-0_
 70
   64
 62
    7
  6
CONTINUOUS
  0
LAYER
  2
ADD_LINE
 70
   64
 62
    7
  6
CONTINUOUS
  0
ENDTAB
  0
ENDSEC
  0
SECTION
  2
BLOCKS
  0
ENDSEC
  0
SECTION
  2
ENTITIES
  0
LINE
  8
_0-0_
  6
CONTINUOUS
 62
    7
 10
1023.9254991561139
 20
1167.9922480620153
 11
1023.9254991561139
 21
1434.4326702173551
  0
LINE
  8
_0-0_
  6
CONTINUOUS
 62
    7
 10
672.13606690525205
 20
567.53106997205498
 11
1706.8525777203686
 21
567.53106997205498
  0
LINE
  8
_0-0_
  6
CONTINUOUS
 62
    7
 10
672.13606690525205
 20
167.53106997205509
 11
1706.8525777203686
 21
167.53106997205509
  0
LINE
  8
_0-0_
  6
CONTINUOUS
 62
    7
 10
672.13606690525205
 20
627.53106997205498
 11
1706.8525777203686
 21
627.53106997205498
  0
LINE
  8
_0-0_
  6
CONTINUOUS
 62
    7
 10
1189.4943223128103
 20
627.53106997205498
 11
1189.4943223128103
 21
167.53106997205509
  0
LINE
  8
_0-0_
  6
CONTINUOUS
 62
    7
 10
672.13606690525205
 20
1633.3565543671132
 11
672.13606690525205
 21
167.53106997205509
  0
LINE
  8
_0-0_
  6
CONTINUOUS
 62
    7
 10
1706.8525777203686
 20
1633.3565543671132
 11
1706.8525777203686
 21
167.53106997205509
  0
LINE
  8
_0-0_
  6
CONTINUOUS
 62
    7
 10
1223.9254991561138
 20
872.99224806201539
 11
1523.9254991561138
 21
872.99224806201539
  0
LINE
  8
_0-0_
  6
CONTINUOUS
 62
    7
 10
1223.9254991561138
 20
872.99224806201539
 11
1223.9254991561138
 21
772.99224806201539
  0
LINE
  8
_0-0_
  6
CONTINUOUS
 62
    7
 10
1023.9254991561139
 20
1052.9922480620153
 11
1523.9254991561138
 21
1052.9922480620153
  0
LINE
  8
_0-0_
  6
CONTINUOUS
 62
    4
 10
1029.9254991561138
 20
1067.9922480620153
 11
1523.9254991561138
 21
1067.9922480620153
  0
LINE
  8
_0-0_
  6
CONTINUOUS
 62
    3
 10
1073.9254991561138
 20
1058.9922480620153
 11
1523.9254991561138
 21
1058.9922480620153
  0
LINE
  8
_0-0_
  6
CONTINUOUS
 62
    3
 10
1073.9254991561138
 20
1058.9922480620153
 11
1073.9254991561138
 21
1052.9922480620153
  0
TEXT
  8
_0-0_
 62
    7
 10
906.73245032900388
 20
575.67973412101139
 40
40
 41
1
 50
0
  1
Ａ
  0
TEXT
  8
_0-0_
 62
    7
 10
1429.6891920142098
 20
576.02721287347697
 40
40
 41
1
 50
0
  1
Ｂ
  0
LINE
  8
_0-0_
  6
CONTINUOUS
 62
    7
 10
1216.173326509459
 20
1060.4922480620153
 11
1275.9312715000378
 21
1163.9960449416039
  0
POINT
  8
_0-0_
 62
    7
 10
1216.173326509459
 20
1060.4922480620153
  0
LINE
  8
_0-0_
  6
CONTINUOUS
 62
    7
 10
1023.9254991561139
 20
1152.9922480620153
 11
1008.9254991561139
 21
1152.9922480620153
  0
LINE
  8
_0-0_
  6
CONTINUOUS
 62
    7
 10
1008.9254991561139
 20
1152.9922480620153
 11
1008.9254991561139
 21
1167.9922480620153
  0
LINE
  8
_0-0_
  6
CONTINUOUS
 62
    7
 10
1008.9254991561139
 20
1167.9922480620153
 11
1023.9254991561139
 21
1167.9922480620153
  0
LINE
  8
_0-0_
  6
CONTINUOUS
 62
    4
 10
1029.9254991561138
 20
1158.9922480620153
 11
1008.9254991561139
 21
1158.9922480620153
  0
LINE
  8
_0-0_
  6
CONTINUOUS
 62
    4
 10
1029.9254991561138
 20
1158.9922480620153
 11
1029.9254991561138
 21
1067.9922480620153
  0
LINE
  8
_0-0_
  6
CONTINUOUS
 62
    7
 10
1021.6506096881968
 20
1167.9922480620153
 11
1023.9254991561139
 21
1170.2671375299306
  0
LINE
  8
_0-0_
  6
CONTINUOUS
 62
    7
 10
1023.9254991561139
 20
1052.9922480620153
 11
1023.9254991561139
 21
1152.9922480620153
  0
ARC
  8
_0-0_
  6
CONTINUOUS
 62
    2
 10
1047.7450274843177
 20
1177.3719336141512
 40
25.599774038749615
 50
201.49359415795911
 51
225.88654089400154
  0
LINE
  8
_0-0_
  6
CONTINUOUS
 62
    2
 10
1029.1536752893735
 20
1158.9922480620153
 11
1029.5377297269733
 21
1159.3763024996151
  0
LINE
  8
_0-0_
  6
CONTINUOUS
 62
    2
 10
1026.3252481646268
 20
1158.9922480620153
 11
1028.1871405721795
 21
1160.8541404695698
  0
LINE
  8
_0-0_
  6
CONTINUOUS
 62
    2
 10
1023.4968210398803
 20
1158.9922480620153
 11
1026.9483951057609
 21
1162.4438221278951
  0
LINE
  8
_0-0_
  6
CONTINUOUS
 62
    2
 10
1020.6683939151336
 20
1158.9922480620144
 11
1025.8248435642709
 21
1164.1486977111517
  0
LINE
  8
_0-0_
  6
CONTINUOUS
 62
    2
 10
1017.8399667903869
 20
1158.9922480620144
 11
1024.8223385329511
 21
1165.9746198045796
  0
LINE
  8
_0-0_
  6
CONTINUOUS
 62
    2
 10
1015.0115396656439
 20
1158.9922480620153
 11
1023.9498741703629
 21
1167.9305825667361
  0
LINE
  8
_0-0_
  6
CONTINUOUS
 62
    2
 10
1012.1831125408972
 20
1158.9922480620153
 11
1021.1831125408972
 21
1167.9922480620162
  0
LINE
  8
_0-0_
  6
CONTINUOUS
 62
    2
 10
1009.3546854161506
 20
1158.9922480620162
 11
1018.3546854161506
 21
1167.9922480620153
  0
LINE
  8
_0-0_
  6
CONTINUOUS
 62
    2
 10
1008.9254991561139
 20
1161.3914889267262
 11
1015.5262582914021
 21
1167.9922480620153
  0
LINE
  8
_0-0_
  6
CONTINUOUS
 62
    2
 10
1008.9254991561139
 20
1164.2199160514701
 11
1012.6978311666572
 21
1167.9922480620144
  0
LINE
  8
_0-0_
  6
CONTINUOUS
 62
    2
 10
1008.9254991561139
 20
1167.0483431762168
 11
1009.8694040419106
 21
1167.9922480620153
  0
LINE
  8
_0-0_
  6
CONTINUOUS
 62
    7
 10
939.50457202305199
 20
332.52048861090782
 11
905.75457202305199
 21
332.52048861090782
  0
LINE
  8
_0-0_
  6
CONTINUOUS
 62
    7
 10
905.75457202305199
 20
332.52048861090782
 11
905.75457202305199
 21
366.27048861090782
  0
LINE
  8
_0-0_
  6
CONTINUOUS
 62
    7
 10
905.75457202305199
 20
366.27048861090782
 11
939.50457202305199
 21
366.27048861090782
  0
LINE
  8
_0-0_
  6
CONTINUOUS
 62
    4
 10
953.00457202305199
 20
346.02048861090782
 11
905.75457202305199
 21
346.02048861090782
  0
LINE
  8
_0-0_
  6
CONTINUOUS
 62
    7
 10
934.38607072024035
 20
366.27048861090782
 11
939.50457202305199
 21
371.38898991371764
  0
ARC
  8
_0-0_
  6
CONTINUOUS
 62
    2
 10
993.09851076150892
 20
387.37478110321365
 40
57.599491587186634
 50
201.49359415795911
 51
225.88654089400154
  0
LINE
  8
_0-0_
  6
CONTINUOUS
 62
    2
 10
951.26796832288539
 20
346.02048861090782
 11
952.13209080748504
 21
346.88461109550747
  0
LINE
  8
_0-0_
  6
CONTINUOUS
 62
    2
 10
944.90400729220539
 20
346.02048861090782
 11
949.0932652092016
 21
350.20974652790585
  0
LINE
  8
_0-0_
  6
CONTINUOUS
 62
    2
 10
938.54004626152903
 20
346.02048861090782
 11
946.30608790975941
 21
353.7865302591382
  0
LINE
  8
_0-0_
  6
CONTINUOUS
 62
    2
 10
932.17608523084721
 20
346.020488610906
 11
943.77809694140535
 21
357.62250032146505
  0
LINE
  8
_0-0_
  6
CONTINUOUS
 62
    2
 10
925.8121242001672
 20
346.020488610906
 11
941.52246062093775
 21
361.73082503167745
  0
LINE
  8
_0-0_
  6
CONTINUOUS
 62
    2
 10
919.44816316949448
 20
346.02048861090782
 11
939.55941580511364
 21
366.13174124652971
  0
LINE
  8
_0-0_
  6
CONTINUOUS
 62
    2
 10
913.08420213881266
 20
346.02048861090782
 11
933.33420213881266
 21
366.27048861090964
  0
LINE
  8
_0-0_
  6
CONTINUOUS
 62
    2
 10
906.72024110813447
 20
346.02048861090964
 11
926.97024110813447
 21
366.27048861090782
  0
LINE
  8
_0-0_
  6
CONTINUOUS
 62
    2
 10
905.75457202305199
 20
351.41878055650716
 11
920.60628007745265
 21
366.27048861090782
  0
LINE
  8
_0-0_
  6
CONTINUOUS
 62
    2
 10
905.75457202305199
 20
357.7827415871817
 11
914.24231904677447
 21
366.270488610906
  0
LINE
  8
_0-0_
  6
CONTINUOUS
 62
    2
 10
905.75457202305199
 20
364.14670261786171
 11
907.87835801609629
 21
366.27048861090782
  0
LINE
  8
_0-0_
  6
CONTINUOUS
 62
    7
 10
939.50457202305199
 20
366.27048861090782
 11
939.50457202305199
 21
511.18606721464141
  0
LINE
  8
_0-0_
  6
CONTINUOUS
 62
    7
 10
791.24028774411647
 20
223.12470563478223
 11
905.75457202305199
 21
337.63898991371764
  0
LINE
  8
_0-0_
  6
CONTINUOUS
 62
    7
 10
807.15019032081193
 20
223.12470563478223
 11
916.54597329693763
 21
332.52048861090782
  0
LINE
  8
_0-0_
  6
CONTINUOUS
 62
    7
 10
823.06009289750739
 20
223.12470563478223
 11
932.45587587363491
 21
332.52048861090782
  0
LINE
  8
_0-0_
  6
CONTINUOUS
 62
    4
 10
953.00457202305199
 20
346.02048861090782
 11
953.00457202305199
 21
223.12470563478223
  0
LINE
  8
_0-0_
  6
CONTINUOUS
 62
    7
 10
939.50457202305199
 20
223.12470563478223
 11
939.50457202305199
 21
332.52048861090782
  0
LINE
  8
_0-0_
  6
CONTINUOUS
 62
    7
 10
953.51410748944556
 20
1440.9858702173553
 11
951.12900748944605
 21
1434.4326702173551
  0
LINE
  8
_0-0_
  6
CONTINUOUS
 62
    7
 10
953.51410748944556
 20
1440.9858702173553
 11
944.3369074894473
 21
1427.8794702173548
  0
LINE
  8
_0-0_
  6
CONTINUOUS
 62
    7
 10
944.33690748944548
 20
1427.8794702173539
 11
946.72200748944681
 21
1434.4326702173551
  0
LINE
  8
_0-0_
  6
CONTINUOUS
 62
    7
 10
860.86667720276466
 20
1434.4326702173551
 11
946.72200748944681
 21
1434.4326702173551
  0
LINE
  8
_0-0_
  6
CONTINUOUS
 62
    7
 10
951.12900748944605
 20
1434.4326702173551
 11
1037.5246414752928
 21
1434.4326702173551
  0
LINE
  8
_0-0_
  6
CONTINUOUS
 62
    7
 10
873.92549915611391
 20
1434.4326702173551
 11
873.92549915611391
 21
772.99224806201539
  0
CIRCLE
  8
_0-0_
  6
DASHED2
 62
    1
 10
1073.9254991561138
 20
1058.9922480620153
 40
67.350194333739935
  0
TEXT
  8
_0-0_
 62
    7
 10
1062.1027257609057
 20
1114.3468449759375
 40
24
 41
1
 50
0
  1
Ｂ
  0
CIRCLE
  8
_0-0_
  6
DASHED2
 62
    1
 10
1023.9254991561139
 20
1167.9922480620153
 40
47.507213168919911
  0
TEXT
  8
_0-0_
 62
    7
 10
990.88025748601297
 20
1199.3142823383025
 40
24
 41
1
 50
0
  1
Ａ
  0
LINE
  8
_0-0_
  6
CONTINUOUS
 62
    7
 10
929.34307284690306
 20
352.70888111874262
 11
985.75992633854923
 21
450.42573776944175
  0
POINT
  8
_0-0_
 62
    7
 10
929.34307284690306
 20
352.70888111874262
  0
TEXT
  8
_0-0_
 62
    7
 10
987.28360781871027
 20
442.52673463905251
 40
21.617968000000001
 41
1
 50
0
  1
ｼｰﾘﾝｸﾞ
  0
LINE
  8
_0-0_
  6
DASHED2
 62
    5
 10
1425.5701831473489
 20
292.2616471669113
 11
1524.5307702299579
 21
292.2616471669113
  0
LINE
  8
_0-0_
  6
CONTINUOUS
 62
    7
 10
1373.9158911254926
 20
304.61694070821579
 11
1420.9329401039067
 21
386.05285836078804
  0
LINE
  8
_0-0_
  6
CONTINUOUS
 62
    7
 10
1223.6488447193624
 20
418.38900488834008
 11
1298.1724326237745
 21
492.91259279275312
  0
LINE
  8
_0-0_
  6
CONTINUOUS
 62
    7
 10
1223.6488447193624
 20
434.29890746503736
 11
1282.2625300470791
 21
492.91259279275312
  0
LINE
  8
_0-0_
  6
CONTINUOUS
 62
    7
 10
1223.6488447193624
 20
450.20881004173282
 11
1266.3526274703836
 21
492.91259279275312
  0
LINE
  8
_0-0_
  6
CONTINUOUS
 62
    7
 10
1313.0701831473489
 20
275.7616471669113
 11
1673.2417857667424
 21
275.7616471669113
  0
LINE
  8
_0-0_
  6
CONTINUOUS
 62
    3
 10
1425.5701831473489
 20
289.2616471669113
 11
1673.2417857667424
 21
289.2616471669113
  0
LINE
  8
_0-0_
  6
CONTINUOUS
 62
    4
 10
1326.5701831473489
 20
309.5116471669113
 11
1673.2417857667424
 21
309.5116471669113
  0
LINE
  8
_0-0_
  6
CONTINUOUS
 62
    7
 10
1508.9205661909109
 20
194.54384390557402
 11
1590.1383694522447
 21
275.76164716690857
  0
LINE
  8
_0-0_
  6
CONTINUOUS
 62
    7
 10
1493.0106636142118
 20
194.54384390557402
 11
1574.2284668755492
 21
275.76164716690857
  0
LINE
  8
_0-0_
  6
CONTINUOUS
 62
    7
 10
1477.1007610375163
 20
194.54384390557402
 11
1558.3185642988537
 21
275.76164716690857
  0
LINE
  8
_0-0_
  6
CONTINUOUS
 62
    4
 10
1326.5701831473489
 20
492.91259279275312
 11
1326.5701831473489
 21
309.5116471669113
  0
LINE
  8
_0-0_
  6
CONTINUOUS
 62
    7
 10
1313.0701831473489
 20
275.7616471669113
 11
1313.0701831473489
 21
492.91259279275312
  0
LINE
  8
_0-0_
  6
DASHED2
 62
    5
 10
1313.0701831473489
 20
281.7616471669113
 11
1415.0701831473489
 21
281.7616471669113
  0
LINE
  8
_0-0_
  6
CONTINUOUS
 62
    3
 10
1425.5701831473489
 20
289.2616471669113
 11
1425.5701831473489
 21
275.7616471669113
  0
LINE
  8
_0-0_
  6
DASHED2
 62
    5
 10
1425.5701831473489
 20
292.2616471669113
 11
1415.0701831473489
 21
281.7616471669113
  0
POINT
  8
_0-0_
 62
    7
 10
1373.9158911254926
 20
304.61694070821579
  0
LINE
  8
_0-0_
  6
CONTINUOUS
 62
    7
 10
1334.0517060626298
 20
309.5116471669113
 11
1412.763571775602
 21
445.84459774032132
  0
POINT
  8
_0-0_
 62
    7
 10
1334.0517060626298
 20
309.5116471669113
  0
POINT
  8
_0-0_
 62
    7
 10
1473.4168311262656
 20
292.2616471669113
  0
POINT
  8
_0-0_
 62
    7
 10
1531.3266329162761
 20
282.5116471669113
  0
LINE
  8
_0-0_
  6
CONTINUOUS
 62
    7
 10
1578.3051795642896
 20
275.7616471669113
 11
1609.6698875794464
 21
330.08691501372562
  0
POINT
  8
_0-0_
 62
    7
 10
1578.3051795642896
 20
275.7616471669113
  0
TEXT
  8
_0-0_
 62
    7
 10
1402.3723600491685
 20
448.19313523000881
 40
21.617968000000001
 41
1
 50
0
  1
ﾄｯﾌﾟｺｰﾄ
  0
TEXT
  8
_0-0_
 62
    7
 10
1525.4156564909754
 20
407.66767727770423
 40
21.617968000000001
 41
1
 50
0
  1
DFﾒｯｼｭﾃｰﾌﾟ
  0
TEXT
  8
_0-0_
 62
    7
 10
1404.8424502637754
 20
388.94104851762143
 40
21.617968000000001
 41
1
 50
0
  1
ｳﾚﾀﾝ防水
  0
LINE
  8
_0-0_
  6
CONTINUOUS
 62
    7
 10
1473.4168311262656
 20
292.2616471669113
 11
1535.9958336372074
 21
400.65165900283921
  0
TEXT
  8
_0-0_
 62
    7
 10
1552.1029978818624
 20
365.94892818641608
 40
21.617968000000001
 41
1
 50
0
  1
通気緩衝ｼｰﾄ
  0
TEXT
  8
_0-0_
 62
    7
 10
1604.2646196913229
 20
331.44701285070039
 40
21.617968000000001
 41
1
 50
0
  1
ﾌﾟﾗｲﾏｰ
  0
LINE
  8
_0-0_
  6
CONTINUOUS
 62
    7
 10
1531.3266329162761
 20
282.5116471669113
 11
1576.2283169234724
 21
360.28364521278024
  0
TEXT
  8
_0-0_
 62
    7
 10
1280.2451333720019
 20
1151.6190414852781
 40
30
 41
1
 50
0
  1
防水層
  0
LINE
  8
_0-0_
  6
CONTINUOUS
 62
    7
 10
1022.6196214063494
 20
1163.4106373771497
 11
1072.0357106807751
 21
1249.0018147118151
  0
POINT
  8
_0-0_
 62
    7
 10
1022.6196214063494
 20
1163.4106373771497
  0
TEXT
  8
_0-0_
 62
    7
 10
1074.5088904301956
 20
1234.19599858887
 40
30
 41
1
 50
0
  1
ｼｰﾘﾝｸﾞ
  0
LINE
  8
_0-0_
  6
CONTINUOUS
 62
    7
 10
1179.8420573971889
 20
772.99224806201573
 11
1223.9254991561138
 21
817.07568982093835
  0
LINE
  8
_0-0_
  6
CONTINUOUS
 62
    7
 10
1279.8420573971889
 20
872.99224806201482
 11
1459.8420573971889
 21
1052.9922480620153
  0
LINE
  8
_0-0_
  6
CONTINUOUS
 62
    7
 10
1172.7709895853259
 20
772.99224806201528
 11
1223.9254991561138
 21
824.1467576328032
  0
LINE
  8
_0-0_
  6
CONTINUOUS
 62
    7
 10
1272.7709895853222
 20
872.99224806201437
 11
1452.7709895853241
 21
1052.9922480620148
  0
LINE
  8
_0-0_
  6
CONTINUOUS
 62
    7
 10
1165.6999217734574
 20
772.99224806201528
 11
1223.925499156112
 21
831.21782544466987
  0
LINE
  8
_0-0_
  6
CONTINUOUS
 62
    7
 10
1265.6999217734592
 20
872.99224806201528
 11
1445.6999217734574
 21
1052.9922480620148
  0
LINE
  8
_0-0_
  6
CONTINUOUS
 62
    7
 10
873.92549915611391
 20
778.20267354302086
 11
1148.7150736751082
 21
1052.9922480620162
  0
LINE
  8
_0-0_
  6
CONTINUOUS
 62
    7
 10
873.92549915611391
 20
785.27374135488435
 11
1141.6440058632434
 21
1052.9922480620153
  0
LINE
  8
_0-0_
  6
CONTINUOUS
 62
    7
 10
873.92549915611391
 20
792.34480916674875
 11
1134.5729380513767
 21
1052.9922480620144
  0
LINE
  8
_0-0_
  6
CONTINUOUS
 62
    7
 10
873.92549915611391
 20
1089.3296572650993
 11
1023.9254991561139
 21
1239.3296572650997
  0
LINE
  8
_0-0_
  6
CONTINUOUS
 62
    7
 10
873.92549915611391
 20
1096.4007250769669
 11
1023.9254991561139
 21
1246.4007250769664
  0
LINE
  8
_0-0_
  6
CONTINUOUS
 62
    7
 10
873.92549915611391
 20
1103.4717928888299
 11
1023.9254991561139
 21
1253.4717928888294
  0
LINE
  8
_0-0_
  6
CONTINUOUS
 62
    7
 10
873.92549915611391
 20
1400.4566409871804
 11
907.90152838628649
 21
1434.4326702173548
  0
LINE
  8
_0-0_
  6
CONTINUOUS
 62
    7
 10
873.92549915611391
 20
1407.5277087990489
 11
900.83046057441982
 21
1434.4326702173557
  0
LINE
  8
_0-0_
  6
CONTINUOUS
 62
    7
 10
873.92549915611391
 20
1414.598776610912
 11
893.75939276255679
 21
1434.4326702173548
  0
LINE
  8
_0-0_
  6
CONTINUOUS
 62
    7
 10
672.13606690525205
 20
1553.3565543671132
 11
1706.8525777203686
 21
1553.3565543671132
  0
LINE
  8
_0-0_
  6
CONTINUOUS
 62
    7
 10
672.13606690525205
 20
1633.3565543671132
 11
1706.8525777203686
 21
1633.3565543671132
  0
LINE
  8
_0-0_
  6
CONTINUOUS
 62
    7
 10
672.13606690525205
 20
1473.3565543671132
 11
1706.8525777203686
 21
1473.3565543671132
  0
LINE
  8
_0-0_
  6
CONTINUOUS
 62
    7
 10
1189.4943223128103
 20
1633.3565543671132
 11
1189.4943223128103
 21
1473.3565543671132
  0
TEXT
  8
_0-0_
 62
    7
 10
1213.4943223128103
 20
1577.3565543671132
 40
20
 41
1
 50
0
  1
構造：ＲＣ造
  0
TEXT
  8
_0-0_
 62
    7
 10
1213.4943223128103
 20
1497.3565543671132
 40
20
 41
1
 50
0
  1
下地：コンクリートスラブ
  0
TEXT
  8
_0-0_
 62
    7
 10
696.13606690525194
 20
1577.3565543671132
 40
20
 41
1
 50
0
  1
図面番号：tsuki-SP-kabe-02
  0
TEXT
  8
_0-0_
 62
    7
 10
696.13606690525205
 20
1497.3565543671132
 40
20
 41
1
 50
0
  1
施工部位：壁立上り(目地シーリング)
  0
ENDSEC
  0
EOF
