  0
SECTION
  2
HEADER
  9
$ACADVER
  1
AC1009
  9
$INSBASE
 10
0
 20
0
 30
0
  9
$EXTMIN
 10
0
 20
0
  9
$EXTMAX
 10
2378
 20
1682
  9
$LIMMIN
 10
0
 20
0
  9
$LIMMAX
 10
2378
 20
1682
  9
$LTSCALE
 40
1
  0
ENDSEC
  0
SECTION
  2
TABLES
  0
TABLE
  2
LTYPE
 70
     9
  0
LTYPE
  2
CONTINUOUS
 70
    64
  3
実線
 72
    65
 73
     0
 40
0.0
  0
LTYPE
  2
DASHED1
 70
    64
  3
--  --  --  --  --  --  --  --  
 72
    65
 73
     2
 40
2.5
 49
1.25
 49
-1.25
  0
LTYPE
  2
DASHED2
 70
    64
  3
----    ----    ----    ----    
 72
    65
 73
     2
 40
5.0
 49
2.5
 49
-2.5
  0
LTYPE
  2
DASHED3
 70
    64
  3
------  ------  ------  ------  
 72
    65
 73
     2
 40
5.0
 49
3.75
 49
-1.25
  0
LTYPE
  2
CENTER1
 70
    64
  3
----- - ----- - ----- - ----- - 
 72
    65
 73
     4
 40
10.0
 49
6.25
 49
-1.25
 49
1.25
 49
-1.25
  0
LTYPE
  2
CENTER2
 70
    64
  3
----------  --  ----------  --  
 72
    65
 73
     4
 40
20.0
 49
12.5
 49
-2.5
 49
2.5
 49
-2.5
  0
LTYPE
  2
PHANTOM1
 70
    64
  3
--- - - --- - - --- - - --- - - 
 72
    65
 73
     6
 40
10.0
 49
3.25
 49
-1.25
 49
1.25
 49
-1.25
 49
1.25
 49
-1.25
  0
LTYPE
  2
PHANTOM2
 70
    64
  3
--------  -  -  --------  -  -  
 72
    65
 73
     6
 40
20.0
 49
10.0
 49
-2.5
 49
1.25
 49
-2.5
 49
1.25
 49
-2.5
  0
LTYPE
  2
DOT
 70
    64
  3
-   -   -   -   -   -   -   -   
 72
    65
 73
     2
 40
2.5
 49
0.625
 49
-1.875
  0
LTYPE
  2
DUMMY
 70
    64
  3
ダミー
 72
    65
 73
     0
 40
0.0
  0
LTYPE
  2
RAND1
 70
    64
  3
ランダム線1
 72
    65
 73
     4
 40
10.0
 49
1.0
 49
-2.0
 49
3.0
 49
-4.0
  0
LTYPE
  2
RAND2
 70
    64
  3
ランダム線2
 72
    65
 73
     4
 40
14.0
 49
2.0
 49
-3.0
 49
4.0
 49
-5.0
  0
LTYPE
  2
RAND3
 70
    64
  3
ランダム線3
 72
    65
 73
     4
 40
18.0
 49
3.0
 49
-4.0
 49
5.0
 49
-6.0
  0
LTYPE
  2
RAND4
 70
    64
  3
ランダム線4
 72
    65
 73
     4
 40
22.0
 49
4.0
 49
-5.0
 49
6.0
 49
-7.0
  0
LTYPE
  2
RAND5
 70
    64
  3
ランダム線5
 72
    65
 73
     4
 40
26.0
 49
5.0
 49
-6.0
 49
7.0
 49
-8.0
  0
LTYPE
  2
LONG1
 70
    64
  3
----------  --  ----------  --  
 72
    65
 73
     4
 40
40.0
 49
32.5
 49
-2.5
 49
2.5
 49
-2.5
  0
LTYPE
  2
LONG2
 70
    64
  3
--------  -  -  --------  -  -  
 72
    65
 73
     6
 40
40.0
 49
30.0
 49
-2.5
 49
1.25
 49
-2.5
 49
1.25
 49
-2.5
  0
LTYPE
  2
LONG3
 70
    64
  3
+++++++++++++++..+++++++++++++++
 72
    65
 73
     2
 40
40.0
 49
37.5
 49
-2.5
  0
LTYPE
  2
LONG4
 70
    64
  3
+++++++++++++++..+++++++++++++++
 72
    65
 73
     2
 40
80.0
 49
75.0
 49
-5.0
  0
LTYPE
  2
LONG5
 70
    64
  3
----------  --  ----------  --  
 72
    65
 73
     4
 40
60.0
 49
37.5
 49
-7.5
 49
7.5
 49
-7.5
  0
LTYPE
  2
dashed
 70
   64
  3
-------   -------------   ------
 72
   65
 73
    2
 40
7.5
 49
6
 49
-1.5
  0
LTYPE
  2
dashed_spaced
 70
   64
  3
----        --------        ----
 72
   65
 73
    2
 40
12
 49
6
 49
-6
  0
LTYPE
  2
long_dashed_dotted
 70
   64
  3
------------- --- --------------
 72
   65
 73
    4
 40
15.25
 49
12
 49
-1.5
 49
0.25
 49
-1.5
  0
LTYPE
  2
long_dashed_double-dotted
 70
   64
  3
----------- --- --- ------------
 72
   65
 73
    6
 40
17
 49
12
 49
-1.5
 49
0.25
 49
-1.5
 49
0.25
 49
-1.5
  0
LTYPE
  2
long_dashed_triplicate-dotted
 70
   64
  3
--------- --- --- --- ----------
 72
   65
 73
    8
 40
18.75
 49
12
 49
-1.5
 49
0.25
 49
-1.5
 49
0.25
 49
-1.5
 49
0.25
 49
-1.5
  0
LTYPE
  2
dotted
 70
   64
  3
   -       -       -       -    
 72
   65
 73
    2
 40
1.75
 49
0.25
 49
-1.5
  0
LTYPE
  2
chain
 70
   64
  3
-------------- -- --------------
 72
   65
 73
    4
 40
18.5
 49
12
 49
-1.5
 49
3.5
 49
-1.5
  0
LTYPE
  2
chain_double_dash
 70
   64
  3
------------ -- -- -------------
 72
   65
 73
    6
 40
23.5
 49
12
 49
-1.5
 49
3.5
 49
-1.5
 49
3.5
 49
-1.5
  0
LTYPE
  2
dashed_dotted
 70
   64
  3
-----------     -     ----------
 72
   65
 73
    4
 40
9.25
 49
6
 49
-1.5
 49
0.25
 49
-1.5
  0
LTYPE
  2
double-dashed_dotted
 70
   64
  3
------   -----------   -   -----
 72
   65
 73
    6
 40
16.75
 49
6
 49
-1.5
 49
6
 49
-1.5
 49
0.25
 49
-1.5
  0
LTYPE
  2
dashed_double-dotted
 70
   64
  3
---------    -    -    ---------
 72
   65
 73
    6
 40
11
 49
6
 49
-1.5
 49
0.25
 49
-1.5
 49
0.25
 49
-1.5
  0
LTYPE
  2
double-dashed_double-dotted
 70
   64
  3
-----   ---------   -   -   ----
 72
   65
 73
    8
 40
18.5
 49
6
 49
-1.5
 49
6
 49
-1.5
 49
0.25
 49
-1.5
 49
0.25
 49
-1.5
  0
LTYPE
  2
dashed_triplicate-dotted
 70
   64
  3
-------    -    -    -    ------
 72
   65
 73
    8
 40
12.75
 49
6
 49
-1.5
 49
0.25
 49
-1.5
 49
0.25
 49
-1.5
 49
0.25
 49
-1.5
  0
LTYPE
  2
double-dashed_triplicate-dotted
 70
   64
  3
-----  ---------  -  -  -  -----
 72
   65
 73
   10
 40
20.25
 49
6
 49
-1.5
 49
6
 49
-1.5
 49
0.25
 49
-1.5
 49
0.25
 49
-1.5
 49
0.25
 49
-1.5
  0
LTYPE
  2
undefined
 70
   64
  3
--------------------------------
 72
   65
 73
    0
 40
0
  0
ENDTAB
  0
TABLE
  2
STYLE
  5
3
100
AcDbSymbolTable
 70
     1
  0
STYLE
  5
10
100
AcDbSymbolTableRecord
100
AcDbTextStyleTableRecord
  2
STANDARD
 70
     0
 40
0.0
 41
1.0
 50
0.0
 71
     0
 42
0.2
  3
txt
  4
bigfont.shx
  0
STYLE
  5
26
100
AcDbSymbolTableRecord
100
AcDbTextStyleTableRecord
  2
TATEGAKI
 70
    68
 40
0.0
 41
1.0
 50
0.0
 71
     0
 42
1.0
  3
txt
  4
bigfont.shx
  0
ENDTAB
  0
TABLE
  2
LAYER
 70
    2
  0
LAYER
  2
_0-0_
 70
   64
 62
    7
  6
CONTINUOUS
  0
LAYER
  2
ADD_LINE
 70
   64
 62
    7
  6
CONTINUOUS
  0
ENDTAB
  0
ENDSEC
  0
SECTION
  2
BLOCKS
  0
ENDSEC
  0
SECTION
  2
ENTITIES
  0
LINE
  8
_0-0_
  6
CONTINUOUS
 62
    7
 10
672.13606690525205
 20
167.53106997205509
 11
1706.8525777203677
 21
167.53106997205509
  0
LINE
  8
_0-0_
  6
CONTINUOUS
 62
    7
 10
672.13606690525205
 20
1633.3565543671132
 11
672.13606690525205
 21
167.53106997205509
  0
LINE
  8
_0-0_
  6
CONTINUOUS
 62
    7
 10
1706.8525777203677
 20
1633.3565543671132
 11
1706.8525777203677
 21
167.53106997205509
  0
LINE
  8
_0-0_
  6
CONTINUOUS
 62
    7
 10
1061.049853032785
 20
950.316960879117
 11
1061.049853032785
 21
940.316960879117
  0
LINE
  8
_0-0_
  6
CONTINUOUS
 62
    2
 10
1126.4328998073706
 20
930.316960879117
 11
1136.4328998073697
 21
940.31696087911791
  0
LINE
  8
_0-0_
  6
CONTINUOUS
 62
    7
 10
1050.4432513149868
 20
913.71035916131882
 11
1050.4432513149868
 21
730.61060787911731
  0
LINE
  8
_0-0_
  6
CONTINUOUS
 62
    7
 10
1417.5370590302309
 20
739.42561942317764
 11
1477.2950040208098
 21
842.92941630276641
  0
POINT
  8
_0-0_
 62
    7
 10
1417.5370590302309
 20
739.42561942317764
  0
LINE
  8
_0-0_
  6
CONTINUOUS
 62
    7
 10
1522.171869314986
 20
730.61060787911731
 11
1307.7246913149856
 21
730.61060787911731
  0
LINE
  8
_0-0_
  6
CONTINUOUS
 62
    7
 10
1050.4432513149868
 20
730.61060787911731
 11
819.4318743149862
 21
730.61060787911731
  0
LINE
  8
_0-0_
  6
CONTINUOUS
 62
    7
 10
1061.049853032785
 20
924.316960879117
 11
1050.4432513149868
 21
913.71035916131882
  0
LINE
  8
_0-0_
  6
CONTINUOUS
 62
    7
 10
1307.7246913149856
 20
913.71035916131882
 11
1307.7246913149856
 21
730.61060787911731
  0
LINE
  8
_0-0_
  6
CONTINUOUS
 62
    7
 10
1297.1180895971875
 20
924.316960879117
 11
1307.7246913149856
 21
913.71035916131882
  0
LINE
  8
_0-0_
  6
CONTINUOUS
 62
    4
 10
1044.4432513149868
 20
745.61060787911731
 11
819.4318743149862
 21
745.61060787911731
  0
LINE
  8
_0-0_
  6
CONTINUOUS
 62
    4
 10
1522.171869314986
 20
745.61060787911731
 11
1313.7246913149856
 21
745.61060787911731
  0
LINE
  8
_0-0_
  6
CONTINUOUS
 62
    4
 10
1299.6033709714256
 20
930.316960879117
 11
1313.7246913149856
 21
916.195640535557
  0
LINE
  8
_0-0_
  6
CONTINUOUS
 62
    4
 10
1313.7246913149856
 20
916.195640535557
 11
1313.7246913149856
 21
745.61060787911731
  0
LINE
  8
_0-0_
  6
CONTINUOUS
 62
    4
 10
1058.5645716585468
 20
930.316960879117
 11
1044.4432513149868
 21
916.195640535557
  0
LINE
  8
_0-0_
  6
CONTINUOUS
 62
    4
 10
1044.4432513149868
 20
916.195640535557
 11
1044.4432513149868
 21
745.61060787911731
  0
ARC
  8
_0-0_
  6
CONTINUOUS
 62
    4
 10
1139.0839713149862
 20
940.316960879117
 40
10
 50
270
 51
0
  0
ARC
  8
_0-0_
  6
CONTINUOUS
 62
    4
 10
1219.0839713149862
 20
940.316960879117
 40
10
 50
180
 51
270
  0
LINE
  8
_0-0_
  6
CONTINUOUS
 62
    7
 10
1297.1180895971875
 20
950.316960879117
 11
1297.1180895971875
 21
940.316960879117
  0
LINE
  8
_0-0_
  6
CONTINUOUS
 62
    7
 10
1149.0839713149862
 20
924.316960879117
 11
1149.0839713149862
 21
940.316960879117
  0
LINE
  8
_0-0_
  6
CONTINUOUS
 62
    7
 10
1209.0839713149862
 20
924.316960879117
 11
1209.0839713149862
 21
940.316960879117
  0
ARC
  8
_0-0_
  6
CONTINUOUS
 62
    2
 10
1044.4432513149868
 20
939.13533749752355
 40
16.648587160161849
 50
328.01635454645526
 51
4.0699550833350946
  0
ARC
  8
_0-0_
  6
CONTINUOUS
 62
    2
 10
1313.7246913149856
 20
939.13533749752355
 40
16.648587160161849
 50
175.93004491666491
 51
211.98364545354471
  0
LINE
  8
_0-0_
  6
CONTINUOUS
 62
    1
 10
1092.9636113149863
 20
952.39696087911784
 11
1121.5636113149867
 21
952.39696087911784
  0
LINE
  8
_0-0_
  6
CONTINUOUS
 62
    1
 10
1118.3136113149858
 20
973.1969608791153
 11
1096.2136113149854
 21
973.1969608791153
  0
LINE
  8
_0-0_
  6
CONTINUOUS
 62
    1
 10
1114.0886113149863
 20
950.316960879117
 11
1114.0886113149863
 21
952.39696087911784
  0
LINE
  8
_0-0_
  6
CONTINUOUS
 62
    1
 10
1121.5636113149867
 20
952.39696087911784
 11
1121.5636113149867
 21
950.316960879117
  0
LINE
  8
_0-0_
  6
CONTINUOUS
 62
    1
 10
1121.5636113149867
 20
950.316960879117
 11
1092.9636113149863
 21
950.316960879117
  0
LINE
  8
_0-0_
  6
CONTINUOUS
 62
    1
 10
1100.4386113149867
 20
950.316960879117
 11
1100.4386113149867
 21
952.39696087911784
  0
LINE
  8
_0-0_
  6
CONTINUOUS
 62
    1
 10
1092.9636113149863
 20
952.39696087911784
 11
1092.9636113149863
 21
950.316960879117
  0
LINE
  8
_0-0_
  6
CONTINUOUS
 62
    1
 10
1120.023052264075
 20
972.21001468699365
 11
1094.5041703658953
 21
972.21001468699365
  0
LINE
  8
_0-0_
  6
CONTINUOUS
 62
    1
 10
1096.2136113149854
 20
973.1969608791153
 11
1094.5041703658953
 21
972.21001468699365
  0
LINE
  8
_0-0_
  6
CONTINUOUS
 62
    1
 10
1094.5041703658953
 20
972.21001468699365
 11
1094.5041703658953
 21
962.79696087911657
  0
LINE
  8
_0-0_
  6
CONTINUOUS
 62
    1
 10
1120.023052264075
 20
972.21001468699365
 11
1118.3136113149858
 21
973.1969608791153
  0
LINE
  8
_0-0_
  6
CONTINUOUS
 62
    1
 10
1120.023052264075
 20
962.79696087911657
 11
1120.023052264075
 21
972.21001468699365
  0
LINE
  8
_0-0_
  6
CONTINUOUS
 62
    1
 10
1094.5041703658935
 20
962.79696087911657
 11
1120.023052264075
 21
962.79696087911657
  0
LINE
  8
_0-0_
  6
CONTINUOUS
 62
    1
 10
1111.6433317895317
 20
962.79696087911657
 11
1111.6433317895317
 21
972.21001468699365
  0
LINE
  8
_0-0_
  6
CONTINUOUS
 62
    1
 10
1098.8838908404405
 20
972.21001468699365
 11
1096.2136113149854
 21
973.1969608791153
  0
LINE
  8
_0-0_
  6
CONTINUOUS
 62
    1
 10
1111.6433317895317
 20
972.21001468699365
 11
1118.3136113149858
 21
973.1969608791153
  0
LINE
  8
_0-0_
  6
CONTINUOUS
 62
    1
 10
1098.8838908404405
 20
972.21001468699365
 11
1098.8838908404405
 21
962.79696087911657
  0
ARC
  8
_0-0_
  6
CONTINUOUS
 62
    1
 10
1105.2636113149856
 20
952.08390707123658
 40
21.113053807878593
 50
72.412046226006396
 51
107.5879537739936
  0
ARC
  8
_0-0_
  6
CONTINUOUS
 62
    1
 10
1105.2636113149856
 20
952.08390707124477
 40
21.113053807870138
 50
72.412046225996733
 51
107.58795377400018
  0
LINE
  8
_0-0_
  6
CONTINUOUS
 62
    1
 10
1096.2136113149863
 20
962.79696087911657
 11
1118.3136113149867
 21
962.79696087911657
  0
LINE
  8
_0-0_
  6
CONTINUOUS
 62
    1
 10
1096.2136113149854
 20
952.39696087911784
 11
1118.3136113149858
 21
952.39696087911784
  0
LINE
  8
_0-0_
  6
CONTINUOUS
 62
    1
 10
1094.5041703658972
 20
961.81001468699492
 11
1120.0230522640768
 21
961.81001468699492
  0
LINE
  8
_0-0_
  6
CONTINUOUS
 62
    1
 10
1118.3136113149867
 20
962.79696087911657
 11
1120.0230522640768
 21
961.81001468699492
  0
LINE
  8
_0-0_
  6
CONTINUOUS
 62
    1
 10
1120.0230522640768
 20
961.81001468699492
 11
1120.0230522640768
 21
952.39696087911784
  0
LINE
  8
_0-0_
  6
CONTINUOUS
 62
    1
 10
1094.5041703658972
 20
961.81001468699492
 11
1096.2136113149863
 21
962.79696087911657
  0
LINE
  8
_0-0_
  6
CONTINUOUS
 62
    1
 10
1094.5041703658972
 20
952.39696087911784
 11
1094.5041703658972
 21
961.81001468699492
  0
LINE
  8
_0-0_
  6
CONTINUOUS
 62
    1
 10
1120.0230522640786
 20
952.39696087911784
 11
1094.5041703658972
 21
952.39696087911784
  0
LINE
  8
_0-0_
  6
CONTINUOUS
 62
    1
 10
1102.8838908404405
 20
952.39696087911784
 11
1102.8838908404405
 21
961.81001468699492
  0
LINE
  8
_0-0_
  6
CONTINUOUS
 62
    1
 10
1115.6433317895317
 20
961.81001468699492
 11
1118.3136113149867
 21
962.79696087911657
  0
LINE
  8
_0-0_
  6
CONTINUOUS
 62
    1
 10
1102.8838908404405
 20
961.81001468699492
 11
1096.2136113149863
 21
962.79696087911657
  0
LINE
  8
_0-0_
  6
CONTINUOUS
 62
    1
 10
1115.6433317895317
 20
961.81001468699492
 11
1115.6433317895317
 21
952.39696087911784
  0
ARC
  8
_0-0_
  6
CONTINUOUS
 62
    1
 10
1109.2636113149865
 20
941.68390707123785
 40
21.113053807878593
 50
72.412046226006396
 51
107.5879537739936
  0
ARC
  8
_0-0_
  6
CONTINUOUS
 62
    1
 10
1109.2636113149865
 20
941.68390707124604
 40
21.113053807870138
 50
72.412046225999816
 51
107.58795377400327
  0
LINE
  8
_0-0_
  6
CONTINUOUS
 62
    1
 10
1100.7636113149865
 20
979.63054126985139
 11
1113.7636113149865
 21
979.63054126985139
  0
LINE
  8
_0-0_
  6
CONTINUOUS
 62
    1
 10
1112.7236113149866
 20
980.67054126985227
 11
1112.7236113149866
 21
973.1969608791153
  0
LINE
  8
_0-0_
  6
CONTINUOUS
 62
    1
 10
1113.7636113149865
 20
973.1969608791153
 11
1113.7636113149865
 21
979.63054126985139
  0
LINE
  8
_0-0_
  6
CONTINUOUS
 62
    1
 10
1113.7636113149865
 20
979.63054126985139
 11
1111.8136113149867
 21
981.58054126985212
  0
LINE
  8
_0-0_
  6
CONTINUOUS
 62
    1
 10
1111.8136113149867
 20
981.58054126985212
 11
1102.7136113149863
 21
981.58054126985212
  0
LINE
  8
_0-0_
  6
CONTINUOUS
 62
    1
 10
1102.7136113149863
 20
981.58054126985212
 11
1100.7636113149865
 21
979.63054126985139
  0
LINE
  8
_0-0_
  6
CONTINUOUS
 62
    1
 10
1100.7636113149865
 20
979.63054126985139
 11
1100.7636113149865
 21
973.1969608791153
  0
LINE
  8
_0-0_
  6
CONTINUOUS
 62
    1
 10
1101.8036113149856
 20
980.67054126985227
 11
1101.8036113149856
 21
973.1969608791153
  0
LINE
  8
_0-0_
  6
CONTINUOUS
 62
    1
 10
1100.7636113149865
 20
973.48157344119068
 11
1113.7636113149865
 21
974.61892606702736
  0
LINE
  8
_0-0_
  6
CONTINUOUS
 62
    1
 10
1100.7636113149865
 20
975.48921311627805
 11
1113.7636113149865
 21
976.62656574211474
  0
LINE
  8
_0-0_
  6
CONTINUOUS
 62
    1
 10
1100.7636113149865
 20
977.49685279136361
 11
1113.7636113149865
 21
978.6342054172012
  0
LINE
  8
_0-0_
  6
CONTINUOUS
 62
    1
 10
1100.7636113149865
 20
979.50449246645007
 11
1112.8336670715616
 21
980.56048551327626
  0
LINE
  8
_0-0_
  6
CONTINUOUS
 62
    1
 10
1236.6043313149867
 20
952.39696087911784
 11
1265.204331314987
 21
952.39696087911784
  0
LINE
  8
_0-0_
  6
CONTINUOUS
 62
    1
 10
1261.9543313149852
 20
973.1969608791153
 11
1239.8543313149867
 21
973.1969608791153
  0
LINE
  8
_0-0_
  6
CONTINUOUS
 62
    1
 10
1257.7293313149867
 20
950.316960879117
 11
1257.7293313149867
 21
952.39696087911784
  0
LINE
  8
_0-0_
  6
CONTINUOUS
 62
    1
 10
1265.204331314987
 20
952.39696087911784
 11
1265.204331314987
 21
950.316960879117
  0
LINE
  8
_0-0_
  6
CONTINUOUS
 62
    1
 10
1265.204331314987
 20
950.316960879117
 11
1236.6043313149867
 21
950.316960879117
  0
LINE
  8
_0-0_
  6
CONTINUOUS
 62
    1
 10
1244.079331314987
 20
950.316960879117
 11
1244.079331314987
 21
952.39696087911784
  0
LINE
  8
_0-0_
  6
CONTINUOUS
 62
    1
 10
1236.6043313149867
 20
952.39696087911784
 11
1236.6043313149867
 21
950.316960879117
  0
LINE
  8
_0-0_
  6
CONTINUOUS
 62
    1
 10
1263.6637722640744
 20
972.21001468699365
 11
1238.1448903658957
 21
972.21001468699365
  0
LINE
  8
_0-0_
  6
CONTINUOUS
 62
    1
 10
1239.8543313149867
 20
973.1969608791153
 11
1238.1448903658957
 21
972.21001468699365
  0
LINE
  8
_0-0_
  6
CONTINUOUS
 62
    1
 10
1238.1448903658957
 20
972.21001468699365
 11
1238.1448903658957
 21
962.79696087911657
  0
LINE
  8
_0-0_
  6
CONTINUOUS
 62
    1
 10
1263.6637722640744
 20
972.21001468699365
 11
1261.9543313149852
 21
973.1969608791153
  0
LINE
  8
_0-0_
  6
CONTINUOUS
 62
    1
 10
1263.6637722640744
 20
962.79696087911657
 11
1263.6637722640744
 21
972.21001468699365
  0
LINE
  8
_0-0_
  6
CONTINUOUS
 62
    1
 10
1238.1448903658938
 20
962.79696087911657
 11
1263.6637722640744
 21
962.79696087911657
  0
LINE
  8
_0-0_
  6
CONTINUOUS
 62
    1
 10
1255.284051789532
 20
962.79696087911657
 11
1255.284051789532
 21
972.21001468699365
  0
LINE
  8
_0-0_
  6
CONTINUOUS
 62
    1
 10
1242.5246108404399
 20
972.21001468699365
 11
1239.8543313149867
 21
973.1969608791153
  0
LINE
  8
_0-0_
  6
CONTINUOUS
 62
    1
 10
1255.284051789532
 20
972.21001468699365
 11
1261.9543313149852
 21
973.1969608791153
  0
LINE
  8
_0-0_
  6
CONTINUOUS
 62
    1
 10
1242.5246108404399
 20
972.21001468699365
 11
1242.5246108404399
 21
962.79696087911657
  0
ARC
  8
_0-0_
  6
CONTINUOUS
 62
    1
 10
1248.9043313149859
 20
952.08390707123658
 40
21.113053807878593
 50
72.412046226006396
 51
107.5879537739936
  0
ARC
  8
_0-0_
  6
CONTINUOUS
 62
    1
 10
1248.9043313149859
 20
952.08390707124477
 40
21.113053807870138
 50
72.412046225996733
 51
107.58795377400018
  0
LINE
  8
_0-0_
  6
CONTINUOUS
 62
    1
 10
1239.8543313149867
 20
962.79696087911657
 11
1261.954331314987
 21
962.79696087911657
  0
LINE
  8
_0-0_
  6
CONTINUOUS
 62
    1
 10
1239.8543313149867
 20
952.39696087911784
 11
1261.9543313149852
 21
952.39696087911784
  0
LINE
  8
_0-0_
  6
CONTINUOUS
 62
    1
 10
1238.1448903658975
 20
961.81001468699492
 11
1263.663772264078
 21
961.81001468699492
  0
LINE
  8
_0-0_
  6
CONTINUOUS
 62
    1
 10
1261.954331314987
 20
962.79696087911657
 11
1263.663772264078
 21
961.81001468699492
  0
LINE
  8
_0-0_
  6
CONTINUOUS
 62
    1
 10
1263.663772264078
 20
961.81001468699492
 11
1263.663772264078
 21
952.39696087911784
  0
LINE
  8
_0-0_
  6
CONTINUOUS
 62
    1
 10
1238.1448903658975
 20
961.81001468699492
 11
1239.8543313149867
 21
962.79696087911657
  0
LINE
  8
_0-0_
  6
CONTINUOUS
 62
    1
 10
1238.1448903658975
 20
952.39696087911784
 11
1238.1448903658975
 21
961.81001468699492
  0
LINE
  8
_0-0_
  6
CONTINUOUS
 62
    1
 10
1263.663772264078
 20
952.39696087911784
 11
1238.1448903658975
 21
952.39696087911784
  0
LINE
  8
_0-0_
  6
CONTINUOUS
 62
    1
 10
1246.5246108404399
 20
952.39696087911784
 11
1246.5246108404399
 21
961.81001468699492
  0
LINE
  8
_0-0_
  6
CONTINUOUS
 62
    1
 10
1259.284051789532
 20
961.81001468699492
 11
1261.954331314987
 21
962.79696087911657
  0
LINE
  8
_0-0_
  6
CONTINUOUS
 62
    1
 10
1246.5246108404399
 20
961.81001468699492
 11
1239.8543313149867
 21
962.79696087911657
  0
LINE
  8
_0-0_
  6
CONTINUOUS
 62
    1
 10
1259.284051789532
 20
961.81001468699492
 11
1259.284051789532
 21
952.39696087911784
  0
ARC
  8
_0-0_
  6
CONTINUOUS
 62
    1
 10
1252.9043313149859
 20
941.68390707123785
 40
21.113053807878593
 50
72.412046226006396
 51
107.5879537739936
  0
ARC
  8
_0-0_
  6
CONTINUOUS
 62
    1
 10
1252.9043313149859
 20
941.68390707124604
 40
21.113053807870138
 50
72.412046225999816
 51
107.58795377400327
  0
LINE
  8
_0-0_
  6
CONTINUOUS
 62
    1
 10
1244.4043313149859
 20
979.63054126985139
 11
1257.4043313149859
 21
979.63054126985139
  0
LINE
  8
_0-0_
  6
CONTINUOUS
 62
    1
 10
1256.3643313149869
 20
980.67054126985227
 11
1256.3643313149869
 21
973.1969608791153
  0
LINE
  8
_0-0_
  6
CONTINUOUS
 62
    1
 10
1257.4043313149859
 20
973.1969608791153
 11
1257.4043313149859
 21
979.63054126985139
  0
LINE
  8
_0-0_
  6
CONTINUOUS
 62
    1
 10
1257.4043313149859
 20
979.63054126985139
 11
1255.454331314987
 21
981.58054126985212
  0
LINE
  8
_0-0_
  6
CONTINUOUS
 62
    1
 10
1255.454331314987
 20
981.58054126985212
 11
1246.3543313149867
 21
981.58054126985212
  0
LINE
  8
_0-0_
  6
CONTINUOUS
 62
    1
 10
1246.3543313149867
 20
981.58054126985212
 11
1244.4043313149859
 21
979.63054126985139
  0
LINE
  8
_0-0_
  6
CONTINUOUS
 62
    1
 10
1244.4043313149859
 20
979.63054126985139
 11
1244.4043313149859
 21
973.1969608791153
  0
LINE
  8
_0-0_
  6
CONTINUOUS
 62
    1
 10
1245.4443313149868
 20
980.67054126985227
 11
1245.4443313149868
 21
973.1969608791153
  0
LINE
  8
_0-0_
  6
CONTINUOUS
 62
    1
 10
1244.4043313149859
 20
973.48157344119068
 11
1257.4043313149859
 21
974.61892606702736
  0
LINE
  8
_0-0_
  6
CONTINUOUS
 62
    1
 10
1244.4043313149859
 20
975.48921311627805
 11
1257.4043313149859
 21
976.62656574211474
  0
LINE
  8
_0-0_
  6
CONTINUOUS
 62
    1
 10
1244.4043313149859
 20
977.49685279136361
 11
1257.4043313149859
 21
978.6342054172012
  0
LINE
  8
_0-0_
  6
CONTINUOUS
 62
    1
 10
1244.4043313149859
 20
979.50449246645007
 11
1256.474387071562
 21
980.56048551327626
  0
LINE
  8
_0-0_
  6
CONTINUOUS
 62
    7
 10
1091.1033572771421
 20
924.316960879117
 11
1099.7636113149865
 21
909.316960879117
  0
LINE
  8
_0-0_
  6
CONTINUOUS
 62
    7
 10
1099.7636113149865
 20
909.316960879117
 11
1114.7636113149865
 21
909.316960879117
  0
LINE
  8
_0-0_
  6
CONTINUOUS
 62
    7
 10
1114.7636113149865
 20
909.316960879117
 11
1123.4238653528309
 21
924.316960879117
  0
LINE
  8
_0-0_
  6
CONTINUOUS
 62
    7
 10
1234.7440772771415
 20
924.316960879117
 11
1243.4043313149859
 21
909.316960879117
  0
LINE
  8
_0-0_
  6
CONTINUOUS
 62
    7
 10
1258.4043313149859
 20
909.316960879117
 11
1267.0645853528304
 21
924.316960879117
  0
LINE
  8
_0-0_
  6
CONTINUOUS
 62
    7
 10
1091.1033572771421
 20
924.316960879117
 11
1061.049853032785
 21
924.316960879117
  0
LINE
  8
_0-0_
  6
CONTINUOUS
 62
    7
 10
1297.1180895971875
 20
924.316960879117
 11
1267.0645853528304
 21
924.316960879117
  0
LINE
  8
_0-0_
  6
CONTINUOUS
 62
    7
 10
1234.7440772771415
 20
924.316960879117
 11
1123.4238653528309
 21
924.316960879117
  0
LINE
  8
_0-0_
  6
CONTINUOUS
 62
    2
 10
1140.7077487260713
 20
930.44967417408702
 11
1148.9512580200162
 21
938.69318346803198
  0
LINE
  8
_0-0_
  6
CONTINUOUS
 62
    2
 10
1137.7466083063528
 20
930.3169608791161
 11
1147.7466083063528
 21
940.3169608791161
  0
LINE
  8
_0-0_
  6
CONTINUOUS
 62
    2
 10
1134.9181811816079
 20
930.3169608791161
 11
1144.9181811816097
 21
940.316960879117
  0
LINE
  8
_0-0_
  6
CONTINUOUS
 62
    2
 10
1132.0897540568631
 20
930.31696087911791
 11
1142.0897540568612
 21
940.3169608791161
  0
LINE
  8
_0-0_
  6
CONTINUOUS
 62
    2
 10
1129.2613269321155
 20
930.3169608791161
 11
1139.2613269321164
 21
940.3169608791161
  0
LINE
  8
_0-0_
  6
CONTINUOUS
 62
    2
 10
1123.6044726826221
 20
930.3169608791161
 11
1133.6044726826231
 21
940.316960879117
  0
LINE
  8
_0-0_
  6
CONTINUOUS
 62
    2
 10
1120.7760455578764
 20
930.316960879117
 11
1130.7760455578764
 21
940.316960879117
  0
LINE
  8
_0-0_
  6
CONTINUOUS
 62
    2
 10
1084.006492936177
 20
930.316960879117
 11
1094.0064929361779
 21
940.31696087911791
  0
LINE
  8
_0-0_
  6
CONTINUOUS
 62
    2
 10
1081.1780658114312
 20
930.31696087911791
 11
1091.1780658114303
 21
940.316960879117
  0
LINE
  8
_0-0_
  6
CONTINUOUS
 62
    2
 10
1078.3496386866836
 20
930.316960879117
 11
1088.3496386866836
 21
940.316960879117
  0
LINE
  8
_0-0_
  6
CONTINUOUS
 62
    2
 10
1075.5212115619379
 20
930.3169608791161
 11
1085.5212115619379
 21
940.3169608791161
  0
LINE
  8
_0-0_
  6
CONTINUOUS
 62
    2
 10
1072.6927844371939
 20
930.316960879117
 11
1082.6927844371939
 21
940.31696087911791
  0
LINE
  8
_0-0_
  6
CONTINUOUS
 62
    2
 10
1069.8643573124473
 20
930.31696087911791
 11
1079.8643573124473
 21
940.31696087911791
  0
LINE
  8
_0-0_
  6
CONTINUOUS
 62
    2
 10
1067.0359301876979
 20
930.31696087911519
 11
1077.0359301876997
 21
940.316960879117
  0
LINE
  8
_0-0_
  6
CONTINUOUS
 62
    2
 10
1064.2075030629539
 20
930.316960879117
 11
1074.207503062953
 21
940.3169608791161
  0
LINE
  8
_0-0_
  6
CONTINUOUS
 62
    2
 10
1061.3790759382055
 20
930.31696087911519
 11
1071.3790759382073
 21
940.316960879117
  0
LINE
  8
_0-0_
  6
CONTINUOUS
 62
    2
 10
1058.5875461194064
 20
930.35385818506279
 11
1068.5506488134588
 21
940.31696087911519
  0
LINE
  8
_0-0_
  6
CONTINUOUS
 62
    2
 10
1060.6247779956811
 20
935.21951718608238
 11
1065.7222216887139
 21
940.31696087911519
  0
LINE
  8
_0-0_
  6
CONTINUOUS
 62
    2
 10
1061.079825273624
 20
938.50299158877101
 11
1062.8937945639673
 21
940.31696087911519
  0
LINE
  8
_0-0_
  6
CONTINUOUS
 62
    2
 10
1298.9669544168873
 20
930.316960879117
 11
1299.3634034272518
 21
930.71340988948145
  0
LINE
  8
_0-0_
  6
CONTINUOUS
 62
    2
 10
1296.1385272921407
 20
930.3169608791161
 11
1298.4151762014963
 21
932.59360978847349
  0
LINE
  8
_0-0_
  6
CONTINUOUS
 62
    2
 10
1293.310100167394
 20
930.316960879117
 11
1297.6811128868476
 21
934.68797359857149
  0
LINE
  8
_0-0_
  6
CONTINUOUS
 62
    2
 10
1290.4816730426473
 20
930.3169608791161
 11
1297.2080620503302
 21
937.04334988679807
  0
LINE
  8
_0-0_
  6
CONTINUOUS
 62
    2
 10
1287.6532459179043
 20
930.31696087911791
 11
1297.0874995466083
 21
939.75121450782194
  0
LINE
  8
_0-0_
  6
CONTINUOUS
 62
    2
 10
1284.8248187931576
 20
930.31696087911791
 11
1294.8248187931576
 21
940.316960879117
  0
LINE
  8
_0-0_
  6
CONTINUOUS
 62
    2
 10
1281.9963916684073
 20
930.31696087911519
 11
1291.996391668411
 21
940.316960879117
  0
LINE
  8
_0-0_
  6
CONTINUOUS
 62
    2
 10
1279.1679645436643
 20
930.316960879117
 11
1289.1679645436643
 21
940.3169608791161
  0
LINE
  8
_0-0_
  6
CONTINUOUS
 62
    2
 10
1276.3395374189176
 20
930.3169608791161
 11
1286.3395374189176
 21
940.316960879117
  0
LINE
  8
_0-0_
  6
CONTINUOUS
 62
    2
 10
1273.5111102941692
 20
930.31696087911519
 11
1283.5111102941692
 21
940.31696087911519
  0
LINE
  8
_0-0_
  6
CONTINUOUS
 62
    2
 10
1270.6826831694243
 20
930.31696087911428
 11
1280.6826831694243
 21
940.31696087911519
  0
LINE
  8
_0-0_
  6
CONTINUOUS
 62
    2
 10
1267.8542560446776
 20
930.31696087911428
 11
1277.8542560446776
 21
940.31696087911519
  0
LINE
  8
_0-0_
  6
CONTINUOUS
 62
    2
 10
1265.0258289199346
 20
930.31696087911791
 11
1275.0258289199346
 21
940.316960879117
  0
LINE
  8
_0-0_
  6
CONTINUOUS
 62
    2
 10
1262.1974017951879
 20
930.31696087911791
 11
1272.1974017951879
 21
940.316960879117
  0
LINE
  8
_0-0_
  6
CONTINUOUS
 62
    2
 10
1228.2562762982316
 20
930.31696087911428
 11
1238.2562762982316
 21
940.31696087911519
  0
LINE
  8
_0-0_
  6
CONTINUOUS
 62
    2
 10
1225.4278491734849
 20
930.31696087911428
 11
1235.4278491734849
 21
940.31696087911519
  0
LINE
  8
_0-0_
  6
CONTINUOUS
 62
    2
 10
1222.5994220487419
 20
930.31696087911791
 11
1232.5994220487419
 21
940.316960879117
  0
LINE
  8
_0-0_
  6
CONTINUOUS
 62
    2
 10
1219.7709949239934
 20
930.3169608791161
 11
1229.7709949239952
 21
940.316960879117
  0
LINE
  8
_0-0_
  6
CONTINUOUS
 62
    2
 10
1217.1344418402705
 20
930.50883492013895
 11
1226.9425677992485
 21
940.316960879117
  0
LINE
  8
_0-0_
  6
CONTINUOUS
 62
    2
 10
1214.9903988653687
 20
931.19321906998471
 11
1224.1141406745019
 21
940.3169608791161
  0
LINE
  8
_0-0_
  6
CONTINUOUS
 62
    2
 10
1213.1999957781563
 20
932.23124310751905
 11
1221.2857135497552
 21
940.316960879117
  0
LINE
  8
_0-0_
  6
CONTINUOUS
 62
    2
 10
1211.706507090742
 20
933.56618154485045
 11
1218.4572864250085
 21
940.316960879117
  0
LINE
  8
_0-0_
  6
CONTINUOUS
 62
    2
 10
1210.4996266831013
 20
935.1877282619555
 11
1215.6288593002619
 21
940.316960879117
  0
LINE
  8
_0-0_
  6
CONTINUOUS
 62
    2
 10
1209.6074338749449
 20
937.12396257854493
 11
1212.8004321755152
 21
940.3169608791161
  0
LINE
  8
_0-0_
  6
CONTINUOUS
 62
    2
 10
1209.1203068220757
 20
939.46526265042144
 11
1209.9720050507722
 21
940.316960879117
  0
LINE
  8
_0-0_
  6
CONTINUOUS
 62
    3
 10
1000.4432513149869
 20
730.61060787911731
 11
1000.4432513149869
 21
736.61060787911731
  0
LINE
  8
_0-0_
  6
CONTINUOUS
 62
    3
 10
1000.4432513149869
 20
736.61060787911731
 11
819.4318743149862
 21
736.61060787911731
  0
LINE
  8
_0-0_
  6
CONTINUOUS
 62
    3
 10
1357.7246913149856
 20
730.61060787911731
 11
1357.7246913149856
 21
736.61060787911731
  0
LINE
  8
_0-0_
  6
CONTINUOUS
 62
    3
 10
1522.171869314986
 20
736.61060787911731
 11
1357.7246913149856
 21
736.61060787911731
  0
LINE
  8
_0-0_
  6
CONTINUOUS
 62
    7
 10
1243.4043313149859
 20
909.316960879117
 11
1258.4043313149859
 21
909.316960879117
  0
LINE
  8
_0-0_
  6
CONTINUOUS
 62
    1
 10
1243.4043313149859
 20
940.316960879117
 11
1245.444331314985
 21
940.316960879117
  0
LINE
  8
_0-0_
  6
CONTINUOUS
 62
    1
 10
1256.3643313149851
 20
940.316960879117
 11
1258.4043313149859
 21
940.316960879117
  0
LINE
  8
_0-0_
  6
CONTINUOUS
 62
    7
 10
1061.049853032785
 20
940.316960879117
 11
1297.0874995466083
 21
940.316960879117
  0
LINE
  8
_0-0_
  6
CONTINUOUS
 62
    1
 10
1142.2636113149865
 20
781.82369275125734
 11
1142.2636113149865
 21
771.82369275125734
  0
LINE
  8
_0-0_
  6
CONTINUOUS
 62
    1
 10
1215.9043313149859
 20
781.82369275125734
 11
1215.9043313149859
 21
771.82369275125734
  0
LINE
  8
_0-0_
  6
CONTINUOUS
 62
    1
 10
1112.2636113149865
 20
771.82369275125734
 11
1142.2636113149865
 21
771.82369275125734
  0
ARC
  8
_0-0_
  6
CONTINUOUS
 62
    1
 10
1112.2636113149865
 20
781.82369275125734
 40
10
 50
180
 51
270
  0
LINE
  8
_0-0_
  6
CONTINUOUS
 62
    1
 10
1245.9043313149859
 20
771.82369275125734
 11
1215.9043313149859
 21
771.82369275125734
  0
ARC
  8
_0-0_
  6
CONTINUOUS
 62
    1
 10
1245.9043313149859
 20
781.82369275125734
 40
10
 50
270
 51
0
  0
LINE
  8
_0-0_
  6
CONTINUOUS
 62
    1
 10
1116.2636113149865
 20
781.82369275125734
 11
1142.2636113149865
 21
781.82369275125734
  0
ARC
  8
_0-0_
  6
CONTINUOUS
 62
    1
 10
1116.2636113149865
 20
785.82369275125734
 40
4
 50
180
 51
270
  0
LINE
  8
_0-0_
  6
CONTINUOUS
 62
    1
 10
1241.9043313149859
 20
781.82369275125734
 11
1215.9043313149859
 21
781.82369275125734
  0
ARC
  8
_0-0_
  6
CONTINUOUS
 62
    1
 10
1241.9043313149859
 20
785.82369275125734
 40
4
 50
270
 51
0
  0
LINE
  8
_0-0_
  6
CONTINUOUS
 62
    7
 10
1164.0839713149862
 20
950.316960879117
 11
1061.049853032785
 21
950.316960879117
  0
ARC
  8
_0-0_
  6
CONTINUOUS
 62
    7
 10
1164.0839713149862
 20
960.316960879117
 40
10
 50
270
 51
0
  0
LINE
  8
_0-0_
  6
CONTINUOUS
 62
    7
 10
1194.0839713149862
 20
950.316960879117
 11
1297.1180895971875
 21
950.316960879117
  0
ARC
  8
_0-0_
  6
CONTINUOUS
 62
    7
 10
1194.0839713149862
 20
960.316960879117
 40
10
 50
180
 51
270
  0
LINE
  8
_0-0_
  6
CONTINUOUS
 62
    7
 10
1061.049853032785
 20
1185.3169608791168
 11
1297.1180895971875
 21
1185.3169608791168
  0
LINE
  8
_0-0_
  6
CONTINUOUS
 62
    7
 10
1061.049853032785
 20
1185.3169608791168
 11
1061.049853032785
 21
1175.3169608791168
  0
LINE
  8
_0-0_
  6
CONTINUOUS
 62
    7
 10
1297.1180895971875
 20
1185.3169608791168
 11
1297.1180895971875
 21
1175.3169608791168
  0
LINE
  8
_0-0_
  6
CONTINUOUS
 62
    7
 10
1164.0839713149862
 20
1175.3169608791168
 11
1061.049853032785
 21
1175.3169608791168
  0
LINE
  8
_0-0_
  6
CONTINUOUS
 62
    7
 10
1174.0839713149862
 20
1165.3169608791168
 11
1174.0839713149862
 21
960.316960879117
  0
ARC
  8
_0-0_
  6
CONTINUOUS
 62
    7
 10
1164.0839713149862
 20
1165.3169608791168
 40
10
 50
0
 51
90
  0
LINE
  8
_0-0_
  6
CONTINUOUS
 62
    7
 10
1194.0839713149862
 20
1175.3169608791168
 11
1297.1180895971875
 21
1175.3169608791168
  0
LINE
  8
_0-0_
  6
CONTINUOUS
 62
    7
 10
1184.0839713149862
 20
1165.3169608791168
 11
1184.0839713149862
 21
960.316960879117
  0
ARC
  8
_0-0_
  6
CONTINUOUS
 62
    7
 10
1194.0839713149862
 20
1165.3169608791168
 40
10
 50
90
 51
180
  0
LINE
  8
_0-0_
  6
CONTINUOUS
 62
    1
 10
1245.9043313149859
 20
785.82369275125734
 11
1245.9043313149859
 21
950.316960879117
  0
LINE
  8
_0-0_
  6
CONTINUOUS
 62
    1
 10
1255.9043313149859
 20
781.82369275125734
 11
1255.9043313149859
 21
950.316960879117
  0
LINE
  8
_0-0_
  6
CONTINUOUS
 62
    1
 10
1112.2636113149865
 20
785.82369275125734
 11
1112.2636113149865
 21
950.316960879117
  0
LINE
  8
_0-0_
  6
CONTINUOUS
 62
    1
 10
1102.2636113149865
 20
781.82369275125734
 11
1102.2636113149865
 21
950.316960879117
  0
LINE
  8
_0-0_
  6
CONTINUOUS
 62
    5
 10
1087.2636113149865
 20
949.86895483438752
 11
1127.2636113149865
 21
949.86895483438752
  0
LINE
  8
_0-0_
  6
CONTINUOUS
 62
    5
 10
1230.9043313149859
 20
949.86895483438752
 11
1270.9043313149859
 21
949.86895483438752
  0
LINE
  8
_0-0_
  6
CONTINUOUS
 62
    5
 10
1270.9043313149859
 20
964.76999324434223
 11
1270.9043313149859
 21
964.76999324434223
  0
LINE
  8
_0-0_
  6
CONTINUOUS
 62
    5
 10
1270.9043313149859
 20
964.76999324434223
 11
1270.3466986161936
 21
969.42851924634192
  0
LINE
  8
_0-0_
  6
CONTINUOUS
 62
    5
 10
1270.3466986161936
 20
969.42851924634192
 11
1269.1983194252666
 21
973.88554870308394
  0
LINE
  8
_0-0_
  6
CONTINUOUS
 62
    5
 10
1269.1983194252666
 20
973.88554870308394
 11
1267.4940866628133
 21
978.00565702989093
  0
LINE
  8
_0-0_
  6
CONTINUOUS
 62
    5
 10
1267.4940866628133
 20
978.00565702989093
 11
1265.2857825789376
 21
981.66365682012815
  0
LINE
  8
_0-0_
  6
CONTINUOUS
 62
    5
 10
1265.2857825789376
 20
981.66365682012815
 11
1262.6405053757724
 21
984.74840160120652
  0
LINE
  8
_0-0_
  6
CONTINUOUS
 62
    5
 10
1262.6405053757724
 20
984.74840160120652
 11
1259.6386304625605
 21
987.16616296390919
  0
LINE
  8
_0-0_
  6
CONTINUOUS
 62
    5
 10
1259.6386304625605
 20
987.16616296390919
 11
1256.3713682895184
 21
988.84347845267678
  0
LINE
  8
_0-0_
  6
CONTINUOUS
 62
    5
 10
1256.3713682895184
 20
988.84347845267678
 11
1252.9379929644592
 21
989.72938368514554
  0
LINE
  8
_0-0_
  6
CONTINUOUS
 62
    5
 10
1252.9379929644592
 20
989.72938368514554
 11
1249.4428258592632
 21
989.79696087911657
  0
LINE
  8
_0-0_
  6
CONTINUOUS
 62
    5
 10
1249.4428258592632
 20
989.79696087911657
 11
1245.9920658577819
 21
989.04415673574681
  0
LINE
  8
_0-0_
  6
CONTINUOUS
 62
    5
 10
1245.9920658577819
 20
989.04415673574681
 11
1242.6905625564916
 21
987.49384482799542
  0
LINE
  8
_0-0_
  6
CONTINUOUS
 62
    5
 10
1242.6905625564916
 20
987.49384482799542
 11
1239.6386304625605
 21
985.19313059868352
  0
LINE
  8
_0-0_
  6
CONTINUOUS
 62
    5
 10
1239.6386304625605
 20
985.19313059868352
 11
1236.9290009883107
 21
982.21192008545142
  0
LINE
  8
_0-0_
  6
CONTINUOUS
 62
    5
 10
1236.9290009883107
 20
982.21192008545142
 11
1234.6440048541785
 21
978.64079586117816
  0
LINE
  8
_0-0_
  6
CONTINUOUS
 62
    5
 10
1234.6440048541785
 20
978.64079586117816
 11
1232.8530705114358
 21
974.58826472834221
  0
LINE
  8
_0-0_
  6
CONTINUOUS
 62
    5
 10
1232.8530705114358
 20
974.58826472834221
 11
1231.6106145938302
 21
970.17746079473534
  0
LINE
  8
_0-0_
  6
CONTINUOUS
 62
    5
 10
1231.6106145938302
 20
970.17746079473534
 11
1230.9543884957052
 21
965.54240410590546
  0
LINE
  8
_0-0_
  6
CONTINUOUS
 62
    5
 10
1230.9543884957052
 20
965.54240410590546
 11
1230.9043313149859
 21
964.76999324434223
  0
LINE
  8
_0-0_
  6
CONTINUOUS
 62
    5
 10
1230.9043313149859
 20
964.76999324434223
 11
1230.9043313149859
 21
949.86895483438752
  0
LINE
  8
_0-0_
  6
CONTINUOUS
 62
    5
 10
1270.9043313149859
 20
949.86895483438752
 11
1270.9043313149859
 21
964.76999324434223
  0
LINE
  8
_0-0_
  6
CONTINUOUS
 62
    5
 10
1127.2636113149865
 20
964.76999324434223
 11
1127.2636113149865
 21
964.76999324434223
  0
LINE
  8
_0-0_
  6
CONTINUOUS
 62
    5
 10
1127.2636113149865
 20
964.76999324434223
 11
1126.7059786161942
 21
969.42851924634192
  0
LINE
  8
_0-0_
  6
CONTINUOUS
 62
    5
 10
1126.7059786161942
 20
969.42851924634192
 11
1125.5575994252672
 21
973.88554870308394
  0
LINE
  8
_0-0_
  6
CONTINUOUS
 62
    5
 10
1125.5575994252672
 20
973.88554870308394
 11
1123.8533666628139
 21
978.00565702989093
  0
LINE
  8
_0-0_
  6
CONTINUOUS
 62
    5
 10
1123.8533666628139
 20
978.00565702989093
 11
1121.6450625789382
 21
981.66365682012815
  0
LINE
  8
_0-0_
  6
CONTINUOUS
 62
    5
 10
1121.6450625789382
 20
981.66365682012815
 11
1118.9997853757729
 21
984.74840160120652
  0
LINE
  8
_0-0_
  6
CONTINUOUS
 62
    5
 10
1118.9997853757729
 20
984.74840160120652
 11
1115.9979104625611
 21
987.16616296390919
  0
LINE
  8
_0-0_
  6
CONTINUOUS
 62
    5
 10
1115.9979104625611
 20
987.16616296390919
 11
1112.730648289519
 21
988.84347845267678
  0
LINE
  8
_0-0_
  6
CONTINUOUS
 62
    5
 10
1112.730648289519
 20
988.84347845267678
 11
1109.2972729644598
 21
989.72938368514554
  0
LINE
  8
_0-0_
  6
CONTINUOUS
 62
    5
 10
1109.2972729644598
 20
989.72938368514554
 11
1105.8021058592637
 21
989.79696087911657
  0
LINE
  8
_0-0_
  6
CONTINUOUS
 62
    5
 10
1105.8021058592637
 20
989.79696087911657
 11
1102.3513458577825
 21
989.04415673574681
  0
LINE
  8
_0-0_
  6
CONTINUOUS
 62
    5
 10
1102.3513458577825
 20
989.04415673574681
 11
1099.0498425564922
 21
987.49384482799542
  0
LINE
  8
_0-0_
  6
CONTINUOUS
 62
    5
 10
1099.0498425564922
 20
987.49384482799542
 11
1095.9979104625611
 21
985.19313059868352
  0
LINE
  8
_0-0_
  6
CONTINUOUS
 62
    5
 10
1095.9979104625611
 20
985.19313059868352
 11
1093.2882809883113
 21
982.21192008545142
  0
LINE
  8
_0-0_
  6
CONTINUOUS
 62
    5
 10
1093.2882809883113
 20
982.21192008545142
 11
1091.0032848541791
 21
978.64079586117816
  0
LINE
  8
_0-0_
  6
CONTINUOUS
 62
    5
 10
1091.0032848541791
 20
978.64079586117816
 11
1089.2123505114364
 21
974.58826472834221
  0
LINE
  8
_0-0_
  6
CONTINUOUS
 62
    5
 10
1089.2123505114364
 20
974.58826472834221
 11
1087.9698945938308
 21
970.17746079473534
  0
LINE
  8
_0-0_
  6
CONTINUOUS
 62
    5
 10
1087.9698945938308
 20
970.17746079473534
 11
1087.3136684957058
 21
965.54240410590546
  0
LINE
  8
_0-0_
  6
CONTINUOUS
 62
    5
 10
1087.3136684957058
 20
965.54240410590546
 11
1087.2636113149865
 21
964.76999324434223
  0
LINE
  8
_0-0_
  6
CONTINUOUS
 62
    5
 10
1127.2636113149865
 20
949.86895483438752
 11
1127.2636113149865
 21
964.76999324434223
  0
LINE
  8
_0-0_
  6
CONTINUOUS
 62
    5
 10
1087.2636113149865
 20
964.76999324434223
 11
1087.2636113149865
 21
949.86895483438752
  0
LINE
  8
_0-0_
  6
CONTINUOUS
 62
    7
 10
1294.449433624507
 20
933.9966511336554
 11
1350.4597206632543
 21
1031.009314031282
  0
POINT
  8
_0-0_
 62
    7
 10
1294.449433624507
 20
933.9966511336554
  0
LINE
  8
_0-0_
  6
CONTINUOUS
 62
    7
 10
1111.608358795087
 20
986.52479500633535
 11
1066.0689177693248
 21
1065.4014206112429
  0
POINT
  8
_0-0_
 62
    7
 10
1111.608358795087
 20
986.52479500633535
  0
LINE
  8
_0-0_
  6
CONTINUOUS
 62
    7
 10
1098.259956396696
 20
920.736240328549
 11
1043.1137623912955
 21
1016.2522501899533
  0
POINT
  8
_0-0_
 62
    7
 10
1098.259956396696
 20
920.736240328549
  0
TEXT
  8
_0-0_
 62
    7
 10
1482.2598510447633
 20
830.54603269281688
 40
30
 41
1
 50
0
  1
防水層
  0
TEXT
  8
_0-0_
 62
    7
 10
939.10850713537195
 20
1054.7914311752538
 40
30
 41
1
 50
0
  1
塩ﾋﾞｷｬｯﾌﾟ
  0
TEXT
  8
_0-0_
 62
    7
 10
921.96145032702964
 20
998.77771226800098
 40
30
 41
1
 50
0
  1
ｳﾚﾀﾝ充填
  0
TEXT
  8
_0-0_
 62
    7
 10
1353.4957133369862
 20
1017.925259037317
 40
30
 41
1
 50
0
  1
ｼｰﾘﾝｸﾞ
  0
LINE
  8
_0-0_
  6
CONTINUOUS
 62
    7
 10
1378.3411432613311
 20
550.61060787911526
 11
1522.171869314986
 21
694.44133393277014
  0
LINE
  8
_0-0_
  6
CONTINUOUS
 62
    7
 10
1371.2700754494654
 20
550.61060787911526
 11
1522.171869314986
 21
701.51240174463544
  0
LINE
  8
_0-0_
  6
CONTINUOUS
 62
    7
 10
1364.1990076375987
 20
550.61060787911617
 11
1522.171869314986
 21
708.58346955650302
  0
LINE
  8
_0-0_
  6
CONTINUOUS
 62
    7
 10
1067.2141595392495
 20
550.61060787911481
 11
1307.7246913149847
 21
791.12113965485003
  0
LINE
  8
_0-0_
  6
CONTINUOUS
 62
    7
 10
1060.1430917273865
 20
550.61060787911617
 11
1307.7246913149866
 21
798.19220746671533
  0
LINE
  8
_0-0_
  6
CONTINUOUS
 62
    7
 10
1053.0720239155198
 20
550.61060787911572
 11
1307.7246913149856
 21
805.26327527858155
  0
LINE
  8
_0-0_
  6
CONTINUOUS
 62
    7
 10
819.43187431498529
 20
613.95530637693298
 11
936.08717581716894
 21
730.61060787911708
  0
LINE
  8
_0-0_
  6
CONTINUOUS
 62
    7
 10
819.4318743149862
 20
621.02637418879829
 11
929.01610800530591
 21
730.61060787911754
  0
LINE
  8
_0-0_
  6
CONTINUOUS
 62
    7
 10
819.4318743149862
 20
628.09744200066314
 11
921.94504019344106
 21
730.61060787911754
  0
LINE
  8
_0-0_
  6
CONTINUOUS
 62
    4
 10
1239.9043313149859
 20
930.316960879117
 11
1239.9043313149859
 21
950.316960879117
  0
LINE
  8
_0-0_
  6
CONTINUOUS
 62
    4
 10
1261.9043313149859
 20
930.316960879117
 11
1261.9043313149859
 21
950.316960879117
  0
LINE
  8
_0-0_
  6
CONTINUOUS
 62
    4
 10
1299.6033709714256
 20
930.316960879117
 11
1261.9043313149859
 21
930.316960879117
  0
LINE
  8
_0-0_
  6
CONTINUOUS
 62
    4
 10
1239.9043313149859
 20
930.316960879117
 11
1219.0839713149862
 21
930.316960879117
  0
LINE
  8
_0-0_
  6
CONTINUOUS
 62
    2
 10
1231.0847034229764
 20
930.31696087911519
 11
1239.9043313149859
 21
939.13658877112471
  0
LINE
  8
_0-0_
  6
CONTINUOUS
 62
    2
 10
1233.9131305477249
 20
930.31696087911791
 11
1239.9043313149859
 21
936.30816164637838
  0
LINE
  8
_0-0_
  6
CONTINUOUS
 62
    2
 10
1236.7415576724716
 20
930.316960879117
 11
1239.9043313149859
 21
933.47973452163114
  0
LINE
  8
_0-0_
  6
CONTINUOUS
 62
    2
 10
1239.5699847972146
 20
930.31696087911519
 11
1239.9043313149859
 21
930.65130739688652
  0
LINE
  8
_0-0_
  6
CONTINUOUS
 62
    2
 10
1261.9043313149859
 20
938.50917177315523
 11
1263.7121204209479
 21
940.316960879117
  0
LINE
  8
_0-0_
  6
CONTINUOUS
 62
    2
 10
1261.9043313149859
 20
935.68074464840788
 11
1266.5405475456946
 21
940.3169608791161
  0
LINE
  8
_0-0_
  6
CONTINUOUS
 62
    2
 10
1261.9043313149859
 20
932.85231752366303
 11
1269.3689746704413
 21
940.316960879117
  0
LINE
  8
_0-0_
  6
CONTINUOUS
 62
    4
 10
1096.2636113149865
 20
930.316960879117
 11
1096.2636113149865
 21
950.316960879117
  0
LINE
  8
_0-0_
  6
CONTINUOUS
 62
    4
 10
1118.2636113149865
 20
930.316960879117
 11
1118.2636113149865
 21
950.316960879117
  0
LINE
  8
_0-0_
  6
CONTINUOUS
 62
    4
 10
1139.0839713149862
 20
930.316960879117
 11
1118.2636113149865
 21
930.316960879117
  0
LINE
  8
_0-0_
  6
CONTINUOUS
 62
    4
 10
1096.2636113149865
 20
930.316960879117
 11
1058.5645716585468
 21
930.316960879117
  0
LINE
  8
_0-0_
  6
CONTINUOUS
 62
    2
 10
1118.2636113149865
 20
930.63295376097199
 11
1127.9476184331306
 21
940.3169608791161
  0
LINE
  8
_0-0_
  6
CONTINUOUS
 62
    2
 10
1118.2636113149865
 20
933.46138088571774
 11
1125.1191913083858
 21
940.316960879117
  0
LINE
  8
_0-0_
  6
CONTINUOUS
 62
    2
 10
1118.2636113149865
 20
936.28980801046441
 11
1122.29076418364
 21
940.31696087911791
  0
LINE
  8
_0-0_
  6
CONTINUOUS
 62
    2
 10
1118.2636113149865
 20
939.11823513521108
 11
1119.4623370588924
 21
940.316960879117
  0
LINE
  8
_0-0_
  6
CONTINUOUS
 62
    2
 10
1095.32020143516
 20
930.31696087911519
 11
1096.2636113149865
 21
931.26037075894169
  0
LINE
  8
_0-0_
  6
CONTINUOUS
 62
    2
 10
1092.491774310417
 20
930.31696087911791
 11
1096.2636113149865
 21
934.08879788368745
  0
LINE
  8
_0-0_
  6
CONTINUOUS
 62
    2
 10
1089.6633471856703
 20
930.31696087911791
 11
1096.2636113149865
 21
936.91722500843412
  0
LINE
  8
_0-0_
  6
CONTINUOUS
 62
    2
 10
1086.8349200609209
 20
930.31696087911519
 11
1096.2636113149865
 21
939.74565213318078
  0
LINE
  8
_0-0_
  6
CONTINUOUS
 62
    7
 10
1050.4432513149877
 20
859.10881900066386
 11
1100.651393193441
 21
909.316960879117
  0
LINE
  8
_0-0_
  6
CONTINUOUS
 62
    7
 10
1050.4432513149859
 20
852.0377511887981
 11
1102.2636113149865
 21
903.85811118879792
  0
LINE
  8
_0-0_
  6
CONTINUOUS
 62
    7
 10
1050.4432513149859
 20
844.9666833769337
 11
1102.2636113149865
 21
896.78704337693455
  0
LINE
  8
_0-0_
  6
CONTINUOUS
 62
    7
 10
1112.2636113149865
 20
906.78704337693466
 11
1129.7935288171689
 21
924.316960879117
  0
LINE
  8
_0-0_
  6
CONTINUOUS
 62
    7
 10
672.13606690525205
 20
1633.3565543671132
 11
1706.8525777203677
 21
1633.3565543671132
  0
LINE
  8
_0-0_
  6
CONTINUOUS
 62
    7
 10
672.13606690525205
 20
1553.3565543671132
 11
1706.8525777203677
 21
1553.3565543671132
  0
LINE
  8
_0-0_
  6
CONTINUOUS
 62
    7
 10
672.13606690525205
 20
1473.3565543671132
 11
1706.8525777203677
 21
1473.3565543671132
  0
LINE
  8
_0-0_
  6
CONTINUOUS
 62
    7
 10
1189.4943223128103
 20
1633.3565543671132
 11
1189.4943223128103
 21
1473.3565543671132
  0
TEXT
  8
_0-0_
 62
    7
 10
1213.4943223128103
 20
1577.3565543671132
 40
20
 41
1
 50
0
  1
構造：ＲＣ造
  0
TEXT
  8
_0-0_
 62
    7
 10
1213.4943223128103
 20
1497.3565543671132
 40
20
 41
1
 50
0
  1
下地：コンクリートスラブ
  0
TEXT
  8
_0-0_
 62
    7
 10
696.13606690525205
 20
1577.3565543671132
 40
20
 41
1
 50
0
  1
図面番号：tsuki-PU-kiso-02
  0
TEXT
  8
_0-0_
 62
    7
 10
696.13606690525205
 20
1497.3565543671132
 40
20
 41
1
 50
0
  1
施工部位：基礎・架台(Ｈ鋼)
  0
ENDSEC
  0
EOF
