  0
SECTION
  2
HEADER
  9
$ACADVER
  1
AC1009
  9
$INSBASE
 10
0
 20
0
 30
0
  9
$EXTMIN
 10
0
 20
0
  9
$EXTMAX
 10
2378
 20
1682
  9
$LIMMIN
 10
0
 20
0
  9
$LIMMAX
 10
2378
 20
1682
  9
$LTSCALE
 40
1
  0
ENDSEC
  0
SECTION
  2
TABLES
  0
TABLE
  2
LTYPE
 70
     9
  0
LTYPE
  2
CONTINUOUS
 70
    64
  3
実線
 72
    65
 73
     0
 40
0.0
  0
LTYPE
  2
DASHED1
 70
    64
  3
--  --  --  --  --  --  --  --  
 72
    65
 73
     2
 40
2.5
 49
1.25
 49
-1.25
  0
LTYPE
  2
DASHED2
 70
    64
  3
----    ----    ----    ----    
 72
    65
 73
     2
 40
5.0
 49
2.5
 49
-2.5
  0
LTYPE
  2
DASHED3
 70
    64
  3
------  ------  ------  ------  
 72
    65
 73
     2
 40
5.0
 49
3.75
 49
-1.25
  0
LTYPE
  2
CENTER1
 70
    64
  3
----- - ----- - ----- - ----- - 
 72
    65
 73
     4
 40
10.0
 49
6.25
 49
-1.25
 49
1.25
 49
-1.25
  0
LTYPE
  2
CENTER2
 70
    64
  3
----------  --  ----------  --  
 72
    65
 73
     4
 40
20.0
 49
12.5
 49
-2.5
 49
2.5
 49
-2.5
  0
LTYPE
  2
PHANTOM1
 70
    64
  3
--- - - --- - - --- - - --- - - 
 72
    65
 73
     6
 40
10.0
 49
3.25
 49
-1.25
 49
1.25
 49
-1.25
 49
1.25
 49
-1.25
  0
LTYPE
  2
PHANTOM2
 70
    64
  3
--------  -  -  --------  -  -  
 72
    65
 73
     6
 40
20.0
 49
10.0
 49
-2.5
 49
1.25
 49
-2.5
 49
1.25
 49
-2.5
  0
LTYPE
  2
DOT
 70
    64
  3
-   -   -   -   -   -   -   -   
 72
    65
 73
     2
 40
2.5
 49
0.625
 49
-1.875
  0
LTYPE
  2
DUMMY
 70
    64
  3
ダミー
 72
    65
 73
     0
 40
0.0
  0
LTYPE
  2
RAND1
 70
    64
  3
ランダム線1
 72
    65
 73
     4
 40
10.0
 49
1.0
 49
-2.0
 49
3.0
 49
-4.0
  0
LTYPE
  2
RAND2
 70
    64
  3
ランダム線2
 72
    65
 73
     4
 40
14.0
 49
2.0
 49
-3.0
 49
4.0
 49
-5.0
  0
LTYPE
  2
RAND3
 70
    64
  3
ランダム線3
 72
    65
 73
     4
 40
18.0
 49
3.0
 49
-4.0
 49
5.0
 49
-6.0
  0
LTYPE
  2
RAND4
 70
    64
  3
ランダム線4
 72
    65
 73
     4
 40
22.0
 49
4.0
 49
-5.0
 49
6.0
 49
-7.0
  0
LTYPE
  2
RAND5
 70
    64
  3
ランダム線5
 72
    65
 73
     4
 40
26.0
 49
5.0
 49
-6.0
 49
7.0
 49
-8.0
  0
LTYPE
  2
LONG1
 70
    64
  3
----------  --  ----------  --  
 72
    65
 73
     4
 40
40.0
 49
32.5
 49
-2.5
 49
2.5
 49
-2.5
  0
LTYPE
  2
LONG2
 70
    64
  3
--------  -  -  --------  -  -  
 72
    65
 73
     6
 40
40.0
 49
30.0
 49
-2.5
 49
1.25
 49
-2.5
 49
1.25
 49
-2.5
  0
LTYPE
  2
LONG3
 70
    64
  3
+++++++++++++++..+++++++++++++++
 72
    65
 73
     2
 40
40.0
 49
37.5
 49
-2.5
  0
LTYPE
  2
LONG4
 70
    64
  3
+++++++++++++++..+++++++++++++++
 72
    65
 73
     2
 40
80.0
 49
75.0
 49
-5.0
  0
LTYPE
  2
LONG5
 70
    64
  3
----------  --  ----------  --  
 72
    65
 73
     4
 40
60.0
 49
37.5
 49
-7.5
 49
7.5
 49
-7.5
  0
LTYPE
  2
dashed
 70
   64
  3
-------   -------------   ------
 72
   65
 73
    2
 40
7.5
 49
6
 49
-1.5
  0
LTYPE
  2
dashed_spaced
 70
   64
  3
----        --------        ----
 72
   65
 73
    2
 40
12
 49
6
 49
-6
  0
LTYPE
  2
long_dashed_dotted
 70
   64
  3
------------- --- --------------
 72
   65
 73
    4
 40
15.25
 49
12
 49
-1.5
 49
0.25
 49
-1.5
  0
LTYPE
  2
long_dashed_double-dotted
 70
   64
  3
----------- --- --- ------------
 72
   65
 73
    6
 40
17
 49
12
 49
-1.5
 49
0.25
 49
-1.5
 49
0.25
 49
-1.5
  0
LTYPE
  2
long_dashed_triplicate-dotted
 70
   64
  3
--------- --- --- --- ----------
 72
   65
 73
    8
 40
18.75
 49
12
 49
-1.5
 49
0.25
 49
-1.5
 49
0.25
 49
-1.5
 49
0.25
 49
-1.5
  0
LTYPE
  2
dotted
 70
   64
  3
   -       -       -       -    
 72
   65
 73
    2
 40
1.75
 49
0.25
 49
-1.5
  0
LTYPE
  2
chain
 70
   64
  3
-------------- -- --------------
 72
   65
 73
    4
 40
18.5
 49
12
 49
-1.5
 49
3.5
 49
-1.5
  0
LTYPE
  2
chain_double_dash
 70
   64
  3
------------ -- -- -------------
 72
   65
 73
    6
 40
23.5
 49
12
 49
-1.5
 49
3.5
 49
-1.5
 49
3.5
 49
-1.5
  0
LTYPE
  2
dashed_dotted
 70
   64
  3
-----------     -     ----------
 72
   65
 73
    4
 40
9.25
 49
6
 49
-1.5
 49
0.25
 49
-1.5
  0
LTYPE
  2
double-dashed_dotted
 70
   64
  3
------   -----------   -   -----
 72
   65
 73
    6
 40
16.75
 49
6
 49
-1.5
 49
6
 49
-1.5
 49
0.25
 49
-1.5
  0
LTYPE
  2
dashed_double-dotted
 70
   64
  3
---------    -    -    ---------
 72
   65
 73
    6
 40
11
 49
6
 49
-1.5
 49
0.25
 49
-1.5
 49
0.25
 49
-1.5
  0
LTYPE
  2
double-dashed_double-dotted
 70
   64
  3
-----   ---------   -   -   ----
 72
   65
 73
    8
 40
18.5
 49
6
 49
-1.5
 49
6
 49
-1.5
 49
0.25
 49
-1.5
 49
0.25
 49
-1.5
  0
LTYPE
  2
dashed_triplicate-dotted
 70
   64
  3
-------    -    -    -    ------
 72
   65
 73
    8
 40
12.75
 49
6
 49
-1.5
 49
0.25
 49
-1.5
 49
0.25
 49
-1.5
 49
0.25
 49
-1.5
  0
LTYPE
  2
double-dashed_triplicate-dotted
 70
   64
  3
-----  ---------  -  -  -  -----
 72
   65
 73
   10
 40
20.25
 49
6
 49
-1.5
 49
6
 49
-1.5
 49
0.25
 49
-1.5
 49
0.25
 49
-1.5
 49
0.25
 49
-1.5
  0
LTYPE
  2
undefined
 70
   64
  3
--------------------------------
 72
   65
 73
    0
 40
0
  0
ENDTAB
  0
TABLE
  2
STYLE
  5
3
100
AcDbSymbolTable
 70
     1
  0
STYLE
  5
10
100
AcDbSymbolTableRecord
100
AcDbTextStyleTableRecord
  2
STANDARD
 70
     0
 40
0.0
 41
1.0
 50
0.0
 71
     0
 42
0.2
  3
txt
  4
bigfont.shx
  0
STYLE
  5
26
100
AcDbSymbolTableRecord
100
AcDbTextStyleTableRecord
  2
TATEGAKI
 70
    68
 40
0.0
 41
1.0
 50
0.0
 71
     0
 42
1.0
  3
txt
  4
bigfont.shx
  0
ENDTAB
  0
TABLE
  2
LAYER
 70
    2
  0
LAYER
  2
_0-0_
 70
   64
 62
    7
  6
CONTINUOUS
  0
LAYER
  2
ADD_LINE
 70
   64
 62
    7
  6
CONTINUOUS
  0
ENDTAB
  0
ENDSEC
  0
SECTION
  2
BLOCKS
  0
ENDSEC
  0
SECTION
  2
ENTITIES
  0
LINE
  8
_0-0_
  6
CONTINUOUS
 62
    7
 10
672.13606690525205
 20
1633.3565543671132
 11
672.13606690525205
 21
167.53106997205509
  0
LINE
  8
_0-0_
  6
CONTINUOUS
 62
    7
 10
1706.8525777203686
 20
1633.3565543671132
 11
1706.8525777203686
 21
167.53106997205509
  0
LINE
  8
_0-0_
  6
CONTINUOUS
 62
    7
 10
672.13606690525205
 20
167.53106997205509
 11
1706.8525777203686
 21
167.53106997205509
  0
LINE
  8
_0-0_
  6
CONTINUOUS
 62
    7
 10
1270.0177418770472
 20
853.36478544959141
 11
1555.9277169775924
 21
853.36478544959141
  0
LINE
  8
_0-0_
  6
CONTINUOUS
 62
    2
 10
1121.8372169775939
 20
636.87163472321276
 11
1121.8372169775939
 21
1255.5891839197668
  0
LINE
  8
_0-0_
  6
CONTINUOUS
 62
    2
 10
1199.0448895388454
 20
1260.2172470022686
 11
1202.7430242332202
 21
1264.4070832998943
  0
LINE
  8
_0-0_
  6
CONTINUOUS
 62
    2
 10
1124.9543895388433
 20
1250.9607318621436
 11
1121.8372169775939
 21
1255.5891839197668
  0
LINE
  8
_0-0_
  6
CONTINUOUS
 62
    2
 10
1128.6525242332182
 20
1246.7708955645178
 11
1124.9543895388433
 21
1250.9607318621436
  0
LINE
  8
_0-0_
  6
CONTINUOUS
 62
    2
 10
1132.8636615495952
 20
1243.0976738007687
 11
1128.6525242332182
 21
1246.7708955645178
  0
LINE
  8
_0-0_
  6
CONTINUOUS
 62
    2
 10
1137.516137451843
 20
1240.0037471338931
 11
1132.8636615495952
 21
1243.0976738007687
  0
LINE
  8
_0-0_
  6
CONTINUOUS
 62
    2
 10
1142.532027256595
 20
1237.5409418686424
 11
1137.516137451843
 21
1240.0037471338931
  0
LINE
  8
_0-0_
  6
CONTINUOUS
 62
    2
 10
1147.825626777968
 20
1235.7514154995163
 11
1142.532027256595
 21
1237.5409418686424
  0
LINE
  8
_0-0_
  6
CONTINUOUS
 62
    2
 10
1153.3063789023427
 20
1234.6655636541429
 11
1147.825626777968
 21
1235.7514154995163
  0
LINE
  8
_0-0_
  6
CONTINUOUS
 62
    2
 10
1158.8824669775959
 20
1234.301501459767
 11
1153.3063789023427
 21
1234.6655636541429
  0
LINE
  8
_0-0_
  6
CONTINUOUS
 62
    2
 10
1164.4585365302182
 20
1234.6655636541429
 11
1158.8824669775959
 21
1234.301501459767
  0
LINE
  8
_0-0_
  6
CONTINUOUS
 62
    2
 10
1169.9392886545938
 20
1235.7514154995163
 11
1164.4585365302182
 21
1234.6655636541429
  0
LINE
  8
_0-0_
  6
CONTINUOUS
 62
    2
 10
1175.2328881759704
 20
1237.5409418686424
 11
1169.9392886545938
 21
1235.7514154995163
  0
LINE
  8
_0-0_
  6
CONTINUOUS
 62
    2
 10
1180.2487779807188
 20
1240.0037471338931
 11
1175.2328881759704
 21
1237.5409418686424
  0
LINE
  8
_0-0_
  6
CONTINUOUS
 62
    2
 10
1184.9012538829702
 20
1243.0976738007687
 11
1180.2487779807188
 21
1240.0037471338931
  0
LINE
  8
_0-0_
  6
CONTINUOUS
 62
    2
 10
1189.1123911993436
 20
1246.7708955645178
 11
1184.9012538829702
 21
1243.0976738007687
  0
LINE
  8
_0-0_
  6
CONTINUOUS
 62
    2
 10
1192.8105258937185
 20
1250.9607318621436
 11
1189.1123911993436
 21
1246.7708955645178
  0
LINE
  8
_0-0_
  6
CONTINUOUS
 62
    2
 10
1195.9277169775924
 20
1255.5891839197668
 11
1192.8105258937185
 21
1250.9607318621436
  0
LINE
  8
_0-0_
  6
CONTINUOUS
 62
    2
 10
1192.8105258937185
 20
1260.2172470022686
 11
1195.9277169775924
 21
1255.5888134672662
  0
LINE
  8
_0-0_
  6
CONTINUOUS
 62
    2
 10
1189.1123911993436
 20
1264.4070832998943
 11
1192.8105258937185
 21
1260.2172470022686
  0
LINE
  8
_0-0_
  6
CONTINUOUS
 62
    2
 10
1184.9012538829702
 20
1268.0803050636434
 11
1189.1123911993436
 21
1264.4070832998943
  0
LINE
  8
_0-0_
  6
CONTINUOUS
 62
    2
 10
1180.2487779807188
 20
1271.1742317305191
 11
1184.9012538829702
 21
1268.0803050636434
  0
LINE
  8
_0-0_
  6
CONTINUOUS
 62
    2
 10
1175.2328881759704
 20
1273.637036995766
 11
1180.2487779807188
 21
1271.1742317305191
  0
LINE
  8
_0-0_
  6
CONTINUOUS
 62
    2
 10
1169.9392886545938
 20
1275.4265633648927
 11
1175.2328881759704
 21
1273.637036995766
  0
LINE
  8
_0-0_
  6
CONTINUOUS
 62
    2
 10
1164.4585365302182
 20
1276.5124152102655
 11
1169.9392886545938
 21
1275.4265633648927
  0
LINE
  8
_0-0_
  6
CONTINUOUS
 62
    2
 10
1158.8824669775959
 20
1276.876495927266
 11
1164.4585365302182
 21
1276.5124152102655
  0
LINE
  8
_0-0_
  6
CONTINUOUS
 62
    2
 10
1153.3063789023427
 20
1276.5124152102655
 11
1158.8824669775959
 21
1276.876495927266
  0
LINE
  8
_0-0_
  6
CONTINUOUS
 62
    2
 10
1147.825626777968
 20
1275.4265633648927
 11
1153.3063789023427
 21
1276.5124152102655
  0
LINE
  8
_0-0_
  6
CONTINUOUS
 62
    2
 10
1142.532027256595
 20
1273.637036995766
 11
1147.825626777968
 21
1275.4265633648927
  0
LINE
  8
_0-0_
  6
CONTINUOUS
 62
    2
 10
1137.516137451843
 20
1271.1742317305191
 11
1142.532027256595
 21
1273.637036995766
  0
LINE
  8
_0-0_
  6
CONTINUOUS
 62
    2
 10
1132.8636615495952
 20
1268.0803050636434
 11
1137.516137451843
 21
1271.1742317305191
  0
LINE
  8
_0-0_
  6
CONTINUOUS
 62
    2
 10
1128.6525242332182
 20
1264.4070832998943
 11
1132.8636615495952
 21
1268.0803050636434
  0
LINE
  8
_0-0_
  6
CONTINUOUS
 62
    2
 10
1124.9543895388433
 20
1260.2172470022686
 11
1128.6525242332182
 21
1264.4070832998943
  0
LINE
  8
_0-0_
  6
CONTINUOUS
 62
    2
 10
1121.8372169775939
 20
1255.5888134672662
 11
1124.9543895388433
 21
1260.2172470022686
  0
LINE
  8
_0-0_
  6
CONTINUOUS
 62
    2
 10
1263.202891199343
 20
1264.4070832998943
 11
1266.9010258937178
 21
1260.2172470022686
  0
LINE
  8
_0-0_
  6
CONTINUOUS
 62
    2
 10
1258.9917538829704
 20
1268.0803050636434
 11
1263.202891199343
 21
1264.4070832998943
  0
LINE
  8
_0-0_
  6
CONTINUOUS
 62
    2
 10
1254.3392779807191
 20
1271.1742317305191
 11
1258.9917538829704
 21
1268.0803050636434
  0
LINE
  8
_0-0_
  6
CONTINUOUS
 62
    2
 10
1249.3233881759706
 20
1273.637036995766
 11
1254.3392779807191
 21
1271.1742317305191
  0
LINE
  8
_0-0_
  6
CONTINUOUS
 62
    2
 10
1244.0297886545941
 20
1275.4265633648927
 11
1249.3233881759706
 21
1273.637036995766
  0
LINE
  8
_0-0_
  6
CONTINUOUS
 62
    2
 10
1238.5490365302185
 20
1276.5124152102655
 11
1244.0297886545941
 21
1275.4265633648927
  0
LINE
  8
_0-0_
  6
CONTINUOUS
 62
    2
 10
1232.9729669775952
 20
1276.876495927266
 11
1238.5490365302185
 21
1276.5124152102655
  0
LINE
  8
_0-0_
  6
CONTINUOUS
 62
    2
 10
1227.3968789023447
 20
1276.5124152102655
 11
1232.9729669775952
 21
1276.876495927266
  0
LINE
  8
_0-0_
  6
CONTINUOUS
 62
    2
 10
1221.9161267779691
 20
1275.4265633648927
 11
1227.3968789023447
 21
1276.5124152102655
  0
LINE
  8
_0-0_
  6
CONTINUOUS
 62
    2
 10
1216.6225272565935
 20
1273.637036995766
 11
1221.9161267779691
 21
1275.4265633648927
  0
LINE
  8
_0-0_
  6
CONTINUOUS
 62
    2
 10
1211.606637451845
 20
1271.1742317305191
 11
1216.6225272565935
 21
1273.637036995766
  0
LINE
  8
_0-0_
  6
CONTINUOUS
 62
    2
 10
1206.9541615495937
 20
1268.0803050636434
 11
1211.606637451845
 21
1271.1742317305191
  0
LINE
  8
_0-0_
  6
CONTINUOUS
 62
    2
 10
1202.7430242332202
 20
1264.4070832998943
 11
1206.9541615495937
 21
1268.0803050636434
  0
LINE
  8
_0-0_
  6
CONTINUOUS
 62
    2
 10
1195.9277169775924
 20
1255.5888134672662
 11
1199.0448895388454
 21
1260.2172470022686
  0
LINE
  8
_0-0_
  6
CONTINUOUS
 62
    2
 10
1266.9010258937178
 20
1260.2172470022686
 11
1270.0177418770472
 21
1255.58951890086
  0
LINE
  8
_0-0_
  6
CONTINUOUS
 62
    7
 10
1121.8372169775939
 20
853.36478544959141
 11
835.92771697759247
 21
853.36478544959141
  0
LINE
  8
_0-0_
  6
CONTINUOUS
 62
    7
 10
835.92771697759247
 20
636.87163472321276
 11
1052.4208677039715
 21
853.36478544959095
  0
LINE
  8
_0-0_
  6
CONTINUOUS
 62
    7
 10
867.74752213098975
 20
636.87163472321276
 11
1084.2406728573696
 21
853.36478544959118
  0
LINE
  8
_0-0_
  6
CONTINUOUS
 62
    7
 10
851.83761955429065
 20
636.87163472321299
 11
1068.3307702806715
 21
853.36478544959141
  0
LINE
  8
_0-0_
  6
CONTINUOUS
 62
    7
 10
1345.0445994319034
 20
636.87163472321254
 11
1555.9277169775924
 21
847.75475226890399
  0
LINE
  8
_0-0_
  6
CONTINUOUS
 62
    7
 10
1360.9545020086025
 20
636.87163472321276
 11
1555.9277169775924
 21
831.84484969220352
  0
LINE
  8
_0-0_
  6
CONTINUOUS
 62
    7
 10
1376.8644045852989
 20
636.87163472321276
 11
1555.9277169775924
 21
815.93494711550329
  0
LINE
  8
_0-0_
  6
CONTINUOUS
 62
    2
 10
1130.4172169775948
 20
636.87163472321276
 11
1130.4172169775948
 21
1245.2316183317937
  0
LINE
  8
_0-0_
  6
CONTINUOUS
 62
    2
 10
1261.4572169775938
 20
636.87163472321276
 11
1261.4572169775938
 21
1265.9297713677504
  0
LINE
  8
_0-0_
  6
CONTINUOUS
 62
    2
 10
1270.0177418770472
 20
636.87163472321276
 11
1270.0177418770472
 21
1255.58951890086
  0
LINE
  8
_0-0_
  6
CONTINUOUS
 62
    4
 10
1108.3372169775939
 20
881.45666854162801
 11
1093.7453338855576
 21
866.86478544959141
  0
LINE
  8
_0-0_
  6
CONTINUOUS
 62
    4
 10
1093.7453338855576
 20
866.86478544959141
 11
835.92771697759247
 21
866.86478544959141
  0
LINE
  8
_0-0_
  6
CONTINUOUS
 62
    2
 10
1121.8372169775939
 20
875.86478544959141
 11
1099.3372169775939
 21
853.36478544959141
  0
LINE
  8
_0-0_
  6
CONTINUOUS
 62
    4
 10
1298.1096249690836
 20
866.86478544959141
 11
1555.9277169775924
 21
866.86478544959141
  0
LINE
  8
_0-0_
  6
CONTINUOUS
 62
    4
 10
1283.5177418770472
 20
881.45666854162801
 11
1298.1096249690836
 21
866.86478544959141
  0
LINE
  8
_0-0_
  6
CONTINUOUS
 62
    2
 10
1270.0177418770472
 20
875.86478544959141
 11
1292.5177418770472
 21
853.36478544959141
  0
LINE
  8
_0-0_
  6
CONTINUOUS
 62
    4
 10
1108.3372169775939
 20
952.36478544959141
 11
1108.3372169775939
 21
881.45666854162801
  0
ARC
  8
_0-0_
  6
CONTINUOUS
 62
    4
 10
1121.8372169775939
 20
952.36478544959141
 40
13.5
 50
90
 51
180
  0
LINE
  8
_0-0_
  6
CONTINUOUS
 62
    4
 10
1283.5177418770472
 20
952.36478544959141
 11
1283.5177418770472
 21
881.45666854162801
  0
ARC
  8
_0-0_
  6
CONTINUOUS
 62
    4
 10
1270.0177418770472
 20
952.36478544959141
 40
13.5
 50
0
 51
90
  0
LINE
  8
_0-0_
  6
DASHED2
 62
    5
 10
1096.8519356033557
 20
859.36478544959141
 11
835.92771697759247
 21
859.36478544959141
  0
LINE
  8
_0-0_
  6
DASHED2
 62
    5
 10
1115.8372169775939
 20
878.35006682382982
 11
1096.8519356033557
 21
859.36478544959141
  0
LINE
  8
_0-0_
  6
DASHED2
 62
    5
 10
1295.0030232512854
 20
859.36478544959141
 11
1555.9277169775924
 21
859.36478544959141
  0
LINE
  8
_0-0_
  6
DASHED2
 62
    5
 10
1276.0177418770472
 20
878.35006682382982
 11
1295.0030232512854
 21
859.36478544959141
  0
LINE
  8
_0-0_
  6
DASHED2
 62
    5
 10
1115.8372169775939
 20
878.35006682382982
 11
1115.8372169775939
 21
952.36478544959141
  0
LINE
  8
_0-0_
  6
DASHED2
 62
    5
 10
1276.0177418770472
 20
878.35006682382982
 11
1276.0177418770472
 21
952.36478544959141
  0
POINT
  8
_0-0_
 62
    7
 10
1344.8406940454579
 20
965.86478544959141
  0
POINT
  8
_0-0_
 62
    7
 10
1344.8406940454579
 20
853.36478544959141
  0
LINE
  8
_0-0_
  6
CONTINUOUS
 62
    7
 10
1344.8406940454579
 20
965.86478544959141
 11
1344.8406940454579
 21
853.36478544959141
  0
LINE
  8
_0-0_
  6
CONTINUOUS
 62
    7
 10
1302.8496687187335
 20
965.86478544959141
 11
1344.8406940454579
 21
965.86478544959141
  0
LINE
  8
_0-0_
  6
CONTINUOUS
 62
    7
 10
1275.9592064165763
 20
927.43038899256862
 11
1386.9065658473301
 21
1119.5968524922393
  0
POINT
  8
_0-0_
 62
    7
 10
1275.9592064165763
 20
927.43038899256862
  0
LINE
  8
_0-0_
  6
CONTINUOUS
 62
    2
 10
1121.8372169775939
 20
871.41001272811582
 11
1103.7919896990697
 21
853.36478544959164
  0
LINE
  8
_0-0_
  6
CONTINUOUS
 62
    2
 10
1121.8372169775939
 20
866.95524000664022
 11
1108.2467624205456
 21
853.36478544959186
  0
LINE
  8
_0-0_
  6
CONTINUOUS
 62
    2
 10
1121.8372169775939
 20
862.50046728516463
 11
1112.7015351420205
 21
853.36478544959141
  0
LINE
  8
_0-0_
  6
CONTINUOUS
 62
    2
 10
1121.8372169775939
 20
858.04569456368904
 11
1117.1563078634963
 21
853.36478544959141
  0
LINE
  8
_0-0_
  6
CONTINUOUS
 62
    2
 10
1121.8372169775939
 20
853.59092184221345
 11
1121.6110805849721
 21
853.36478544959141
  0
LINE
  8
_0-0_
  6
CONTINUOUS
 62
    2
 10
1271.5883266066012
 20
874.29420072003722
 11
1270.0177418770472
 21
872.72361599048304
  0
LINE
  8
_0-0_
  6
CONTINUOUS
 62
    2
 10
1273.8157129673391
 20
872.06681435929931
 11
1270.0177418770472
 21
868.26884326900745
  0
LINE
  8
_0-0_
  6
CONTINUOUS
 62
    2
 10
1276.043099328077
 20
869.83942799856163
 11
1270.0177418770472
 21
863.81407054753186
  0
LINE
  8
_0-0_
  6
CONTINUOUS
 62
    2
 10
1278.2704856888149
 20
867.61204163782395
 11
1270.0177418770472
 21
859.35929782605626
  0
LINE
  8
_0-0_
  6
CONTINUOUS
 62
    2
 10
1280.4978720495528
 20
865.38465527708604
 11
1270.0177418770472
 21
854.90452510458067
  0
LINE
  8
_0-0_
  6
CONTINUOUS
 62
    2
 10
1282.7252584102907
 20
863.15726891634858
 11
1272.9327749435333
 21
853.36478544959141
  0
LINE
  8
_0-0_
  6
CONTINUOUS
 62
    2
 10
1284.9526447710286
 20
860.9298825556109
 11
1277.3875476650092
 21
853.36478544959141
  0
LINE
  8
_0-0_
  6
CONTINUOUS
 62
    2
 10
1287.1800311317656
 20
858.70249619487231
 11
1281.842320386485
 21
853.36478544959141
  0
LINE
  8
_0-0_
  6
CONTINUOUS
 62
    2
 10
1289.4074174925036
 20
856.47510983413486
 11
1286.2970931079599
 21
853.36478544959118
  0
LINE
  8
_0-0_
  6
CONTINUOUS
 62
    2
 10
1291.6348038532415
 20
854.24772347339717
 11
1290.7518658294357
 21
853.36478544959141
  0
LINE
  8
_0-0_
  6
CONTINUOUS
 62
    7
 10
1116.0723632318077
 20
858.36555081871188
 11
1014.7972495575979
 21
1033.7791932447574
  0
POINT
  8
_0-0_
 62
    7
 10
1116.0723632318077
 20
858.36555081871188
  0
TEXT
  8
_0-0_
 62
    7
 10
1389.494941722267
 20
1104.7898851056959
 40
30
 41
1
 50
0
  1
防水層
  0
TEXT
  8
_0-0_
 62
    7
 10
926.76528171426082
 20
1017.7596056074342
 40
30
 41
1
 50
0
  1
ｼｰﾘﾝｸﾞ
  0
LINE
  8
_0-0_
  6
CONTINUOUS
 62
    7
 10
672.13606690525205
 20
1633.3565543671132
 11
1706.8525777203686
 21
1633.3565543671132
  0
LINE
  8
_0-0_
  6
CONTINUOUS
 62
    7
 10
672.13606690525205
 20
1553.3565543671132
 11
1706.8525777203686
 21
1553.3565543671132
  0
LINE
  8
_0-0_
  6
CONTINUOUS
 62
    7
 10
672.13606690525205
 20
1473.3565543671132
 11
1706.8525777203686
 21
1473.3565543671132
  0
LINE
  8
_0-0_
  6
CONTINUOUS
 62
    7
 10
1189.4943223128103
 20
1633.3565543671132
 11
1189.4943223128103
 21
1473.3565543671132
  0
TEXT
  8
_0-0_
 62
    7
 10
1213.4943223128103
 20
1577.3565543671132
 40
20
 41
1
 50
0
  1
構造：ＲＣ造
  0
TEXT
  8
_0-0_
 62
    7
 10
1213.4943223128103
 20
1497.3565543671132
 40
20
 41
1
 50
0
  1
下地：コンクリートスラブ
  0
TEXT
  8
_0-0_
 62
    7
 10
696.13606690525205
 20
1577.3565543671132
 40
20
 41
1
 50
0
  1
工法：tsuki-PU-kantsu-01
  0
TEXT
  8
_0-0_
 62
    7
 10
696.13606690525205
 20
1497.3565543671134
 40
20
 41
1
 50
0
  1
施工部位：貫通パイプ
  0
TEXT
  8
_0-0_
 62
    7
 10
1362.2452064312156
 20
895.35000001625349
 40
30
 41
1
 50
0
  1
50mm以上
  0
ENDSEC
  0
EOF
