  0
SECTION
  2
HEADER
  9
$ACADVER
  1
AC1009
  9
$INSBASE
 10
0
 20
0
 30
0
  9
$EXTMIN
 10
0
 20
0
  9
$EXTMAX
 10
2378
 20
1682
  9
$LIMMIN
 10
0
 20
0
  9
$LIMMAX
 10
2378
 20
1682
  9
$LTSCALE
 40
1
  0
ENDSEC
  0
SECTION
  2
TABLES
  0
TABLE
  2
LTYPE
 70
     9
  0
LTYPE
  2
CONTINUOUS
 70
    64
  3
実線
 72
    65
 73
     0
 40
0.0
  0
LTYPE
  2
DASHED1
 70
    64
  3
--  --  --  --  --  --  --  --  
 72
    65
 73
     2
 40
2.5
 49
1.25
 49
-1.25
  0
LTYPE
  2
DASHED2
 70
    64
  3
----    ----    ----    ----    
 72
    65
 73
     2
 40
5.0
 49
2.5
 49
-2.5
  0
LTYPE
  2
DASHED3
 70
    64
  3
------  ------  ------  ------  
 72
    65
 73
     2
 40
5.0
 49
3.75
 49
-1.25
  0
LTYPE
  2
CENTER1
 70
    64
  3
----- - ----- - ----- - ----- - 
 72
    65
 73
     4
 40
10.0
 49
6.25
 49
-1.25
 49
1.25
 49
-1.25
  0
LTYPE
  2
CENTER2
 70
    64
  3
----------  --  ----------  --  
 72
    65
 73
     4
 40
20.0
 49
12.5
 49
-2.5
 49
2.5
 49
-2.5
  0
LTYPE
  2
PHANTOM1
 70
    64
  3
--- - - --- - - --- - - --- - - 
 72
    65
 73
     6
 40
10.0
 49
3.25
 49
-1.25
 49
1.25
 49
-1.25
 49
1.25
 49
-1.25
  0
LTYPE
  2
PHANTOM2
 70
    64
  3
--------  -  -  --------  -  -  
 72
    65
 73
     6
 40
20.0
 49
10.0
 49
-2.5
 49
1.25
 49
-2.5
 49
1.25
 49
-2.5
  0
LTYPE
  2
DOT
 70
    64
  3
-   -   -   -   -   -   -   -   
 72
    65
 73
     2
 40
2.5
 49
0.625
 49
-1.875
  0
LTYPE
  2
DUMMY
 70
    64
  3
ダミー
 72
    65
 73
     0
 40
0.0
  0
LTYPE
  2
RAND1
 70
    64
  3
ランダム線1
 72
    65
 73
     4
 40
10.0
 49
1.0
 49
-2.0
 49
3.0
 49
-4.0
  0
LTYPE
  2
RAND2
 70
    64
  3
ランダム線2
 72
    65
 73
     4
 40
14.0
 49
2.0
 49
-3.0
 49
4.0
 49
-5.0
  0
LTYPE
  2
RAND3
 70
    64
  3
ランダム線3
 72
    65
 73
     4
 40
18.0
 49
3.0
 49
-4.0
 49
5.0
 49
-6.0
  0
LTYPE
  2
RAND4
 70
    64
  3
ランダム線4
 72
    65
 73
     4
 40
22.0
 49
4.0
 49
-5.0
 49
6.0
 49
-7.0
  0
LTYPE
  2
RAND5
 70
    64
  3
ランダム線5
 72
    65
 73
     4
 40
26.0
 49
5.0
 49
-6.0
 49
7.0
 49
-8.0
  0
LTYPE
  2
LONG1
 70
    64
  3
----------  --  ----------  --  
 72
    65
 73
     4
 40
40.0
 49
32.5
 49
-2.5
 49
2.5
 49
-2.5
  0
LTYPE
  2
LONG2
 70
    64
  3
--------  -  -  --------  -  -  
 72
    65
 73
     6
 40
40.0
 49
30.0
 49
-2.5
 49
1.25
 49
-2.5
 49
1.25
 49
-2.5
  0
LTYPE
  2
LONG3
 70
    64
  3
+++++++++++++++..+++++++++++++++
 72
    65
 73
     2
 40
40.0
 49
37.5
 49
-2.5
  0
LTYPE
  2
LONG4
 70
    64
  3
+++++++++++++++..+++++++++++++++
 72
    65
 73
     2
 40
80.0
 49
75.0
 49
-5.0
  0
LTYPE
  2
LONG5
 70
    64
  3
----------  --  ----------  --  
 72
    65
 73
     4
 40
60.0
 49
37.5
 49
-7.5
 49
7.5
 49
-7.5
  0
LTYPE
  2
dashed
 70
   64
  3
-------   -------------   ------
 72
   65
 73
    2
 40
7.5
 49
6
 49
-1.5
  0
LTYPE
  2
dashed_spaced
 70
   64
  3
----        --------        ----
 72
   65
 73
    2
 40
12
 49
6
 49
-6
  0
LTYPE
  2
long_dashed_dotted
 70
   64
  3
------------- --- --------------
 72
   65
 73
    4
 40
15.25
 49
12
 49
-1.5
 49
0.25
 49
-1.5
  0
LTYPE
  2
long_dashed_double-dotted
 70
   64
  3
----------- --- --- ------------
 72
   65
 73
    6
 40
17
 49
12
 49
-1.5
 49
0.25
 49
-1.5
 49
0.25
 49
-1.5
  0
LTYPE
  2
long_dashed_triplicate-dotted
 70
   64
  3
--------- --- --- --- ----------
 72
   65
 73
    8
 40
18.75
 49
12
 49
-1.5
 49
0.25
 49
-1.5
 49
0.25
 49
-1.5
 49
0.25
 49
-1.5
  0
LTYPE
  2
dotted
 70
   64
  3
   -       -       -       -    
 72
   65
 73
    2
 40
1.75
 49
0.25
 49
-1.5
  0
LTYPE
  2
chain
 70
   64
  3
-------------- -- --------------
 72
   65
 73
    4
 40
18.5
 49
12
 49
-1.5
 49
3.5
 49
-1.5
  0
LTYPE
  2
chain_double_dash
 70
   64
  3
------------ -- -- -------------
 72
   65
 73
    6
 40
23.5
 49
12
 49
-1.5
 49
3.5
 49
-1.5
 49
3.5
 49
-1.5
  0
LTYPE
  2
dashed_dotted
 70
   64
  3
-----------     -     ----------
 72
   65
 73
    4
 40
9.25
 49
6
 49
-1.5
 49
0.25
 49
-1.5
  0
LTYPE
  2
double-dashed_dotted
 70
   64
  3
------   -----------   -   -----
 72
   65
 73
    6
 40
16.75
 49
6
 49
-1.5
 49
6
 49
-1.5
 49
0.25
 49
-1.5
  0
LTYPE
  2
dashed_double-dotted
 70
   64
  3
---------    -    -    ---------
 72
   65
 73
    6
 40
11
 49
6
 49
-1.5
 49
0.25
 49
-1.5
 49
0.25
 49
-1.5
  0
LTYPE
  2
double-dashed_double-dotted
 70
   64
  3
-----   ---------   -   -   ----
 72
   65
 73
    8
 40
18.5
 49
6
 49
-1.5
 49
6
 49
-1.5
 49
0.25
 49
-1.5
 49
0.25
 49
-1.5
  0
LTYPE
  2
dashed_triplicate-dotted
 70
   64
  3
-------    -    -    -    ------
 72
   65
 73
    8
 40
12.75
 49
6
 49
-1.5
 49
0.25
 49
-1.5
 49
0.25
 49
-1.5
 49
0.25
 49
-1.5
  0
LTYPE
  2
double-dashed_triplicate-dotted
 70
   64
  3
-----  ---------  -  -  -  -----
 72
   65
 73
   10
 40
20.25
 49
6
 49
-1.5
 49
6
 49
-1.5
 49
0.25
 49
-1.5
 49
0.25
 49
-1.5
 49
0.25
 49
-1.5
  0
LTYPE
  2
undefined
 70
   64
  3
--------------------------------
 72
   65
 73
    0
 40
0
  0
ENDTAB
  0
TABLE
  2
STYLE
  5
3
100
AcDbSymbolTable
 70
     1
  0
STYLE
  5
10
100
AcDbSymbolTableRecord
100
AcDbTextStyleTableRecord
  2
STANDARD
 70
     0
 40
0.0
 41
1.0
 50
0.0
 71
     0
 42
0.2
  3
txt
  4
bigfont.shx
  0
STYLE
  5
26
100
AcDbSymbolTableRecord
100
AcDbTextStyleTableRecord
  2
TATEGAKI
 70
    68
 40
0.0
 41
1.0
 50
0.0
 71
     0
 42
1.0
  3
txt
  4
bigfont.shx
  0
ENDTAB
  0
TABLE
  2
LAYER
 70
    2
  0
LAYER
  2
_0-0_
 70
   64
 62
    7
  6
CONTINUOUS
  0
LAYER
  2
ADD_LINE
 70
   64
 62
    7
  6
CONTINUOUS
  0
ENDTAB
  0
ENDSEC
  0
SECTION
  2
BLOCKS
  0
ENDSEC
  0
SECTION
  2
ENTITIES
  0
POINT
  8
_0-0_
 62
    7
 10
1191.8713429239197
 20
439.87060284197901
  0
POINT
  8
_0-0_
 62
    2
 10
1173.2301587881775
 20
451.75037972806905
  0
POINT
  8
_0-0_
 62
    2
 10
1173.0389437968452
 20
445.05785503143647
  0
POINT
  8
_0-0_
 62
    2
 10
1181.8348333981339
 20
438.93897530880105
  0
POINT
  8
_0-0_
 62
    2
 10
1175.3335236928333
 20
430.52551569017726
  0
POINT
  8
_0-0_
 62
    2
 10
1181.0699734328045
 20
426.70121586353008
  0
POINT
  8
_0-0_
 62
    2
 10
1174.7598787188363
 20
418.09654125357395
  0
POINT
  8
_0-0_
 62
    2
 10
1185.4679182334485
 20
416.75803631424748
  0
POINT
  8
_0-0_
 62
    2
 10
1179.5402535021458
 20
412.16887652227086
  0
POINT
  8
_0-0_
 62
    2
 10
1190.0570780254257
 20
426.12757088953299
  0
POINT
  8
_0-0_
 62
    2
 10
1193.1165178867432
 20
413.50738146159733
  0
POINT
  8
_0-0_
 62
    2
 10
1198.2793226527165
 20
424.78906595020652
  0
POINT
  8
_0-0_
 62
    2
 10
1200.5739025487046
 20
411.40401655694143
  0
POINT
  8
_0-0_
 62
    2
 10
1205.7367073146788
 20
426.31878588086539
  0
POINT
  8
_0-0_
 62
    2
 10
1208.4137171933316
 20
414.27224142692677
  0
POINT
  8
_0-0_
 62
    2
 10
1210.7082970893198
 20
414.08102643559442
  0
POINT
  8
_0-0_
 62
    2
 10
1213.0028769853079
 20
407.19728674762951
  0
POINT
  8
_0-0_
 62
    2
 10
1213.1940919766403
 20
402.03448198165586
  0
POINT
  8
_0-0_
 62
    2
 10
1207.2664272453376
 20
409.10943666095312
  0
POINT
  8
_0-0_
 62
    2
 10
1211.2819420633168
 20
422.68570104555056
  0
POINT
  8
_0-0_
 62
    2
 10
1202.6772674533613
 20
420.19990615822991
  0
POINT
  8
_0-0_
 62
    2
 10
1192.1604429300814
 20
420.00869116689756
  0
POINT
  8
_0-0_
 62
    2
 10
1174.1862337448392
 20
422.68570104555056
  0
POINT
  8
_0-0_
 62
    2
 10
1183.9381983027897
 20
431.09916066417435
  0
POINT
  8
_0-0_
 62
    2
 10
1196.367172739393
 20
430.14308570751257
  0
POINT
  8
_0-0_
 62
    2
 10
1199.2353976093782
 20
435.11467548215387
  0
POINT
  8
_0-0_
 62
    2
 10
1193.4989478694079
 20
434.92346049082153
  0
POINT
  8
_0-0_
 62
    2
 10
1201.1475475227016
 20
442.18963016145113
  0
POINT
  8
_0-0_
 62
    2
 10
1204.7806323580171
 20
434.34981551682444
  0
POINT
  8
_0-0_
 62
    2
 10
1201.5299775053672
 20
428.99579575951839
  0
POINT
  8
_0-0_
 62
    2
 10
1210.8995120806521
 20
432.82009558616556
  0
POINT
  8
_0-0_
 62
    2
 10
1208.4137171933316
 20
440.46869523945992
  0
POINT
  8
_0-0_
 62
    2
 10
1212.0468020286462
 20
438.5565453261363
  0
POINT
  8
_0-0_
 62
    2
 10
1213.0028769853079
 20
450.60308978007487
  0
POINT
  8
_0-0_
 62
    2
 10
1203.8245574013554
 20
451.75037972806905
  0
POINT
  8
_0-0_
 62
    2
 10
1204.0157723926877
 20
445.63150000543357
  0
POINT
  8
_0-0_
 62
    2
 10
1195.6023127740636
 20
451.94159471940139
  0
POINT
  8
_0-0_
 62
    2
 10
1188.527358094766
 20
451.17673475407196
  0
POINT
  8
_0-0_
 62
    2
 10
1190.0570780254257
 20
446.01392998809831
  0
POINT
  8
_0-0_
 62
    2
 10
1186.6152081814425
 20
445.05785503143647
  0
POINT
  8
_0-0_
 62
    2
 10
1188.1449281121013
 20
437.98290035213921
  0
POINT
  8
_0-0_
 62
    2
 10
1179.1578235194811
 20
447.73486491008953
  0
POINT
  8
_0-0_
 62
    2
 10
1184.5118432767867
 20
451.17673475407196
  0
POINT
  8
_0-0_
 62
    2
 10
1181.6436184068016
 20
444.2929950661071
  0
POINT
  8
_0-0_
 62
    2
 10
1176.4808136408283
 20
440.08626525679517
  0
POINT
  8
_0-0_
 62
    2
 10
1173.2301587881775
 20
439.51262028279808
  0
POINT
  8
_0-0_
 62
    2
 10
1179.3490385108134
 20
433.96738553415969
  0
POINT
  8
_0-0_
 62
    2
 10
1191.7780129474168
 20
428.99579575951839
  0
POINT
  8
_0-0_
 62
    2
 10
1189.2922180600963
 20
432.05523562083613
  0
POINT
  8
_0-0_
 62
    2
 10
1180.1138984761428
 20
451.75037972806905
  0
POINT
  8
_0-0_
 62
    2
 10
1171.9429073516822
 20
402.67712205561821
  0
POINT
  8
_0-0_
 62
    2
 10
1177.360008343242
 20
407.34184790946153
  0
POINT
  8
_0-0_
 62
    2
 10
1172.2438574067692
 20
414.8655992866282
  0
POINT
  8
_0-0_
 62
    2
 10
1180.0685588390224
 20
419.2293750853849
  0
POINT
  8
_0-0_
 62
    2
 10
1182.1752092246288
 20
414.56464923154158
  0
POINT
  8
_0-0_
 62
    2
 10
1184.7332846928657
 20
410.20087343278487
  0
POINT
  8
_0-0_
 62
    2
 10
1189.097060491622
 20
412.45799884593487
  0
POINT
  8
_0-0_
 62
    2
 10
1188.7961104365359
 20
418.02557486503821
  0
POINT
  8
_0-0_
 62
    2
 10
1187.8932602712757
 20
423.1417258015116
  0
POINT
  8
_0-0_
 62
    2
 10
1194.9655865658124
 20
422.99125077396826
  0
POINT
  8
_0-0_
 62
    2
 10
1194.9655865658124
 20
418.02557486503821
  0
POINT
  8
_0-0_
 62
    2
 10
1195.8684367310725
 20
413.66179906628156
  0
POINT
  8
_0-0_
 62
    2
 10
1201.2855377226324
 20
415.01607431417153
  0
POINT
  8
_0-0_
 62
    2
 10
1205.3483634663025
 20
416.21987453451823
  0
POINT
  8
_0-0_
 62
    2
 10
1203.5426631357823
 20
408.09422304717822
  0
POINT
  8
_0-0_
 62
    2
 10
1204.5959883285859
 20
412.30752381839153
  0
POINT
  8
_0-0_
 62
    2
 10
1209.8626142926023
 20
404.4828223861382
  0
POINT
  8
_0-0_
 62
    2
 10
1207.7559639069959
 20
419.68080016801491
  0
POINT
  8
_0-0_
 62
    2
 10
1208.9597641273422
 20
426.9036014900949
  0
POINT
  8
_0-0_
 62
    2
 10
1206.7026387141923
 20
430.96642723376493
  0
POINT
  8
_0-0_
 62
    2
 10
1208.6588140722561
 20
437.43685341812824
  0
POINT
  8
_0-0_
 62
    2
 10
1211.9692646782087
 20
427.35502657272491
  0
POINT
  8
_0-0_
 62
    2
 10
1211.6683146231226
 20
416.97224967223491
  0
POINT
  8
_0-0_
 62
    2
 10
1175.2533579576357
 20
434.57782789480495
  0
POINT
  8
_0-0_
 62
    2
 10
1177.6609583983291
 20
424.64647607694491
  0
POINT
  8
_0-0_
 62
    2
 10
1197.2227119789623
 20
439.69397883127829
  0
POINT
  8
_0-0_
 62
    2
 10
1200.2322125298288
 20
448.12058037370497
  0
POINT
  8
_0-0_
 62
    2
 10
1204.1445632459554
 20
438.18922855584498
  0
POINT
  8
_0-0_
 62
    2
 10
1212.2702147332957
 20
443.60632954740498
  0
POINT
  8
_0-0_
 62
    2
 10
1208.357864017169
 20
450.5281808143983
  0
POINT
  8
_0-0_
 62
    2
 10
1172.5448074618553
 20
433.07307761937159
  0
POINT
  8
_0-0_
 62
    2
 10
1186.3885099958425
 20
427.35502657272491
  0
POINT
  8
_0-0_
 62
    2
 10
1185.1847097754953
 20
441.49967916179827
  0
POINT
  8
_0-0_
 62
    2
 10
1193.3103612628356
 20
443.00442943723164
  0
POINT
  8
_0-0_
 62
    2
 10
1193.9122613730087
 20
448.42153042879164
  0
POINT
  8
_0-0_
 62
    2
 10
1202.6398129705221
 20
424.64647607694491
  0
LINE
  8
_0-0_
  6
CONTINUOUS
 62
    2
 10
1169.3879915479411
 20
453.52487597410004
 11
1214.3879915479411
 21
453.52487597410004
  0
LINE
  8
_0-0_
  6
CONTINUOUS
 62
    2
 10
1176.5229840057373
 20
443.80710152059862
 11
1176.5229840057373
 21
443.80710152059862
  0
LINE
  8
_0-0_
  6
CONTINUOUS
 62
    2
 10
1176.5229840057373
 20
443.80710152059862
 11
1176.7402403786575
 21
443.56931063403295
  0
LINE
  8
_0-0_
  6
CONTINUOUS
 62
    2
 10
1176.7402403786575
 20
443.56931063403295
 11
1176.9748421161594
 21
443.41058467183564
  0
LINE
  8
_0-0_
  6
CONTINUOUS
 62
    2
 10
1176.9748421161594
 20
443.41058467183564
 11
1177.2196609631635
 21
443.33574644204884
  0
LINE
  8
_0-0_
  6
CONTINUOUS
 62
    2
 10
1177.2196609631635
 20
443.33574644204884
 11
1177.4672582228879
 21
443.34706986641464
  0
LINE
  8
_0-0_
  6
CONTINUOUS
 62
    2
 10
1177.4672582228879
 20
443.34706986641464
 11
1177.710110777886
 21
443.44421088841369
  0
LINE
  8
_0-0_
  6
CONTINUOUS
 62
    2
 10
1177.710110777886
 20
443.44421088841369
 11
1177.9408396761635
 21
443.6242179272482
  0
LINE
  8
_0-0_
  6
CONTINUOUS
 62
    2
 10
1177.9408396761635
 20
443.6242179272482
 11
1178.1524343369008
 21
443.88162156013124
  0
LINE
  8
_0-0_
  6
CONTINUOUS
 62
    2
 10
1178.1524343369008
 20
443.88162156013124
 11
1178.3384655634034
 21
444.20860070793003
  0
LINE
  8
_0-0_
  6
CONTINUOUS
 62
    2
 10
1178.3384655634034
 20
444.20860070793003
 11
1178.4932808909903
 21
444.59522027469825
  0
LINE
  8
_0-0_
  6
CONTINUOUS
 62
    2
 10
1178.4932808909903
 20
444.59522027469825
 11
1178.612176334273
 21
445.02973302053857
  0
LINE
  8
_0-0_
  6
CONTINUOUS
 62
    2
 10
1178.612176334273
 20
445.02973302053857
 11
1178.6915393153718
 21
445.49893649554264
  0
LINE
  8
_0-0_
  6
CONTINUOUS
 62
    2
 10
1178.6915393153718
 20
445.49893649554264
 11
1178.728958430265
 21
445.98857418955095
  0
LINE
  8
_0-0_
  6
CONTINUOUS
 62
    2
 10
1178.728958430265
 20
445.98857418955095
 11
1178.7232967180821
 21
446.48376870899961
  0
LINE
  8
_0-0_
  6
CONTINUOUS
 62
    2
 10
1178.7232967180821
 20
446.48376870899961
 11
1178.6747262070826
 21
446.96947381899577
  0
LINE
  8
_0-0_
  6
CONTINUOUS
 62
    2
 10
1178.6747262070826
 20
446.96947381899577
 11
1178.5847226876654
 21
447.43093161555078
  0
LINE
  8
_0-0_
  6
CONTINUOUS
 62
    2
 10
1178.5847226876654
 20
447.43093161555078
 11
1178.4560208712239
 21
447.85412093702524
  0
LINE
  8
_0-0_
  6
CONTINUOUS
 62
    2
 10
1178.4560208712239
 20
447.85412093702524
 11
1178.2925312973246
 21
448.22618339003031
  0
LINE
  8
_0-0_
  6
CONTINUOUS
 62
    2
 10
1178.2925312973246
 20
448.22618339003031
 11
1178.0992215139404
 21
448.53581404520406
  0
LINE
  8
_0-0_
  6
CONTINUOUS
 62
    2
 10
1178.0992215139404
 20
448.53581404520406
 11
1177.8819651410201
 21
448.7736049317698
  0
LINE
  8
_0-0_
  6
CONTINUOUS
 62
    2
 10
1177.8819651410201
 20
448.7736049317698
 11
1177.6473634035183
 21
448.93233089396711
  0
LINE
  8
_0-0_
  6
CONTINUOUS
 62
    2
 10
1177.6473634035183
 20
448.93233089396711
 11
1177.4025445565142
 21
449.0071691237539
  0
LINE
  8
_0-0_
  6
CONTINUOUS
 62
    2
 10
1177.4025445565142
 20
449.0071691237539
 11
1177.1549472967897
 21
448.9958456993881
  0
LINE
  8
_0-0_
  6
CONTINUOUS
 62
    2
 10
1177.1549472967897
 20
448.9958456993881
 11
1176.9120947417916
 21
448.89870467738905
  0
LINE
  8
_0-0_
  6
CONTINUOUS
 62
    2
 10
1176.9120947417916
 20
448.89870467738905
 11
1176.6813658435142
 21
448.71869763855454
  0
LINE
  8
_0-0_
  6
CONTINUOUS
 62
    2
 10
1176.6813658435142
 20
448.71869763855454
 11
1176.4697711827769
 21
448.46129400567156
  0
LINE
  8
_0-0_
  6
CONTINUOUS
 62
    2
 10
1176.4697711827769
 20
448.46129400567156
 11
1176.2837399562743
 21
448.13431485787271
  0
LINE
  8
_0-0_
  6
CONTINUOUS
 62
    2
 10
1176.2837399562743
 20
448.13431485787271
 11
1176.1289246286874
 21
447.74769529110449
  0
LINE
  8
_0-0_
  6
CONTINUOUS
 62
    2
 10
1176.1289246286874
 20
447.74769529110449
 11
1176.0100291854046
 21
447.31318254526417
  0
LINE
  8
_0-0_
  6
CONTINUOUS
 62
    2
 10
1176.0100291854046
 20
447.31318254526417
 11
1175.9306662043059
 21
446.8439790702601
  0
LINE
  8
_0-0_
  6
CONTINUOUS
 62
    2
 10
1175.9306662043059
 20
446.8439790702601
 11
1175.8932470894126
 21
446.3543413762518
  0
LINE
  8
_0-0_
  6
CONTINUOUS
 62
    2
 10
1175.8932470894126
 20
446.3543413762518
 11
1175.8989088015956
 21
445.85914685680314
  0
LINE
  8
_0-0_
  6
CONTINUOUS
 62
    2
 10
1175.8989088015956
 20
445.85914685680314
 11
1175.9474793125951
 21
445.37344174680698
  0
LINE
  8
_0-0_
  6
CONTINUOUS
 62
    2
 10
1175.9474793125951
 20
445.37344174680698
 11
1176.0374828320123
 21
444.91198395025197
  0
LINE
  8
_0-0_
  6
CONTINUOUS
 62
    2
 10
1176.0374828320123
 20
444.91198395025197
 11
1176.1661846484537
 21
444.4887946287775
  0
LINE
  8
_0-0_
  6
CONTINUOUS
 62
    2
 10
1176.1661846484537
 20
444.4887946287775
 11
1176.3296742223531
 21
444.11673217577243
  0
LINE
  8
_0-0_
  6
CONTINUOUS
 62
    2
 10
1176.3296742223531
 20
444.11673217577243
 11
1176.5229840057373
 21
443.80710152059868
  0
LINE
  8
_0-0_
  6
CONTINUOUS
 62
    2
 10
1176.5229840057373
 20
443.80710152059868
 11
1176.5229840057373
 21
443.80710152059868
  0
LINE
  8
_0-0_
  6
CONTINUOUS
 62
    2
 10
1182.8279340385452
 20
433.16749834023631
 11
1182.8279340385452
 21
433.16749834023631
  0
LINE
  8
_0-0_
  6
CONTINUOUS
 62
    2
 10
1182.8279340385452
 20
433.16749834023631
 11
1183.0451904114655
 21
432.92970745367063
  0
LINE
  8
_0-0_
  6
CONTINUOUS
 62
    2
 10
1183.0451904114655
 20
432.92970745367063
 11
1183.2797921489673
 21
432.77098149147332
  0
LINE
  8
_0-0_
  6
CONTINUOUS
 62
    2
 10
1183.2797921489673
 20
432.77098149147332
 11
1183.5246109959714
 21
432.69614326168653
  0
LINE
  8
_0-0_
  6
CONTINUOUS
 62
    2
 10
1183.5246109959714
 20
432.69614326168653
 11
1183.7722082556959
 21
432.70746668605233
  0
LINE
  8
_0-0_
  6
CONTINUOUS
 62
    2
 10
1183.7722082556959
 20
432.70746668605233
 11
1184.015060810694
 21
432.80460770805138
  0
LINE
  8
_0-0_
  6
CONTINUOUS
 62
    2
 10
1184.015060810694
 20
432.80460770805138
 11
1184.2457897089714
 21
432.98461474688588
  0
LINE
  8
_0-0_
  6
CONTINUOUS
 62
    2
 10
1184.2457897089714
 20
432.98461474688588
 11
1184.4573843697087
 21
433.24201837976892
  0
LINE
  8
_0-0_
  6
CONTINUOUS
 62
    2
 10
1184.4573843697087
 20
433.24201837976892
 11
1184.6434155962113
 21
433.56899752756772
  0
LINE
  8
_0-0_
  6
CONTINUOUS
 62
    2
 10
1184.6434155962113
 20
433.56899752756772
 11
1184.7982309237982
 21
433.95561709433593
  0
LINE
  8
_0-0_
  6
CONTINUOUS
 62
    2
 10
1184.7982309237982
 20
433.95561709433593
 11
1184.917126367081
 21
434.39012984017626
  0
LINE
  8
_0-0_
  6
CONTINUOUS
 62
    2
 10
1184.917126367081
 20
434.39012984017626
 11
1184.9964893481797
 21
434.85933331518032
  0
LINE
  8
_0-0_
  6
CONTINUOUS
 62
    2
 10
1184.9964893481797
 20
434.85933331518032
 11
1185.033908463073
 21
435.34897100918863
  0
LINE
  8
_0-0_
  6
CONTINUOUS
 62
    2
 10
1185.033908463073
 20
435.34897100918863
 11
1185.02824675089
 21
435.84416552863729
  0
LINE
  8
_0-0_
  6
CONTINUOUS
 62
    2
 10
1185.02824675089
 20
435.84416552863729
 11
1184.9796762398905
 21
436.32987063863345
  0
LINE
  8
_0-0_
  6
CONTINUOUS
 62
    2
 10
1184.9796762398905
 20
436.32987063863345
 11
1184.8896727204733
 21
436.79132843518846
  0
LINE
  8
_0-0_
  6
CONTINUOUS
 62
    2
 10
1184.8896727204733
 20
436.79132843518846
 11
1184.7609709040319
 21
437.21451775666293
  0
LINE
  8
_0-0_
  6
CONTINUOUS
 62
    2
 10
1184.7609709040319
 20
437.21451775666293
 11
1184.5974813301325
 21
437.586580209668
  0
LINE
  8
_0-0_
  6
CONTINUOUS
 62
    2
 10
1184.5974813301325
 20
437.586580209668
 11
1184.4041715467483
 21
437.89621086484175
  0
LINE
  8
_0-0_
  6
CONTINUOUS
 62
    2
 10
1184.4041715467483
 20
437.89621086484175
 11
1184.1869151738281
 21
438.13400175140748
  0
LINE
  8
_0-0_
  6
CONTINUOUS
 62
    2
 10
1184.1869151738281
 20
438.13400175140748
 11
1183.9523134363262
 21
438.29272771360479
  0
LINE
  8
_0-0_
  6
CONTINUOUS
 62
    2
 10
1183.9523134363262
 20
438.29272771360479
 11
1183.7074945893221
 21
438.36756594339158
  0
LINE
  8
_0-0_
  6
CONTINUOUS
 62
    2
 10
1183.7074945893221
 20
438.36756594339158
 11
1183.4598973295977
 21
438.35624251902578
  0
LINE
  8
_0-0_
  6
CONTINUOUS
 62
    2
 10
1183.4598973295977
 20
438.35624251902578
 11
1183.2170447745996
 21
438.25910149702673
  0
LINE
  8
_0-0_
  6
CONTINUOUS
 62
    2
 10
1183.2170447745996
 20
438.25910149702673
 11
1182.9863158763221
 21
438.07909445819223
  0
LINE
  8
_0-0_
  6
CONTINUOUS
 62
    2
 10
1182.9863158763221
 20
438.07909445819223
 11
1182.7747212155848
 21
437.82169082530925
  0
LINE
  8
_0-0_
  6
CONTINUOUS
 62
    2
 10
1182.7747212155848
 20
437.82169082530925
 11
1182.5886899890822
 21
437.4947116775104
  0
LINE
  8
_0-0_
  6
CONTINUOUS
 62
    2
 10
1182.5886899890822
 20
437.4947116775104
 11
1182.4338746614953
 21
437.10809211074218
  0
LINE
  8
_0-0_
  6
CONTINUOUS
 62
    2
 10
1182.4338746614953
 20
437.10809211074218
 11
1182.3149792182126
 21
436.67357936490185
  0
LINE
  8
_0-0_
  6
CONTINUOUS
 62
    2
 10
1182.3149792182126
 20
436.67357936490185
 11
1182.2356162371138
 21
436.20437588989779
  0
LINE
  8
_0-0_
  6
CONTINUOUS
 62
    2
 10
1182.2356162371138
 20
436.20437588989779
 11
1182.1981971222206
 21
435.71473819588948
  0
LINE
  8
_0-0_
  6
CONTINUOUS
 62
    2
 10
1182.1981971222206
 20
435.71473819588948
 11
1182.2038588344035
 21
435.21954367644082
  0
LINE
  8
_0-0_
  6
CONTINUOUS
 62
    2
 10
1182.2038588344035
 20
435.21954367644082
 11
1182.252429345403
 21
434.73383856644466
  0
LINE
  8
_0-0_
  6
CONTINUOUS
 62
    2
 10
1182.252429345403
 20
434.73383856644466
 11
1182.3424328648202
 21
434.27238076988965
  0
LINE
  8
_0-0_
  6
CONTINUOUS
 62
    2
 10
1182.3424328648202
 20
434.27238076988965
 11
1182.4711346812617
 21
433.84919144841518
  0
LINE
  8
_0-0_
  6
CONTINUOUS
 62
    2
 10
1182.4711346812617
 20
433.84919144841518
 11
1182.634624255161
 21
433.47712899541011
  0
LINE
  8
_0-0_
  6
CONTINUOUS
 62
    2
 10
1182.634624255161
 20
433.47712899541011
 11
1182.8279340385452
 21
433.16749834023636
  0
LINE
  8
_0-0_
  6
CONTINUOUS
 62
    2
 10
1182.8279340385452
 20
433.16749834023636
 11
1182.8279340385452
 21
433.16749834023636
  0
LINE
  8
_0-0_
  6
CONTINUOUS
 62
    2
 10
1174.1586277434353
 20
424.89225142217674
 11
1174.1586277434353
 21
424.89225142217674
  0
LINE
  8
_0-0_
  6
CONTINUOUS
 62
    2
 10
1174.1586277434353
 20
424.89225142217674
 11
1174.3758841163556
 21
424.65446053561107
  0
LINE
  8
_0-0_
  6
CONTINUOUS
 62
    2
 10
1174.3758841163556
 20
424.65446053561107
 11
1174.6104858538574
 21
424.49573457341376
  0
LINE
  8
_0-0_
  6
CONTINUOUS
 62
    2
 10
1174.6104858538574
 20
424.49573457341376
 11
1174.8553047008616
 21
424.42089634362696
  0
LINE
  8
_0-0_
  6
CONTINUOUS
 62
    2
 10
1174.8553047008616
 20
424.42089634362696
 11
1175.102901960586
 21
424.43221976799276
  0
LINE
  8
_0-0_
  6
CONTINUOUS
 62
    2
 10
1175.102901960586
 20
424.43221976799276
 11
1175.3457545155841
 21
424.52936078999181
  0
LINE
  8
_0-0_
  6
CONTINUOUS
 62
    2
 10
1175.3457545155841
 20
424.52936078999181
 11
1175.5764834138615
 21
424.70936782882632
  0
LINE
  8
_0-0_
  6
CONTINUOUS
 62
    2
 10
1175.5764834138615
 20
424.70936782882632
 11
1175.7880780745988
 21
424.96677146170936
  0
LINE
  8
_0-0_
  6
CONTINUOUS
 62
    2
 10
1175.7880780745988
 20
424.96677146170936
 11
1175.9741093011014
 21
425.29375060950815
  0
LINE
  8
_0-0_
  6
CONTINUOUS
 62
    2
 10
1175.9741093011014
 20
425.29375060950815
 11
1176.1289246286883
 21
425.68037017627637
  0
LINE
  8
_0-0_
  6
CONTINUOUS
 62
    2
 10
1176.1289246286883
 20
425.68037017627637
 11
1176.2478200719711
 21
426.11488292211669
  0
LINE
  8
_0-0_
  6
CONTINUOUS
 62
    2
 10
1176.2478200719711
 20
426.11488292211669
 11
1176.3271830530698
 21
426.58408639712076
  0
LINE
  8
_0-0_
  6
CONTINUOUS
 62
    2
 10
1176.3271830530698
 20
426.58408639712076
 11
1176.3646021679631
 21
427.07372409112907
  0
LINE
  8
_0-0_
  6
CONTINUOUS
 62
    2
 10
1176.3646021679631
 20
427.07372409112907
 11
1176.3589404557802
 21
427.56891861057773
  0
LINE
  8
_0-0_
  6
CONTINUOUS
 62
    2
 10
1176.3589404557802
 20
427.56891861057773
 11
1176.3103699447806
 21
428.05462372057389
  0
LINE
  8
_0-0_
  6
CONTINUOUS
 62
    2
 10
1176.3103699447806
 20
428.05462372057389
 11
1176.2203664253634
 21
428.5160815171289
  0
LINE
  8
_0-0_
  6
CONTINUOUS
 62
    2
 10
1176.2203664253634
 20
428.5160815171289
 11
1176.091664608922
 21
428.93927083860336
  0
LINE
  8
_0-0_
  6
CONTINUOUS
 62
    2
 10
1176.091664608922
 20
428.93927083860336
 11
1175.9281750350226
 21
429.31133329160843
  0
LINE
  8
_0-0_
  6
CONTINUOUS
 62
    2
 10
1175.9281750350226
 20
429.31133329160843
 11
1175.7348652516384
 21
429.62096394678218
  0
LINE
  8
_0-0_
  6
CONTINUOUS
 62
    2
 10
1175.7348652516384
 20
429.62096394678218
 11
1175.5176088787182
 21
429.85875483334792
  0
LINE
  8
_0-0_
  6
CONTINUOUS
 62
    2
 10
1175.5176088787182
 20
429.85875483334792
 11
1175.2830071412163
 21
430.01748079554523
  0
LINE
  8
_0-0_
  6
CONTINUOUS
 62
    2
 10
1175.2830071412163
 20
430.01748079554523
 11
1175.0381882942122
 21
430.09231902533202
  0
LINE
  8
_0-0_
  6
CONTINUOUS
 62
    2
 10
1175.0381882942122
 20
430.09231902533202
 11
1174.7905910344878
 21
430.08099560096622
  0
LINE
  8
_0-0_
  6
CONTINUOUS
 62
    2
 10
1174.7905910344878
 20
430.08099560096622
 11
1174.5477384794897
 21
429.98385457896717
  0
LINE
  8
_0-0_
  6
CONTINUOUS
 62
    2
 10
1174.5477384794897
 20
429.98385457896717
 11
1174.3170095812122
 21
429.80384754013267
  0
LINE
  8
_0-0_
  6
CONTINUOUS
 62
    2
 10
1174.3170095812122
 20
429.80384754013267
 11
1174.1054149204749
 21
429.54644390724968
  0
LINE
  8
_0-0_
  6
CONTINUOUS
 62
    2
 10
1174.1054149204749
 20
429.54644390724968
 11
1173.9193836939723
 21
429.21946475945083
  0
LINE
  8
_0-0_
  6
CONTINUOUS
 62
    2
 10
1173.9193836939723
 20
429.21946475945083
 11
1173.7645683663854
 21
428.83284519268261
  0
LINE
  8
_0-0_
  6
CONTINUOUS
 62
    2
 10
1173.7645683663854
 20
428.83284519268261
 11
1173.6456729231027
 21
428.39833244684229
  0
LINE
  8
_0-0_
  6
CONTINUOUS
 62
    2
 10
1173.6456729231027
 20
428.39833244684229
 11
1173.566309942004
 21
427.92912897183822
  0
LINE
  8
_0-0_
  6
CONTINUOUS
 62
    2
 10
1173.566309942004
 20
427.92912897183822
 11
1173.5288908271107
 21
427.43949127782992
  0
LINE
  8
_0-0_
  6
CONTINUOUS
 62
    2
 10
1173.5288908271107
 20
427.43949127782992
 11
1173.5345525392936
 21
426.94429675838126
  0
LINE
  8
_0-0_
  6
CONTINUOUS
 62
    2
 10
1173.5345525392936
 20
426.94429675838126
 11
1173.5831230502931
 21
426.4585916483851
  0
LINE
  8
_0-0_
  6
CONTINUOUS
 62
    2
 10
1173.5831230502931
 20
426.4585916483851
 11
1173.6731265697103
 21
425.99713385183009
  0
LINE
  8
_0-0_
  6
CONTINUOUS
 62
    2
 10
1173.6731265697103
 20
425.99713385183009
 11
1173.8018283861518
 21
425.57394453035562
  0
LINE
  8
_0-0_
  6
CONTINUOUS
 62
    2
 10
1173.8018283861518
 20
425.57394453035562
 11
1173.9653179600512
 21
425.20188207735055
  0
LINE
  8
_0-0_
  6
CONTINUOUS
 62
    2
 10
1173.9653179600512
 20
425.20188207735055
 11
1174.1586277434353
 21
424.8922514221768
  0
LINE
  8
_0-0_
  6
CONTINUOUS
 62
    2
 10
1174.1586277434353
 20
424.8922514221768
 11
1174.1586277434353
 21
424.8922514221768
  0
LINE
  8
_0-0_
  6
CONTINUOUS
 62
    2
 10
1182.8279340385452
 20
418.58730138936949
 11
1182.8279340385452
 21
418.58730138936949
  0
LINE
  8
_0-0_
  6
CONTINUOUS
 62
    2
 10
1182.8279340385452
 20
418.58730138936949
 11
1183.0451904114655
 21
418.34951050280375
  0
LINE
  8
_0-0_
  6
CONTINUOUS
 62
    2
 10
1183.0451904114655
 20
418.34951050280375
 11
1183.2797921489673
 21
418.19078454060644
  0
LINE
  8
_0-0_
  6
CONTINUOUS
 62
    2
 10
1183.2797921489673
 20
418.19078454060644
 11
1183.5246109959714
 21
418.11594631081965
  0
LINE
  8
_0-0_
  6
CONTINUOUS
 62
    2
 10
1183.5246109959714
 20
418.11594631081965
 11
1183.7722082556959
 21
418.12726973518545
  0
LINE
  8
_0-0_
  6
CONTINUOUS
 62
    2
 10
1183.7722082556959
 20
418.12726973518545
 11
1184.015060810694
 21
418.2244107571845
  0
LINE
  8
_0-0_
  6
CONTINUOUS
 62
    2
 10
1184.015060810694
 20
418.2244107571845
 11
1184.2457897089714
 21
418.404417796019
  0
LINE
  8
_0-0_
  6
CONTINUOUS
 62
    2
 10
1184.2457897089714
 20
418.404417796019
 11
1184.4573843697087
 21
418.66182142890204
  0
LINE
  8
_0-0_
  6
CONTINUOUS
 62
    2
 10
1184.4573843697087
 20
418.66182142890204
 11
1184.6434155962113
 21
418.98880057670084
  0
LINE
  8
_0-0_
  6
CONTINUOUS
 62
    2
 10
1184.6434155962113
 20
418.98880057670084
 11
1184.7982309237982
 21
419.37542014346906
  0
LINE
  8
_0-0_
  6
CONTINUOUS
 62
    2
 10
1184.7982309237982
 20
419.37542014346906
 11
1184.917126367081
 21
419.80993288930938
  0
LINE
  8
_0-0_
  6
CONTINUOUS
 62
    2
 10
1184.917126367081
 20
419.80993288930938
 11
1184.9964893481797
 21
420.27913636431344
  0
LINE
  8
_0-0_
  6
CONTINUOUS
 62
    2
 10
1184.9964893481797
 20
420.27913636431344
 11
1185.033908463073
 21
420.76877405832175
  0
LINE
  8
_0-0_
  6
CONTINUOUS
 62
    2
 10
1185.033908463073
 20
420.76877405832175
 11
1185.02824675089
 21
421.26396857777041
  0
LINE
  8
_0-0_
  6
CONTINUOUS
 62
    2
 10
1185.02824675089
 20
421.26396857777041
 11
1184.9796762398905
 21
421.74967368776657
  0
LINE
  8
_0-0_
  6
CONTINUOUS
 62
    2
 10
1184.9796762398905
 20
421.74967368776657
 11
1184.8896727204733
 21
422.21113148432158
  0
LINE
  8
_0-0_
  6
CONTINUOUS
 62
    2
 10
1184.8896727204733
 20
422.21113148432158
 11
1184.7609709040319
 21
422.63432080579605
  0
LINE
  8
_0-0_
  6
CONTINUOUS
 62
    2
 10
1184.7609709040319
 20
422.63432080579605
 11
1184.5974813301325
 21
423.00638325880112
  0
LINE
  8
_0-0_
  6
CONTINUOUS
 62
    2
 10
1184.5974813301325
 20
423.00638325880112
 11
1184.4041715467483
 21
423.31601391397487
  0
LINE
  8
_0-0_
  6
CONTINUOUS
 62
    2
 10
1184.4041715467483
 20
423.31601391397487
 11
1184.1869151738281
 21
423.5538048005406
  0
LINE
  8
_0-0_
  6
CONTINUOUS
 62
    2
 10
1184.1869151738281
 20
423.5538048005406
 11
1183.9523134363262
 21
423.71253076273791
  0
LINE
  8
_0-0_
  6
CONTINUOUS
 62
    2
 10
1183.9523134363262
 20
423.71253076273791
 11
1183.7074945893221
 21
423.7873689925247
  0
LINE
  8
_0-0_
  6
CONTINUOUS
 62
    2
 10
1183.7074945893221
 20
423.7873689925247
 11
1183.4598973295977
 21
423.77604556815891
  0
LINE
  8
_0-0_
  6
CONTINUOUS
 62
    2
 10
1183.4598973295977
 20
423.77604556815891
 11
1183.2170447745996
 21
423.67890454615986
  0
LINE
  8
_0-0_
  6
CONTINUOUS
 62
    2
 10
1183.2170447745996
 20
423.67890454615986
 11
1182.9863158763221
 21
423.49889750732535
  0
LINE
  8
_0-0_
  6
CONTINUOUS
 62
    2
 10
1182.9863158763221
 20
423.49889750732535
 11
1182.7747212155848
 21
423.24149387444237
  0
LINE
  8
_0-0_
  6
CONTINUOUS
 62
    2
 10
1182.7747212155848
 20
423.24149387444237
 11
1182.5886899890822
 21
422.91451472664352
  0
LINE
  8
_0-0_
  6
CONTINUOUS
 62
    2
 10
1182.5886899890822
 20
422.91451472664352
 11
1182.4338746614953
 21
422.5278951598753
  0
LINE
  8
_0-0_
  6
CONTINUOUS
 62
    2
 10
1182.4338746614953
 20
422.5278951598753
 11
1182.3149792182126
 21
422.09338241403498
  0
LINE
  8
_0-0_
  6
CONTINUOUS
 62
    2
 10
1182.3149792182126
 20
422.09338241403498
 11
1182.2356162371138
 21
421.62417893903091
  0
LINE
  8
_0-0_
  6
CONTINUOUS
 62
    2
 10
1182.2356162371138
 20
421.62417893903091
 11
1182.1981971222206
 21
421.1345412450226
  0
LINE
  8
_0-0_
  6
CONTINUOUS
 62
    2
 10
1182.1981971222206
 20
421.1345412450226
 11
1182.2038588344035
 21
420.63934672557394
  0
LINE
  8
_0-0_
  6
CONTINUOUS
 62
    2
 10
1182.2038588344035
 20
420.63934672557394
 11
1182.252429345403
 21
420.15364161557778
  0
LINE
  8
_0-0_
  6
CONTINUOUS
 62
    2
 10
1182.252429345403
 20
420.15364161557778
 11
1182.3424328648202
 21
419.69218381902277
  0
LINE
  8
_0-0_
  6
CONTINUOUS
 62
    2
 10
1182.3424328648202
 20
419.69218381902277
 11
1182.4711346812617
 21
419.26899449754831
  0
LINE
  8
_0-0_
  6
CONTINUOUS
 62
    2
 10
1182.4711346812617
 20
419.26899449754831
 11
1182.634624255161
 21
418.89693204454323
  0
LINE
  8
_0-0_
  6
CONTINUOUS
 62
    2
 10
1182.634624255161
 20
418.89693204454323
 11
1182.8279340385452
 21
418.58730138936949
  0
LINE
  8
_0-0_
  6
CONTINUOUS
 62
    2
 10
1182.8279340385452
 20
418.58730138936949
 11
1182.8279340385452
 21
418.58730138936949
  0
LINE
  8
_0-0_
  6
CONTINUOUS
 62
    2
 10
1174.1586277434353
 20
409.12987634015849
 11
1174.1586277434353
 21
409.12987634015849
  0
LINE
  8
_0-0_
  6
CONTINUOUS
 62
    2
 10
1174.1586277434353
 20
409.12987634015849
 11
1174.3758841163556
 21
408.89208545359281
  0
LINE
  8
_0-0_
  6
CONTINUOUS
 62
    2
 10
1174.3758841163556
 20
408.89208545359281
 11
1174.6104858538574
 21
408.7333594913955
  0
LINE
  8
_0-0_
  6
CONTINUOUS
 62
    2
 10
1174.6104858538574
 20
408.7333594913955
 11
1174.8553047008616
 21
408.65852126160871
  0
LINE
  8
_0-0_
  6
CONTINUOUS
 62
    2
 10
1174.8553047008616
 20
408.65852126160871
 11
1175.102901960586
 21
408.66984468597451
  0
LINE
  8
_0-0_
  6
CONTINUOUS
 62
    2
 10
1175.102901960586
 20
408.66984468597451
 11
1175.3457545155841
 21
408.76698570797356
  0
LINE
  8
_0-0_
  6
CONTINUOUS
 62
    2
 10
1175.3457545155841
 20
408.76698570797356
 11
1175.5764834138615
 21
408.94699274680806
  0
LINE
  8
_0-0_
  6
CONTINUOUS
 62
    2
 10
1175.5764834138615
 20
408.94699274680806
 11
1175.7880780745988
 21
409.2043963796911
  0
LINE
  8
_0-0_
  6
CONTINUOUS
 62
    2
 10
1175.7880780745988
 20
409.2043963796911
 11
1175.9741093011014
 21
409.5313755274899
  0
LINE
  8
_0-0_
  6
CONTINUOUS
 62
    2
 10
1175.9741093011014
 20
409.5313755274899
 11
1176.1289246286883
 21
409.91799509425812
  0
LINE
  8
_0-0_
  6
CONTINUOUS
 62
    2
 10
1176.1289246286883
 20
409.91799509425812
 11
1176.2478200719711
 21
410.35250784009844
  0
LINE
  8
_0-0_
  6
CONTINUOUS
 62
    2
 10
1176.2478200719711
 20
410.35250784009844
 11
1176.3271830530698
 21
410.8217113151025
  0
LINE
  8
_0-0_
  6
CONTINUOUS
 62
    2
 10
1176.3271830530698
 20
410.8217113151025
 11
1176.3646021679631
 21
411.31134900911081
  0
LINE
  8
_0-0_
  6
CONTINUOUS
 62
    2
 10
1176.3646021679631
 20
411.31134900911081
 11
1176.3589404557802
 21
411.80654352855947
  0
LINE
  8
_0-0_
  6
CONTINUOUS
 62
    2
 10
1176.3589404557802
 20
411.80654352855947
 11
1176.3103699447806
 21
412.29224863855563
  0
LINE
  8
_0-0_
  6
CONTINUOUS
 62
    2
 10
1176.3103699447806
 20
412.29224863855563
 11
1176.2203664253634
 21
412.75370643511064
  0
LINE
  8
_0-0_
  6
CONTINUOUS
 62
    2
 10
1176.2203664253634
 20
412.75370643511064
 11
1176.091664608922
 21
413.17689575658511
  0
LINE
  8
_0-0_
  6
CONTINUOUS
 62
    2
 10
1176.091664608922
 20
413.17689575658511
 11
1175.9281750350226
 21
413.54895820959018
  0
LINE
  8
_0-0_
  6
CONTINUOUS
 62
    2
 10
1175.9281750350226
 20
413.54895820959018
 11
1175.7348652516384
 21
413.85858886476393
  0
LINE
  8
_0-0_
  6
CONTINUOUS
 62
    2
 10
1175.7348652516384
 20
413.85858886476393
 11
1175.5176088787182
 21
414.09637975132966
  0
LINE
  8
_0-0_
  6
CONTINUOUS
 62
    2
 10
1175.5176088787182
 20
414.09637975132966
 11
1175.2830071412163
 21
414.25510571352697
  0
LINE
  8
_0-0_
  6
CONTINUOUS
 62
    2
 10
1175.2830071412163
 20
414.25510571352697
 11
1175.0381882942122
 21
414.32994394331376
  0
LINE
  8
_0-0_
  6
CONTINUOUS
 62
    2
 10
1175.0381882942122
 20
414.32994394331376
 11
1174.7905910344878
 21
414.31862051894797
  0
LINE
  8
_0-0_
  6
CONTINUOUS
 62
    2
 10
1174.7905910344878
 20
414.31862051894797
 11
1174.5477384794897
 21
414.22147949694892
  0
LINE
  8
_0-0_
  6
CONTINUOUS
 62
    2
 10
1174.5477384794897
 20
414.22147949694892
 11
1174.3170095812122
 21
414.04147245811441
  0
LINE
  8
_0-0_
  6
CONTINUOUS
 62
    2
 10
1174.3170095812122
 20
414.04147245811441
 11
1174.1054149204749
 21
413.78406882523143
  0
LINE
  8
_0-0_
  6
CONTINUOUS
 62
    2
 10
1174.1054149204749
 20
413.78406882523143
 11
1173.9193836939723
 21
413.45708967743258
  0
LINE
  8
_0-0_
  6
CONTINUOUS
 62
    2
 10
1173.9193836939723
 20
413.45708967743258
 11
1173.7645683663854
 21
413.07047011066436
  0
LINE
  8
_0-0_
  6
CONTINUOUS
 62
    2
 10
1173.7645683663854
 20
413.07047011066436
 11
1173.6456729231027
 21
412.63595736482404
  0
LINE
  8
_0-0_
  6
CONTINUOUS
 62
    2
 10
1173.6456729231027
 20
412.63595736482404
 11
1173.566309942004
 21
412.16675388981997
  0
LINE
  8
_0-0_
  6
CONTINUOUS
 62
    2
 10
1173.566309942004
 20
412.16675388981997
 11
1173.5288908271107
 21
411.67711619581166
  0
LINE
  8
_0-0_
  6
CONTINUOUS
 62
    2
 10
1173.5288908271107
 20
411.67711619581166
 11
1173.5345525392936
 21
411.181921676363
  0
LINE
  8
_0-0_
  6
CONTINUOUS
 62
    2
 10
1173.5345525392936
 20
411.181921676363
 11
1173.5831230502931
 21
410.69621656636684
  0
LINE
  8
_0-0_
  6
CONTINUOUS
 62
    2
 10
1173.5831230502931
 20
410.69621656636684
 11
1173.6731265697103
 21
410.23475876981183
  0
LINE
  8
_0-0_
  6
CONTINUOUS
 62
    2
 10
1173.6731265697103
 20
410.23475876981183
 11
1173.8018283861518
 21
409.81156944833737
  0
LINE
  8
_0-0_
  6
CONTINUOUS
 62
    2
 10
1173.8018283861518
 20
409.81156944833737
 11
1173.9653179600512
 21
409.43950699533229
  0
LINE
  8
_0-0_
  6
CONTINUOUS
 62
    2
 10
1173.9653179600512
 20
409.43950699533229
 11
1174.1586277434353
 21
409.12987634015855
  0
LINE
  8
_0-0_
  6
CONTINUOUS
 62
    2
 10
1174.1586277434353
 20
409.12987634015855
 11
1174.1586277434353
 21
409.12987634015855
  0
LINE
  8
_0-0_
  6
CONTINUOUS
 62
    2
 10
1193.0734778418564
 20
425.28631079922718
 11
1193.0734778418564
 21
425.28631079922718
  0
LINE
  8
_0-0_
  6
CONTINUOUS
 62
    2
 10
1193.0734778418564
 20
425.28631079922718
 11
1193.2907342147766
 21
425.0485199126615
  0
LINE
  8
_0-0_
  6
CONTINUOUS
 62
    2
 10
1193.2907342147766
 20
425.0485199126615
 11
1193.5253359522785
 21
424.8897939504642
  0
LINE
  8
_0-0_
  6
CONTINUOUS
 62
    2
 10
1193.5253359522785
 20
424.8897939504642
 11
1193.7701547992826
 21
424.8149557206774
  0
LINE
  8
_0-0_
  6
CONTINUOUS
 62
    2
 10
1193.7701547992826
 20
424.8149557206774
 11
1194.0177520590071
 21
424.8262791450432
  0
LINE
  8
_0-0_
  6
CONTINUOUS
 62
    2
 10
1194.0177520590071
 20
424.8262791450432
 11
1194.2606046140052
 21
424.92342016704225
  0
LINE
  8
_0-0_
  6
CONTINUOUS
 62
    2
 10
1194.2606046140052
 20
424.92342016704225
 11
1194.4913335122826
 21
425.10342720587676
  0
LINE
  8
_0-0_
  6
CONTINUOUS
 62
    2
 10
1194.4913335122826
 20
425.10342720587676
 11
1194.7029281730199
 21
425.3608308387598
  0
LINE
  8
_0-0_
  6
CONTINUOUS
 62
    2
 10
1194.7029281730199
 20
425.3608308387598
 11
1194.8889593995225
 21
425.68780998655859
  0
LINE
  8
_0-0_
  6
CONTINUOUS
 62
    2
 10
1194.8889593995225
 20
425.68780998655859
 11
1195.0437747271094
 21
426.07442955332681
  0
LINE
  8
_0-0_
  6
CONTINUOUS
 62
    2
 10
1195.0437747271094
 20
426.07442955332681
 11
1195.1626701703922
 21
426.50894229916713
  0
LINE
  8
_0-0_
  6
CONTINUOUS
 62
    2
 10
1195.1626701703922
 20
426.50894229916713
 11
1195.2420331514909
 21
426.9781457741712
  0
LINE
  8
_0-0_
  6
CONTINUOUS
 62
    2
 10
1195.2420331514909
 20
426.9781457741712
 11
1195.2794522663842
 21
427.4677834681795
  0
LINE
  8
_0-0_
  6
CONTINUOUS
 62
    2
 10
1195.2794522663842
 20
427.4677834681795
 11
1195.2737905542012
 21
427.96297798762816
  0
LINE
  8
_0-0_
  6
CONTINUOUS
 62
    2
 10
1195.2737905542012
 20
427.96297798762816
 11
1195.2252200432017
 21
428.44868309762433
  0
LINE
  8
_0-0_
  6
CONTINUOUS
 62
    2
 10
1195.2252200432017
 20
428.44868309762433
 11
1195.1352165237845
 21
428.91014089417934
  0
LINE
  8
_0-0_
  6
CONTINUOUS
 62
    2
 10
1195.1352165237845
 20
428.91014089417934
 11
1195.0065147073431
 21
429.3333302156538
  0
LINE
  8
_0-0_
  6
CONTINUOUS
 62
    2
 10
1195.0065147073431
 20
429.3333302156538
 11
1194.8430251334437
 21
429.70539266865887
  0
LINE
  8
_0-0_
  6
CONTINUOUS
 62
    2
 10
1194.8430251334437
 20
429.70539266865887
 11
1194.6497153500595
 21
430.01502332383262
  0
LINE
  8
_0-0_
  6
CONTINUOUS
 62
    2
 10
1194.6497153500595
 20
430.01502332383262
 11
1194.4324589771393
 21
430.25281421039836
  0
LINE
  8
_0-0_
  6
CONTINUOUS
 62
    2
 10
1194.4324589771393
 20
430.25281421039836
 11
1194.1978572396374
 21
430.41154017259566
  0
LINE
  8
_0-0_
  6
CONTINUOUS
 62
    2
 10
1194.1978572396374
 20
430.41154017259566
 11
1193.9530383926333
 21
430.48637840238246
  0
LINE
  8
_0-0_
  6
CONTINUOUS
 62
    2
 10
1193.9530383926333
 20
430.48637840238246
 11
1193.7054411329088
 21
430.47505497801666
  0
LINE
  8
_0-0_
  6
CONTINUOUS
 62
    2
 10
1193.7054411329088
 20
430.47505497801666
 11
1193.4625885779108
 21
430.37791395601761
  0
LINE
  8
_0-0_
  6
CONTINUOUS
 62
    2
 10
1193.4625885779108
 20
430.37791395601761
 11
1193.2318596796333
 21
430.1979069171831
  0
LINE
  8
_0-0_
  6
CONTINUOUS
 62
    2
 10
1193.2318596796333
 20
430.1979069171831
 11
1193.020265018896
 21
429.94050328430012
  0
LINE
  8
_0-0_
  6
CONTINUOUS
 62
    2
 10
1193.020265018896
 20
429.94050328430012
 11
1192.8342337923934
 21
429.61352413650127
  0
LINE
  8
_0-0_
  6
CONTINUOUS
 62
    2
 10
1192.8342337923934
 20
429.61352413650127
 11
1192.6794184648065
 21
429.22690456973305
  0
LINE
  8
_0-0_
  6
CONTINUOUS
 62
    2
 10
1192.6794184648065
 20
429.22690456973305
 11
1192.5605230215237
 21
428.79239182389273
  0
LINE
  8
_0-0_
  6
CONTINUOUS
 62
    2
 10
1192.5605230215237
 20
428.79239182389273
 11
1192.481160040425
 21
428.32318834888866
  0
LINE
  8
_0-0_
  6
CONTINUOUS
 62
    2
 10
1192.481160040425
 20
428.32318834888866
 11
1192.4437409255318
 21
427.83355065488036
  0
LINE
  8
_0-0_
  6
CONTINUOUS
 62
    2
 10
1192.4437409255318
 20
427.83355065488036
 11
1192.4494026377147
 21
427.3383561354317
  0
LINE
  8
_0-0_
  6
CONTINUOUS
 62
    2
 10
1192.4494026377147
 20
427.3383561354317
 11
1192.4979731487142
 21
426.85265102543553
  0
LINE
  8
_0-0_
  6
CONTINUOUS
 62
    2
 10
1192.4979731487142
 20
426.85265102543553
 11
1192.5879766681314
 21
426.39119322888052
  0
LINE
  8
_0-0_
  6
CONTINUOUS
 62
    2
 10
1192.5879766681314
 20
426.39119322888052
 11
1192.7166784845729
 21
425.96800390740606
  0
LINE
  8
_0-0_
  6
CONTINUOUS
 62
    2
 10
1192.7166784845729
 20
425.96800390740606
 11
1192.8801680584722
 21
425.59594145440099
  0
LINE
  8
_0-0_
  6
CONTINUOUS
 62
    2
 10
1192.8801680584722
 20
425.59594145440099
 11
1193.0734778418564
 21
425.28631079922724
  0
LINE
  8
_0-0_
  6
CONTINUOUS
 62
    2
 10
1193.0734778418564
 20
425.28631079922724
 11
1193.0734778418564
 21
425.28631079922724
  0
LINE
  8
_0-0_
  6
CONTINUOUS
 62
    2
 10
1195.0437747271089
 20
443.01898276649774
 11
1195.0437747271089
 21
443.01898276649774
  0
LINE
  8
_0-0_
  6
CONTINUOUS
 62
    2
 10
1195.0437747271089
 20
443.01898276649774
 11
1195.2610311000292
 21
442.78119187993201
  0
LINE
  8
_0-0_
  6
CONTINUOUS
 62
    2
 10
1195.2610311000292
 20
442.78119187993201
 11
1195.495632837531
 21
442.6224659177347
  0
LINE
  8
_0-0_
  6
CONTINUOUS
 62
    2
 10
1195.495632837531
 20
442.6224659177347
 11
1195.7404516845352
 21
442.54762768794791
  0
LINE
  8
_0-0_
  6
CONTINUOUS
 62
    2
 10
1195.7404516845352
 20
442.54762768794791
 11
1195.9880489442596
 21
442.55895111231371
  0
LINE
  8
_0-0_
  6
CONTINUOUS
 62
    2
 10
1195.9880489442596
 20
442.55895111231371
 11
1196.2309014992577
 21
442.65609213431276
  0
LINE
  8
_0-0_
  6
CONTINUOUS
 62
    2
 10
1196.2309014992577
 20
442.65609213431276
 11
1196.4616303975351
 21
442.83609917314726
  0
LINE
  8
_0-0_
  6
CONTINUOUS
 62
    2
 10
1196.4616303975351
 20
442.83609917314726
 11
1196.6732250582725
 21
443.0935028060303
  0
LINE
  8
_0-0_
  6
CONTINUOUS
 62
    2
 10
1196.6732250582725
 20
443.0935028060303
 11
1196.859256284775
 21
443.4204819538291
  0
LINE
  8
_0-0_
  6
CONTINUOUS
 62
    2
 10
1196.859256284775
 20
443.4204819538291
 11
1197.0140716123619
 21
443.80710152059731
  0
LINE
  8
_0-0_
  6
CONTINUOUS
 62
    2
 10
1197.0140716123619
 20
443.80710152059731
 11
1197.1329670556447
 21
444.24161426643764
  0
LINE
  8
_0-0_
  6
CONTINUOUS
 62
    2
 10
1197.1329670556447
 20
444.24161426643764
 11
1197.2123300367434
 21
444.7108177414417
  0
LINE
  8
_0-0_
  6
CONTINUOUS
 62
    2
 10
1197.2123300367434
 20
444.7108177414417
 11
1197.2497491516367
 21
445.20045543545001
  0
LINE
  8
_0-0_
  6
CONTINUOUS
 62
    2
 10
1197.2497491516367
 20
445.20045543545001
 11
1197.2440874394538
 21
445.69564995489867
  0
LINE
  8
_0-0_
  6
CONTINUOUS
 62
    2
 10
1197.2440874394538
 20
445.69564995489867
 11
1197.1955169284543
 21
446.18135506489483
  0
LINE
  8
_0-0_
  6
CONTINUOUS
 62
    2
 10
1197.1955169284543
 20
446.18135506489483
 11
1197.105513409037
 21
446.64281286144984
  0
LINE
  8
_0-0_
  6
CONTINUOUS
 62
    2
 10
1197.105513409037
 20
446.64281286144984
 11
1196.9768115925956
 21
447.06600218292431
  0
LINE
  8
_0-0_
  6
CONTINUOUS
 62
    2
 10
1196.9768115925956
 20
447.06600218292431
 11
1196.8133220186962
 21
447.43806463592938
  0
LINE
  8
_0-0_
  6
CONTINUOUS
 62
    2
 10
1196.8133220186962
 20
447.43806463592938
 11
1196.6200122353121
 21
447.74769529110313
  0
LINE
  8
_0-0_
  6
CONTINUOUS
 62
    2
 10
1196.6200122353121
 20
447.74769529110313
 11
1196.4027558623918
 21
447.98548617766886
  0
LINE
  8
_0-0_
  6
CONTINUOUS
 62
    2
 10
1196.4027558623918
 20
447.98548617766886
 11
1196.16815412489
 21
448.14421213986617
  0
LINE
  8
_0-0_
  6
CONTINUOUS
 62
    2
 10
1196.16815412489
 20
448.14421213986617
 11
1195.9233352778858
 21
448.21905036965296
  0
LINE
  8
_0-0_
  6
CONTINUOUS
 62
    2
 10
1195.9233352778858
 20
448.21905036965296
 11
1195.6757380181614
 21
448.20772694528716
  0
LINE
  8
_0-0_
  6
CONTINUOUS
 62
    2
 10
1195.6757380181614
 20
448.20772694528716
 11
1195.4328854631633
 21
448.11058592328811
  0
LINE
  8
_0-0_
  6
CONTINUOUS
 62
    2
 10
1195.4328854631633
 20
448.11058592328811
 11
1195.2021565648859
 21
447.93057888445361
  0
LINE
  8
_0-0_
  6
CONTINUOUS
 62
    2
 10
1195.2021565648859
 20
447.93057888445361
 11
1194.9905619041485
 21
447.67317525157063
  0
LINE
  8
_0-0_
  6
CONTINUOUS
 62
    2
 10
1194.9905619041485
 20
447.67317525157063
 11
1194.804530677646
 21
447.34619610377177
  0
LINE
  8
_0-0_
  6
CONTINUOUS
 62
    2
 10
1194.804530677646
 20
447.34619610377177
 11
1194.6497153500591
 21
446.95957653700356
  0
LINE
  8
_0-0_
  6
CONTINUOUS
 62
    2
 10
1194.6497153500591
 20
446.95957653700356
 11
1194.5308199067763
 21
446.52506379116323
  0
LINE
  8
_0-0_
  6
CONTINUOUS
 62
    2
 10
1194.5308199067763
 20
446.52506379116323
 11
1194.4514569256776
 21
446.05586031615917
  0
LINE
  8
_0-0_
  6
CONTINUOUS
 62
    2
 10
1194.4514569256776
 20
446.05586031615917
 11
1194.4140378107843
 21
445.56622262215086
  0
LINE
  8
_0-0_
  6
CONTINUOUS
 62
    2
 10
1194.4140378107843
 20
445.56622262215086
 11
1194.4196995229672
 21
445.0710281027022
  0
LINE
  8
_0-0_
  6
CONTINUOUS
 62
    2
 10
1194.4196995229672
 20
445.0710281027022
 11
1194.4682700339667
 21
444.58532299270604
  0
LINE
  8
_0-0_
  6
CONTINUOUS
 62
    2
 10
1194.4682700339667
 20
444.58532299270604
 11
1194.558273553384
 21
444.12386519615103
  0
LINE
  8
_0-0_
  6
CONTINUOUS
 62
    2
 10
1194.558273553384
 20
444.12386519615103
 11
1194.6869753698254
 21
443.70067587467656
  0
LINE
  8
_0-0_
  6
CONTINUOUS
 62
    2
 10
1194.6869753698254
 20
443.70067587467656
 11
1194.8504649437248
 21
443.32861342167149
  0
LINE
  8
_0-0_
  6
CONTINUOUS
 62
    2
 10
1194.8504649437248
 20
443.32861342167149
 11
1195.0437747271089
 21
443.01898276649774
  0
LINE
  8
_0-0_
  6
CONTINUOUS
 62
    2
 10
1195.0437747271089
 20
443.01898276649774
 11
1195.0437747271089
 21
443.01898276649774
  0
LINE
  8
_0-0_
  6
CONTINUOUS
 62
    2
 10
1208.4417935468246
 20
444.5952202746995
 11
1208.4417935468246
 21
444.5952202746995
  0
LINE
  8
_0-0_
  6
CONTINUOUS
 62
    2
 10
1208.4417935468246
 20
444.5952202746995
 11
1208.6590499197448
 21
444.35742938813382
  0
LINE
  8
_0-0_
  6
CONTINUOUS
 62
    2
 10
1208.6590499197448
 20
444.35742938813382
 11
1208.8936516572467
 21
444.19870342593651
  0
LINE
  8
_0-0_
  6
CONTINUOUS
 62
    2
 10
1208.8936516572467
 20
444.19870342593651
 11
1209.1384705042508
 21
444.12386519614972
  0
LINE
  8
_0-0_
  6
CONTINUOUS
 62
    2
 10
1209.1384705042508
 20
444.12386519614972
 11
1209.3860677639752
 21
444.13518862051552
  0
LINE
  8
_0-0_
  6
CONTINUOUS
 62
    2
 10
1209.3860677639752
 20
444.13518862051552
 11
1209.6289203189733
 21
444.23232964251457
  0
LINE
  8
_0-0_
  6
CONTINUOUS
 62
    2
 10
1209.6289203189733
 20
444.23232964251457
 11
1209.8596492172508
 21
444.41233668134907
  0
LINE
  8
_0-0_
  6
CONTINUOUS
 62
    2
 10
1209.8596492172508
 20
444.41233668134907
 11
1210.0712438779881
 21
444.66974031423211
  0
LINE
  8
_0-0_
  6
CONTINUOUS
 62
    2
 10
1210.0712438779881
 20
444.66974031423211
 11
1210.2572751044906
 21
444.99671946203091
  0
LINE
  8
_0-0_
  6
CONTINUOUS
 62
    2
 10
1210.2572751044906
 20
444.99671946203091
 11
1210.4120904320775
 21
445.38333902879913
  0
LINE
  8
_0-0_
  6
CONTINUOUS
 62
    2
 10
1210.4120904320775
 20
445.38333902879913
 11
1210.5309858753603
 21
445.81785177463945
  0
LINE
  8
_0-0_
  6
CONTINUOUS
 62
    2
 10
1210.5309858753603
 20
445.81785177463945
 11
1210.610348856459
 21
446.28705524964352
  0
LINE
  8
_0-0_
  6
CONTINUOUS
 62
    2
 10
1210.610348856459
 20
446.28705524964352
 11
1210.6477679713523
 21
446.77669294365182
  0
LINE
  8
_0-0_
  6
CONTINUOUS
 62
    2
 10
1210.6477679713523
 20
446.77669294365182
 11
1210.6421062591694
 21
447.27188746310048
  0
LINE
  8
_0-0_
  6
CONTINUOUS
 62
    2
 10
1210.6421062591694
 20
447.27188746310048
 11
1210.5935357481699
 21
447.75759257309664
  0
LINE
  8
_0-0_
  6
CONTINUOUS
 62
    2
 10
1210.5935357481699
 20
447.75759257309664
 11
1210.5035322287526
 21
448.21905036965165
  0
LINE
  8
_0-0_
  6
CONTINUOUS
 62
    2
 10
1210.5035322287526
 20
448.21905036965165
 11
1210.3748304123112
 21
448.64223969112612
  0
LINE
  8
_0-0_
  6
CONTINUOUS
 62
    2
 10
1210.3748304123112
 20
448.64223969112612
 11
1210.2113408384118
 21
449.01430214413119
  0
LINE
  8
_0-0_
  6
CONTINUOUS
 62
    2
 10
1210.2113408384118
 20
449.01430214413119
 11
1210.0180310550277
 21
449.32393279930494
  0
LINE
  8
_0-0_
  6
CONTINUOUS
 62
    2
 10
1210.0180310550277
 20
449.32393279930494
 11
1209.8007746821074
 21
449.56172368587067
  0
LINE
  8
_0-0_
  6
CONTINUOUS
 62
    2
 10
1209.8007746821074
 20
449.56172368587067
 11
1209.5661729446056
 21
449.72044964806798
  0
LINE
  8
_0-0_
  6
CONTINUOUS
 62
    2
 10
1209.5661729446056
 20
449.72044964806798
 11
1209.3213540976014
 21
449.79528787785478
  0
LINE
  8
_0-0_
  6
CONTINUOUS
 62
    2
 10
1209.3213540976014
 20
449.79528787785478
 11
1209.073756837877
 21
449.78396445348898
  0
LINE
  8
_0-0_
  6
CONTINUOUS
 62
    2
 10
1209.073756837877
 20
449.78396445348898
 11
1208.8309042828789
 21
449.68682343148993
  0
LINE
  8
_0-0_
  6
CONTINUOUS
 62
    2
 10
1208.8309042828789
 20
449.68682343148993
 11
1208.6001753846015
 21
449.50681639265542
  0
LINE
  8
_0-0_
  6
CONTINUOUS
 62
    2
 10
1208.6001753846015
 20
449.50681639265542
 11
1208.3885807238642
 21
449.24941275977244
  0
LINE
  8
_0-0_
  6
CONTINUOUS
 62
    2
 10
1208.3885807238642
 20
449.24941275977244
 11
1208.2025494973616
 21
448.92243361197359
  0
LINE
  8
_0-0_
  6
CONTINUOUS
 62
    2
 10
1208.2025494973616
 20
448.92243361197359
 11
1208.0477341697747
 21
448.53581404520537
  0
LINE
  8
_0-0_
  6
CONTINUOUS
 62
    2
 10
1208.0477341697747
 20
448.53581404520537
 11
1207.9288387264919
 21
448.10130129936505
  0
LINE
  8
_0-0_
  6
CONTINUOUS
 62
    2
 10
1207.9288387264919
 20
448.10130129936505
 11
1207.8494757453932
 21
447.63209782436098
  0
LINE
  8
_0-0_
  6
CONTINUOUS
 62
    2
 10
1207.8494757453932
 20
447.63209782436098
 11
1207.8120566304999
 21
447.14246013035267
  0
LINE
  8
_0-0_
  6
CONTINUOUS
 62
    2
 10
1207.8120566304999
 20
447.14246013035267
 11
1207.8177183426828
 21
446.64726561090401
  0
LINE
  8
_0-0_
  6
CONTINUOUS
 62
    2
 10
1207.8177183426828
 20
446.64726561090401
 11
1207.8662888536824
 21
446.16156050090785
  0
LINE
  8
_0-0_
  6
CONTINUOUS
 62
    2
 10
1207.8662888536824
 20
446.16156050090785
 11
1207.9562923730996
 21
445.70010270435284
  0
LINE
  8
_0-0_
  6
CONTINUOUS
 62
    2
 10
1207.9562923730996
 20
445.70010270435284
 11
1208.084994189541
 21
445.27691338287838
  0
LINE
  8
_0-0_
  6
CONTINUOUS
 62
    2
 10
1208.084994189541
 20
445.27691338287838
 11
1208.2484837634404
 21
444.90485092987331
  0
LINE
  8
_0-0_
  6
CONTINUOUS
 62
    2
 10
1208.2484837634404
 20
444.90485092987331
 11
1208.4417935468246
 21
444.59522027469956
  0
LINE
  8
_0-0_
  6
CONTINUOUS
 62
    2
 10
1208.4417935468246
 20
444.59522027469956
 11
1208.4417935468246
 21
444.59522027469956
  0
LINE
  8
_0-0_
  6
CONTINUOUS
 62
    2
 10
1200.9546653828656
 20
433.56155771728675
 11
1200.9546653828656
 21
433.56155771728675
  0
LINE
  8
_0-0_
  6
CONTINUOUS
 62
    2
 10
1200.9546653828656
 20
433.56155771728675
 11
1201.1719217557859
 21
433.32376683072107
  0
LINE
  8
_0-0_
  6
CONTINUOUS
 62
    2
 10
1201.1719217557859
 20
433.32376683072107
 11
1201.4065234932878
 21
433.16504086852376
  0
LINE
  8
_0-0_
  6
CONTINUOUS
 62
    2
 10
1201.4065234932878
 20
433.16504086852376
 11
1201.6513423402919
 21
433.09020263873697
  0
LINE
  8
_0-0_
  6
CONTINUOUS
 62
    2
 10
1201.6513423402919
 20
433.09020263873697
 11
1201.8989396000163
 21
433.10152606310277
  0
LINE
  8
_0-0_
  6
CONTINUOUS
 62
    2
 10
1201.8989396000163
 20
433.10152606310277
 11
1202.1417921550144
 21
433.19866708510182
  0
LINE
  8
_0-0_
  6
CONTINUOUS
 62
    2
 10
1202.1417921550144
 20
433.19866708510182
 11
1202.3725210532918
 21
433.37867412393632
  0
LINE
  8
_0-0_
  6
CONTINUOUS
 62
    2
 10
1202.3725210532918
 20
433.37867412393632
 11
1202.5841157140292
 21
433.63607775681936
  0
LINE
  8
_0-0_
  6
CONTINUOUS
 62
    2
 10
1202.5841157140292
 20
433.63607775681936
 11
1202.7701469405317
 21
433.96305690461816
  0
LINE
  8
_0-0_
  6
CONTINUOUS
 62
    2
 10
1202.7701469405317
 20
433.96305690461816
 11
1202.9249622681186
 21
434.34967647138637
  0
LINE
  8
_0-0_
  6
CONTINUOUS
 62
    2
 10
1202.9249622681186
 20
434.34967647138637
 11
1203.0438577114014
 21
434.7841892172267
  0
LINE
  8
_0-0_
  6
CONTINUOUS
 62
    2
 10
1203.0438577114014
 20
434.7841892172267
 11
1203.1232206925001
 21
435.25339269223076
  0
LINE
  8
_0-0_
  6
CONTINUOUS
 62
    2
 10
1203.1232206925001
 20
435.25339269223076
 11
1203.1606398073934
 21
435.74303038623907
  0
LINE
  8
_0-0_
  6
CONTINUOUS
 62
    2
 10
1203.1606398073934
 20
435.74303038623907
 11
1203.1549780952105
 21
436.23822490568773
  0
LINE
  8
_0-0_
  6
CONTINUOUS
 62
    2
 10
1203.1549780952105
 20
436.23822490568773
 11
1203.106407584211
 21
436.72393001568389
  0
LINE
  8
_0-0_
  6
CONTINUOUS
 62
    2
 10
1203.106407584211
 20
436.72393001568389
 11
1203.0164040647937
 21
437.1853878122389
  0
LINE
  8
_0-0_
  6
CONTINUOUS
 62
    2
 10
1203.0164040647937
 20
437.1853878122389
 11
1202.8877022483523
 21
437.60857713371337
  0
LINE
  8
_0-0_
  6
CONTINUOUS
 62
    2
 10
1202.8877022483523
 20
437.60857713371337
 11
1202.7242126744529
 21
437.98063958671844
  0
LINE
  8
_0-0_
  6
CONTINUOUS
 62
    2
 10
1202.7242126744529
 20
437.98063958671844
 11
1202.5309028910688
 21
438.29027024189219
  0
LINE
  8
_0-0_
  6
CONTINUOUS
 62
    2
 10
1202.5309028910688
 20
438.29027024189219
 11
1202.3136465181485
 21
438.52806112845792
  0
LINE
  8
_0-0_
  6
CONTINUOUS
 62
    2
 10
1202.3136465181485
 20
438.52806112845792
 11
1202.0790447806467
 21
438.68678709065523
  0
LINE
  8
_0-0_
  6
CONTINUOUS
 62
    2
 10
1202.0790447806467
 20
438.68678709065523
 11
1201.8342259336425
 21
438.76162532044202
  0
LINE
  8
_0-0_
  6
CONTINUOUS
 62
    2
 10
1201.8342259336425
 20
438.76162532044202
 11
1201.5866286739181
 21
438.75030189607622
  0
LINE
  8
_0-0_
  6
CONTINUOUS
 62
    2
 10
1201.5866286739181
 20
438.75030189607622
 11
1201.34377611892
 21
438.65316087407717
  0
LINE
  8
_0-0_
  6
CONTINUOUS
 62
    2
 10
1201.34377611892
 20
438.65316087407717
 11
1201.1130472206426
 21
438.47315383524267
  0
LINE
  8
_0-0_
  6
CONTINUOUS
 62
    2
 10
1201.1130472206426
 20
438.47315383524267
 11
1200.9014525599052
 21
438.21575020235969
  0
LINE
  8
_0-0_
  6
CONTINUOUS
 62
    2
 10
1200.9014525599052
 20
438.21575020235969
 11
1200.7154213334027
 21
437.88877105456083
  0
LINE
  8
_0-0_
  6
CONTINUOUS
 62
    2
 10
1200.7154213334027
 20
437.88877105456083
 11
1200.5606060058158
 21
437.50215148779262
  0
LINE
  8
_0-0_
  6
CONTINUOUS
 62
    2
 10
1200.5606060058158
 20
437.50215148779262
 11
1200.441710562533
 21
437.06763874195229
  0
LINE
  8
_0-0_
  6
CONTINUOUS
 62
    2
 10
1200.441710562533
 20
437.06763874195229
 11
1200.3623475814343
 21
436.59843526694823
  0
LINE
  8
_0-0_
  6
CONTINUOUS
 62
    2
 10
1200.3623475814343
 20
436.59843526694823
 11
1200.324928466541
 21
436.10879757293992
  0
LINE
  8
_0-0_
  6
CONTINUOUS
 62
    2
 10
1200.324928466541
 20
436.10879757293992
 11
1200.3305901787239
 21
435.61360305349126
  0
LINE
  8
_0-0_
  6
CONTINUOUS
 62
    2
 10
1200.3305901787239
 20
435.61360305349126
 11
1200.3791606897234
 21
435.1278979434951
  0
LINE
  8
_0-0_
  6
CONTINUOUS
 62
    2
 10
1200.3791606897234
 20
435.1278979434951
 11
1200.4691642091407
 21
434.66644014694009
  0
LINE
  8
_0-0_
  6
CONTINUOUS
 62
    2
 10
1200.4691642091407
 20
434.66644014694009
 11
1200.5978660255821
 21
434.24325082546562
  0
LINE
  8
_0-0_
  6
CONTINUOUS
 62
    2
 10
1200.5978660255821
 20
434.24325082546562
 11
1200.7613555994815
 21
433.87118837246055
  0
LINE
  8
_0-0_
  6
CONTINUOUS
 62
    2
 10
1200.7613555994815
 20
433.87118837246055
 11
1200.9546653828656
 21
433.5615577172868
  0
LINE
  8
_0-0_
  6
CONTINUOUS
 62
    2
 10
1200.9546653828656
 20
433.5615577172868
 11
1200.9546653828656
 21
433.5615577172868
  0
LINE
  8
_0-0_
  6
CONTINUOUS
 62
    2
 10
1208.0477341697742
 20
420.5575982746218
 11
1208.0477341697742
 21
420.5575982746218
  0
LINE
  8
_0-0_
  6
CONTINUOUS
 62
    2
 10
1208.0477341697742
 20
420.5575982746218
 11
1208.2649905426945
 21
420.31980738805606
  0
LINE
  8
_0-0_
  6
CONTINUOUS
 62
    2
 10
1208.2649905426945
 20
420.31980738805606
 11
1208.4995922801963
 21
420.16108142585875
  0
LINE
  8
_0-0_
  6
CONTINUOUS
 62
    2
 10
1208.4995922801963
 20
420.16108142585875
 11
1208.7444111272005
 21
420.08624319607196
  0
LINE
  8
_0-0_
  6
CONTINUOUS
 62
    2
 10
1208.7444111272005
 20
420.08624319607196
 11
1208.9920083869249
 21
420.09756662043776
  0
LINE
  8
_0-0_
  6
CONTINUOUS
 62
    2
 10
1208.9920083869249
 20
420.09756662043776
 11
1209.234860941923
 21
420.19470764243681
  0
LINE
  8
_0-0_
  6
CONTINUOUS
 62
    2
 10
1209.234860941923
 20
420.19470764243681
 11
1209.4655898402004
 21
420.37471468127131
  0
LINE
  8
_0-0_
  6
CONTINUOUS
 62
    2
 10
1209.4655898402004
 20
420.37471468127131
 11
1209.6771845009378
 21
420.63211831415435
  0
LINE
  8
_0-0_
  6
CONTINUOUS
 62
    2
 10
1209.6771845009378
 20
420.63211831415435
 11
1209.8632157274403
 21
420.95909746195315
  0
LINE
  8
_0-0_
  6
CONTINUOUS
 62
    2
 10
1209.8632157274403
 20
420.95909746195315
 11
1210.0180310550272
 21
421.34571702872137
  0
LINE
  8
_0-0_
  6
CONTINUOUS
 62
    2
 10
1210.0180310550272
 20
421.34571702872137
 11
1210.13692649831
 21
421.78022977456169
  0
LINE
  8
_0-0_
  6
CONTINUOUS
 62
    2
 10
1210.13692649831
 20
421.78022977456169
 11
1210.2162894794087
 21
422.24943324956575
  0
LINE
  8
_0-0_
  6
CONTINUOUS
 62
    2
 10
1210.2162894794087
 20
422.24943324956575
 11
1210.253708594302
 21
422.73907094357406
  0
LINE
  8
_0-0_
  6
CONTINUOUS
 62
    2
 10
1210.253708594302
 20
422.73907094357406
 11
1210.2480468821191
 21
423.23426546302272
  0
LINE
  8
_0-0_
  6
CONTINUOUS
 62
    2
 10
1210.2480468821191
 20
423.23426546302272
 11
1210.1994763711195
 21
423.71997057301888
  0
LINE
  8
_0-0_
  6
CONTINUOUS
 62
    2
 10
1210.1994763711195
 20
423.71997057301888
 11
1210.1094728517023
 21
424.18142836957389
  0
LINE
  8
_0-0_
  6
CONTINUOUS
 62
    2
 10
1210.1094728517023
 20
424.18142836957389
 11
1209.9807710352609
 21
424.60461769104836
  0
LINE
  8
_0-0_
  6
CONTINUOUS
 62
    2
 10
1209.9807710352609
 20
424.60461769104836
 11
1209.8172814613615
 21
424.97668014405343
  0
LINE
  8
_0-0_
  6
CONTINUOUS
 62
    2
 10
1209.8172814613615
 20
424.97668014405343
 11
1209.6239716779774
 21
425.28631079922718
  0
LINE
  8
_0-0_
  6
CONTINUOUS
 62
    2
 10
1209.6239716779774
 20
425.28631079922718
 11
1209.4067153050571
 21
425.52410168579291
  0
LINE
  8
_0-0_
  6
CONTINUOUS
 62
    2
 10
1209.4067153050571
 20
425.52410168579291
 11
1209.1721135675552
 21
425.68282764799022
  0
LINE
  8
_0-0_
  6
CONTINUOUS
 62
    2
 10
1209.1721135675552
 20
425.68282764799022
 11
1208.9272947205511
 21
425.75766587777701
  0
LINE
  8
_0-0_
  6
CONTINUOUS
 62
    2
 10
1208.9272947205511
 20
425.75766587777701
 11
1208.6796974608267
 21
425.74634245341122
  0
LINE
  8
_0-0_
  6
CONTINUOUS
 62
    2
 10
1208.6796974608267
 20
425.74634245341122
 11
1208.4368449058286
 21
425.64920143141217
  0
LINE
  8
_0-0_
  6
CONTINUOUS
 62
    2
 10
1208.4368449058286
 20
425.64920143141217
 11
1208.2061160075511
 21
425.46919439257766
  0
LINE
  8
_0-0_
  6
CONTINUOUS
 62
    2
 10
1208.2061160075511
 20
425.46919439257766
 11
1207.9945213468138
 21
425.21179075969468
  0
LINE
  8
_0-0_
  6
CONTINUOUS
 62
    2
 10
1207.9945213468138
 20
425.21179075969468
 11
1207.8084901203113
 21
424.88481161189583
  0
LINE
  8
_0-0_
  6
CONTINUOUS
 62
    2
 10
1207.8084901203113
 20
424.88481161189583
 11
1207.6536747927244
 21
424.49819204512761
  0
LINE
  8
_0-0_
  6
CONTINUOUS
 62
    2
 10
1207.6536747927244
 20
424.49819204512761
 11
1207.5347793494416
 21
424.06367929928729
  0
LINE
  8
_0-0_
  6
CONTINUOUS
 62
    2
 10
1207.5347793494416
 20
424.06367929928729
 11
1207.4554163683429
 21
423.59447582428322
  0
LINE
  8
_0-0_
  6
CONTINUOUS
 62
    2
 10
1207.4554163683429
 20
423.59447582428322
 11
1207.4179972534496
 21
423.10483813027491
  0
LINE
  8
_0-0_
  6
CONTINUOUS
 62
    2
 10
1207.4179972534496
 20
423.10483813027491
 11
1207.4236589656325
 21
422.60964361082625
  0
LINE
  8
_0-0_
  6
CONTINUOUS
 62
    2
 10
1207.4236589656325
 20
422.60964361082625
 11
1207.472229476632
 21
422.12393850083009
  0
LINE
  8
_0-0_
  6
CONTINUOUS
 62
    2
 10
1207.472229476632
 20
422.12393850083009
 11
1207.5622329960493
 21
421.66248070427508
  0
LINE
  8
_0-0_
  6
CONTINUOUS
 62
    2
 10
1207.5622329960493
 20
421.66248070427508
 11
1207.6909348124907
 21
421.23929138280062
  0
LINE
  8
_0-0_
  6
CONTINUOUS
 62
    2
 10
1207.6909348124907
 20
421.23929138280062
 11
1207.8544243863901
 21
420.86722892979554
  0
LINE
  8
_0-0_
  6
CONTINUOUS
 62
    2
 10
1207.8544243863901
 20
420.86722892979554
 11
1208.0477341697742
 21
420.5575982746218
  0
LINE
  8
_0-0_
  6
CONTINUOUS
 62
    2
 10
1208.0477341697742
 20
420.5575982746218
 11
1208.0477341697742
 21
420.5575982746218
  0
LINE
  8
_0-0_
  6
CONTINUOUS
 62
    2
 10
1197.4081309894118
 20
414.64670761886487
 11
1197.4081309894118
 21
414.64670761886487
  0
LINE
  8
_0-0_
  6
CONTINUOUS
 62
    2
 10
1197.4081309894118
 20
414.64670761886487
 11
1197.625387362332
 21
414.40891673229919
  0
LINE
  8
_0-0_
  6
CONTINUOUS
 62
    2
 10
1197.625387362332
 20
414.40891673229919
 11
1197.8599890998339
 21
414.25019077010188
  0
LINE
  8
_0-0_
  6
CONTINUOUS
 62
    2
 10
1197.8599890998339
 20
414.25019077010188
 11
1198.104807946838
 21
414.17535254031509
  0
LINE
  8
_0-0_
  6
CONTINUOUS
 62
    2
 10
1198.104807946838
 20
414.17535254031509
 11
1198.3524052065625
 21
414.18667596468089
  0
LINE
  8
_0-0_
  6
CONTINUOUS
 62
    2
 10
1198.3524052065625
 20
414.18667596468089
 11
1198.5952577615606
 21
414.28381698667994
  0
LINE
  8
_0-0_
  6
CONTINUOUS
 62
    2
 10
1198.5952577615606
 20
414.28381698667994
 11
1198.825986659838
 21
414.46382402551444
  0
LINE
  8
_0-0_
  6
CONTINUOUS
 62
    2
 10
1198.825986659838
 20
414.46382402551444
 11
1199.0375813205753
 21
414.72122765839748
  0
LINE
  8
_0-0_
  6
CONTINUOUS
 62
    2
 10
1199.0375813205753
 20
414.72122765839748
 11
1199.2236125470779
 21
415.04820680619628
  0
LINE
  8
_0-0_
  6
CONTINUOUS
 62
    2
 10
1199.2236125470779
 20
415.04820680619628
 11
1199.3784278746648
 21
415.43482637296449
  0
LINE
  8
_0-0_
  6
CONTINUOUS
 62
    2
 10
1199.3784278746648
 20
415.43482637296449
 11
1199.4973233179476
 21
415.86933911880482
  0
LINE
  8
_0-0_
  6
CONTINUOUS
 62
    2
 10
1199.4973233179476
 20
415.86933911880482
 11
1199.5766862990463
 21
416.33854259380888
  0
LINE
  8
_0-0_
  6
CONTINUOUS
 62
    2
 10
1199.5766862990463
 20
416.33854259380888
 11
1199.6141054139396
 21
416.82818028781719
  0
LINE
  8
_0-0_
  6
CONTINUOUS
 62
    2
 10
1199.6141054139396
 20
416.82818028781719
 11
1199.6084437017566
 21
417.32337480726585
  0
LINE
  8
_0-0_
  6
CONTINUOUS
 62
    2
 10
1199.6084437017566
 20
417.32337480726585
 11
1199.5598731907571
 21
417.80907991726201
  0
LINE
  8
_0-0_
  6
CONTINUOUS
 62
    2
 10
1199.5598731907571
 20
417.80907991726201
 11
1199.4698696713399
 21
418.27053771381702
  0
LINE
  8
_0-0_
  6
CONTINUOUS
 62
    2
 10
1199.4698696713399
 20
418.27053771381702
 11
1199.3411678548985
 21
418.69372703529149
  0
LINE
  8
_0-0_
  6
CONTINUOUS
 62
    2
 10
1199.3411678548985
 20
418.69372703529149
 11
1199.1776782809991
 21
419.06578948829656
  0
LINE
  8
_0-0_
  6
CONTINUOUS
 62
    2
 10
1199.1776782809991
 20
419.06578948829656
 11
1198.9843684976149
 21
419.37542014347031
  0
LINE
  8
_0-0_
  6
CONTINUOUS
 62
    2
 10
1198.9843684976149
 20
419.37542014347031
 11
1198.7671121246947
 21
419.61321103003604
  0
LINE
  8
_0-0_
  6
CONTINUOUS
 62
    2
 10
1198.7671121246947
 20
419.61321103003604
 11
1198.5325103871928
 21
419.77193699223335
  0
LINE
  8
_0-0_
  6
CONTINUOUS
 62
    2
 10
1198.5325103871928
 20
419.77193699223335
 11
1198.2876915401887
 21
419.84677522202014
  0
LINE
  8
_0-0_
  6
CONTINUOUS
 62
    2
 10
1198.2876915401887
 20
419.84677522202014
 11
1198.0400942804642
 21
419.83545179765434
  0
LINE
  8
_0-0_
  6
CONTINUOUS
 62
    2
 10
1198.0400942804642
 20
419.83545179765434
 11
1197.7972417254662
 21
419.73831077565529
  0
LINE
  8
_0-0_
  6
CONTINUOUS
 62
    2
 10
1197.7972417254662
 20
419.73831077565529
 11
1197.5665128271887
 21
419.55830373682079
  0
LINE
  8
_0-0_
  6
CONTINUOUS
 62
    2
 10
1197.5665128271887
 20
419.55830373682079
 11
1197.3549181664514
 21
419.30090010393781
  0
LINE
  8
_0-0_
  6
CONTINUOUS
 62
    2
 10
1197.3549181664514
 20
419.30090010393781
 11
1197.1688869399488
 21
418.97392095613895
  0
LINE
  8
_0-0_
  6
CONTINUOUS
 62
    2
 10
1197.1688869399488
 20
418.97392095613895
 11
1197.0140716123619
 21
418.58730138937074
  0
LINE
  8
_0-0_
  6
CONTINUOUS
 62
    2
 10
1197.0140716123619
 20
418.58730138937074
 11
1196.8951761690791
 21
418.15278864353041
  0
LINE
  8
_0-0_
  6
CONTINUOUS
 62
    2
 10
1196.8951761690791
 20
418.15278864353041
 11
1196.8158131879804
 21
417.68358516852635
  0
LINE
  8
_0-0_
  6
CONTINUOUS
 62
    2
 10
1196.8158131879804
 20
417.68358516852635
 11
1196.7783940730872
 21
417.19394747451804
  0
LINE
  8
_0-0_
  6
CONTINUOUS
 62
    2
 10
1196.7783940730872
 20
417.19394747451804
 11
1196.7840557852701
 21
416.69875295506938
  0
LINE
  8
_0-0_
  6
CONTINUOUS
 62
    2
 10
1196.7840557852701
 20
416.69875295506938
 11
1196.8326262962696
 21
416.21304784507322
  0
LINE
  8
_0-0_
  6
CONTINUOUS
 62
    2
 10
1196.8326262962696
 20
416.21304784507322
 11
1196.9226298156868
 21
415.75159004851821
  0
LINE
  8
_0-0_
  6
CONTINUOUS
 62
    2
 10
1196.9226298156868
 20
415.75159004851821
 11
1197.0513316321283
 21
415.32840072704374
  0
LINE
  8
_0-0_
  6
CONTINUOUS
 62
    2
 10
1197.0513316321283
 20
415.32840072704374
 11
1197.2148212060276
 21
414.95633827403867
  0
LINE
  8
_0-0_
  6
CONTINUOUS
 62
    2
 10
1197.2148212060276
 20
414.95633827403867
 11
1197.4081309894118
 21
414.64670761886492
  0
LINE
  8
_0-0_
  6
CONTINUOUS
 62
    2
 10
1197.4081309894118
 20
414.64670761886492
 11
1197.4081309894118
 21
414.64670761886492
  0
LINE
  8
_0-0_
  6
CONTINUOUS
 62
    2
 10
1208.8358529238749
 20
406.3714607008053
 11
1208.8358529238749
 21
406.3714607008053
  0
LINE
  8
_0-0_
  6
CONTINUOUS
 62
    2
 10
1208.8358529238749
 20
406.3714607008053
 11
1209.0531092967951
 21
406.13366981423962
  0
LINE
  8
_0-0_
  6
CONTINUOUS
 62
    2
 10
1209.0531092967951
 20
406.13366981423962
 11
1209.287711034297
 21
405.97494385204232
  0
LINE
  8
_0-0_
  6
CONTINUOUS
 62
    2
 10
1209.287711034297
 20
405.97494385204232
 11
1209.5325298813011
 21
405.90010562225552
  0
LINE
  8
_0-0_
  6
CONTINUOUS
 62
    2
 10
1209.5325298813011
 20
405.90010562225552
 11
1209.7801271410256
 21
405.91142904662132
  0
LINE
  8
_0-0_
  6
CONTINUOUS
 62
    2
 10
1209.7801271410256
 20
405.91142904662132
 11
1210.0229796960236
 21
406.00857006862037
  0
LINE
  8
_0-0_
  6
CONTINUOUS
 62
    2
 10
1210.0229796960236
 20
406.00857006862037
 11
1210.2537085943011
 21
406.18857710745488
  0
LINE
  8
_0-0_
  6
CONTINUOUS
 62
    2
 10
1210.2537085943011
 20
406.18857710745488
 11
1210.4653032550384
 21
406.44598074033792
  0
LINE
  8
_0-0_
  6
CONTINUOUS
 62
    2
 10
1210.4653032550384
 20
406.44598074033792
 11
1210.651334481541
 21
406.77295988813671
  0
LINE
  8
_0-0_
  6
CONTINUOUS
 62
    2
 10
1210.651334481541
 20
406.77295988813671
 11
1210.8061498091279
 21
407.15957945490493
  0
LINE
  8
_0-0_
  6
CONTINUOUS
 62
    2
 10
1210.8061498091279
 20
407.15957945490493
 11
1210.9250452524107
 21
407.59409220074525
  0
LINE
  8
_0-0_
  6
CONTINUOUS
 62
    2
 10
1210.9250452524107
 20
407.59409220074525
 11
1211.0044082335094
 21
408.06329567574932
  0
LINE
  8
_0-0_
  6
CONTINUOUS
 62
    2
 10
1211.0044082335094
 20
408.06329567574932
 11
1211.0418273484026
 21
408.55293336975762
  0
LINE
  8
_0-0_
  6
CONTINUOUS
 62
    2
 10
1211.0418273484026
 20
408.55293336975762
 11
1211.0361656362197
 21
409.04812788920628
  0
LINE
  8
_0-0_
  6
CONTINUOUS
 62
    2
 10
1211.0361656362197
 20
409.04812788920628
 11
1210.9875951252202
 21
409.53383299920245
  0
LINE
  8
_0-0_
  6
CONTINUOUS
 62
    2
 10
1210.9875951252202
 20
409.53383299920245
 11
1210.897591605803
 21
409.99529079575746
  0
LINE
  8
_0-0_
  6
CONTINUOUS
 62
    2
 10
1210.897591605803
 20
409.99529079575746
 11
1210.7688897893615
 21
410.41848011723192
  0
LINE
  8
_0-0_
  6
CONTINUOUS
 62
    2
 10
1210.7688897893615
 20
410.41848011723192
 11
1210.6054002154622
 21
410.79054257023699
  0
LINE
  8
_0-0_
  6
CONTINUOUS
 62
    2
 10
1210.6054002154622
 20
410.79054257023699
 11
1210.412090432078
 21
411.10017322541074
  0
LINE
  8
_0-0_
  6
CONTINUOUS
 62
    2
 10
1210.412090432078
 20
411.10017322541074
 11
1210.1948340591578
 21
411.33796411197648
  0
LINE
  8
_0-0_
  6
CONTINUOUS
 62
    2
 10
1210.1948340591578
 20
411.33796411197648
 11
1209.9602323216559
 21
411.49669007417378
  0
LINE
  8
_0-0_
  6
CONTINUOUS
 62
    2
 10
1209.9602323216559
 20
411.49669007417378
 11
1209.7154134746518
 21
411.57152830396058
  0
LINE
  8
_0-0_
  6
CONTINUOUS
 62
    2
 10
1209.7154134746518
 20
411.57152830396058
 11
1209.4678162149273
 21
411.56020487959478
  0
LINE
  8
_0-0_
  6
CONTINUOUS
 62
    2
 10
1209.4678162149273
 20
411.56020487959478
 11
1209.2249636599292
 21
411.46306385759573
  0
LINE
  8
_0-0_
  6
CONTINUOUS
 62
    2
 10
1209.2249636599292
 20
411.46306385759573
 11
1208.9942347616518
 21
411.28305681876122
  0
LINE
  8
_0-0_
  6
CONTINUOUS
 62
    2
 10
1208.9942347616518
 20
411.28305681876122
 11
1208.7826401009145
 21
411.02565318587824
  0
LINE
  8
_0-0_
  6
CONTINUOUS
 62
    2
 10
1208.7826401009145
 20
411.02565318587824
 11
1208.5966088744119
 21
410.69867403807939
  0
LINE
  8
_0-0_
  6
CONTINUOUS
 62
    2
 10
1208.5966088744119
 20
410.69867403807939
 11
1208.441793546825
 21
410.31205447131117
  0
LINE
  8
_0-0_
  6
CONTINUOUS
 62
    2
 10
1208.441793546825
 20
410.31205447131117
 11
1208.3228981035422
 21
409.87754172547085
  0
LINE
  8
_0-0_
  6
CONTINUOUS
 62
    2
 10
1208.3228981035422
 20
409.87754172547085
 11
1208.2435351224435
 21
409.40833825046678
  0
LINE
  8
_0-0_
  6
CONTINUOUS
 62
    2
 10
1208.2435351224435
 20
409.40833825046678
 11
1208.2061160075502
 21
408.91870055645848
  0
LINE
  8
_0-0_
  6
CONTINUOUS
 62
    2
 10
1208.2061160075502
 20
408.91870055645848
 11
1208.2117777197332
 21
408.42350603700982
  0
LINE
  8
_0-0_
  6
CONTINUOUS
 62
    2
 10
1208.2117777197332
 20
408.42350603700982
 11
1208.2603482307327
 21
407.93780092701365
  0
LINE
  8
_0-0_
  6
CONTINUOUS
 62
    2
 10
1208.2603482307327
 20
407.93780092701365
 11
1208.3503517501499
 21
407.47634313045864
  0
LINE
  8
_0-0_
  6
CONTINUOUS
 62
    2
 10
1208.3503517501499
 20
407.47634313045864
 11
1208.4790535665913
 21
407.05315380898418
  0
LINE
  8
_0-0_
  6
CONTINUOUS
 62
    2
 10
1208.4790535665913
 20
407.05315380898418
 11
1208.6425431404907
 21
406.68109135597911
  0
LINE
  8
_0-0_
  6
CONTINUOUS
 62
    2
 10
1208.6425431404907
 20
406.68109135597911
 11
1208.8358529238749
 21
406.37146070080536
  0
LINE
  8
_0-0_
  6
CONTINUOUS
 62
    2
 10
1208.8358529238749
 20
406.37146070080536
 11
1208.8358529238749
 21
406.37146070080536
  0
TEXT
  8
_0-0_
 62
    7
 10
954.03456807430041
 20
698.44351882320609
 40
30
 41
1
 50
0
  1
MGﾀｲﾄ
  0
TEXT
  8
_0-0_
 62
    7
 10
1445.2258598555873
 20
1200.0590690419851
 40
30
 41
1
 50
0
  1
ﾌﾟﾗｲﾏｰ
  0
LINE
  8
_0-0_
  6
CONTINUOUS
 62
    7
 10
672.13606690525205
 20
167.53106997205509
 11
1706.8525777203668
 21
167.53106997205509
  0
LINE
  8
_0-0_
  6
CONTINUOUS
 62
    7
 10
672.13606690525205
 20
1633.3565543671132
 11
672.13606690525205
 21
167.53106997205509
  0
LINE
  8
_0-0_
  6
CONTINUOUS
 62
    7
 10
1706.8525777203668
 20
1633.3565543671132
 11
1706.8525777203668
 21
167.53106997205509
  0
LINE
  8
_0-0_
  6
CONTINUOUS
 62
    7
 10
672.13606690525205
 20
1633.3565543671132
 11
1706.8525777203668
 21
1633.3565543671132
  0
LINE
  8
_0-0_
  6
CONTINUOUS
 62
    7
 10
672.13606690525205
 20
1553.3565543671132
 11
1706.8525777203668
 21
1553.3565543671132
  0
LINE
  8
_0-0_
  6
CONTINUOUS
 62
    7
 10
672.13606690525205
 20
1473.3565543671132
 11
1706.8525777203668
 21
1473.3565543671132
  0
LINE
  8
_0-0_
  6
CONTINUOUS
 62
    7
 10
1189.4943223128103
 20
1633.3565543671132
 11
1189.4943223128103
 21
1473.3565543671132
  0
LINE
  8
_0-0_
  6
CONTINUOUS
 62
    7
 10
672.13606690525205
 20
820.44381216958413
 11
1706.8525777203668
 21
820.44381216958413
  0
TEXT
  8
_0-0_
 62
    7
 10
1213.4943223128103
 20
1577.3565543671132
 40
30
 41
1
 50
0
  1
構造：ＲＣ造
  0
TEXT
  8
_0-0_
 62
    7
 10
696.13606690525205
 20
1497.3565543671132
 40
30
 41
1
 50
0
  1
施工部位：伸縮目地
  0
TEXT
  8
_0-0_
 62
    7
 10
1213.4943223128103
 20
1497.3565543671132
 40
30
 41
1
 50
0
  1
下地：保護コンクリート
  0
CIRCLE
  8
_0-0_
  6
CONTINUOUS
 62
    5
 10
1192.4580190039642
 20
1030.2464321568687
 40
22.5
  0
POINT
  8
_0-0_
 62
    7
 10
1189.7580496071323
 20
1026.2376844395776
  0
LINE
  8
_0-0_
  6
CONTINUOUS
 62
    7
 10
1169.9580190039642
 20
1097.0585068530299
 11
832.4580190039643
 21
1097.0585068530299
  0
LINE
  8
_0-0_
  6
CONTINUOUS
 62
    7
 10
1214.9580190039642
 20
1097.0585068530299
 11
1552.4580190039642
 21
1097.0585068530299
  0
LINE
  8
_0-0_
  6
CONTINUOUS
 62
    2
 10
1214.8606578635126
 20
1032.3373104719799
 11
1214.9580190039642
 21
1032.4346716124314
  0
TEXT
  8
_0-0_
 62
    7
 10
795.03093143204489
 20
1243.9954779661671
 40
30
 41
1
 50
0
  1
ｳﾚﾀﾝ防水
  0
TEXT
  8
_0-0_
 62
    7
 10
791.50513960739511
 20
1174.9504235107943
 40
30
 41
1
 50
0
  1
ﾄｯﾌﾟｺｰﾄ
  0
LINE
  8
_0-0_
  6
CONTINUOUS
 62
    7
 10
832.4580190039643
 20
947.05850685302994
 11
1552.4580190039642
 21
947.05850685302994
  0
LINE
  8
_0-0_
  6
CONTINUOUS
 62
    7
 10
832.4580190039643
 20
935.05850685302994
 11
1552.4580190039642
 21
935.05850685302994
  0
LINE
  8
_0-0_
  6
CONTINUOUS
 62
    7
 10
839.86107230704067
 20
872.05850685302994
 11
902.86107230704158
 21
935.05850685303017
  0
LINE
  8
_0-0_
  6
CONTINUOUS
 62
    7
 10
855.77097488373977
 20
872.05850685302994
 11
918.77097488374068
 21
935.05850685303017
  0
LINE
  8
_0-0_
  6
CONTINUOUS
 62
    7
 10
1333.0680521846543
 20
872.05850685302994
 11
1396.0680521846534
 21
935.05850685302971
  0
LINE
  8
_0-0_
  6
CONTINUOUS
 62
    7
 10
1348.9779547613534
 20
872.05850685302994
 11
1411.9779547613534
 21
935.05850685303028
  0
LINE
  8
_0-0_
  6
CONTINUOUS
 62
    7
 10
1364.8878573380489
 20
872.05850685302994
 11
1427.8878573380498
 21
935.05850685302971
  0
LINE
  8
_0-0_
  6
CONTINUOUS
 62
    7
 10
1169.9580190039642
 20
1097.0585068530299
 11
1169.9580190039642
 21
947.05850685302994
  0
LINE
  8
_0-0_
  6
CONTINUOUS
 62
    7
 10
1214.9580190039642
 20
1097.0585068530299
 11
1214.9580190039642
 21
947.05850685302994
  0
LINE
  8
_0-0_
  6
CONTINUOUS
 62
    7
 10
922.76246515566265
 20
1097.0585068530295
 11
1072.7624651556625
 21
947.05850685302994
  0
LINE
  8
_0-0_
  6
CONTINUOUS
 62
    7
 10
938.67236773235993
 20
1097.0585068530295
 11
1088.6723677323598
 21
947.05850685302948
  0
LINE
  8
_0-0_
  6
CONTINUOUS
 62
    7
 10
954.58227030905721
 20
1097.0585068530299
 11
1104.5822703090571
 21
947.05850685302994
  0
LINE
  8
_0-0_
  6
CONTINUOUS
 62
    7
 10
1339.9554660557251
 20
1097.058506853029
 11
1489.9554660557251
 21
947.05850685302903
  0
LINE
  8
_0-0_
  6
CONTINUOUS
 62
    7
 10
1355.8653686324224
 20
1097.0585068530299
 11
1505.8653686324224
 21
947.05850685303039
  0
LINE
  8
_0-0_
  6
CONTINUOUS
 62
    7
 10
1371.7752712091196
 20
1097.0585068530304
 11
1521.7752712091196
 21
947.05850685303085
  0
LINE
  8
_0-0_
  6
CONTINUOUS
 62
    7
 10
832.4580190039643
 20
880.56535612665084
 11
886.95116973034339
 21
935.05850685302994
  0
LINE
  8
_0-0_
  6
CONTINUOUS
 62
    7
 10
1189.7580496071323
 20
1026.2376844395776
 11
1031.7288724421014
 21
1299.9522483677142
  0
LINE
  8
_0-0_
  6
CONTINUOUS
 62
    7
 10
1192.4413703799428
 20
1083.4042337209089
 11
1033.0812723951512
 21
1359.4240201297241
  0
TEXT
  8
_0-0_
 62
    7
 10
878.44385514838916
 20
1286.2166076367912
 40
30
 41
1
 50
0
  1
ﾊﾞｯｸｱｯﾌﾟ材
  0
LINE
  8
_0-0_
  6
CONTINUOUS
 62
    7
 10
1338.8741325919782
 20
940.69722293123891
 11
1468.9462193892496
 21
1165.9886859106273
  0
POINT
  8
_0-0_
 62
    7
 10
1338.8741325919782
 20
940.69722293123891
  0
LINE
  8
_0-0_
  6
CONTINUOUS
 62
    7
 10
1371.7752712091196
 20
1097.0585068530304
 11
1440.2619920379584
 21
1215.6809869723645
  0
TEXT
  8
_0-0_
 62
    7
 10
1473.197265794829
 20
1148.9113553245154
 40
30
 41
1
 50
0
  1
既存防水層
  0
POINT
  8
_0-0_
 62
    7
 10
1371.7752712091205
 20
1097.0585068530299
  0
LINE
  8
_0-0_
  6
CONTINUOUS
 62
    7
 10
1191.0856573219089
 20
982.68128574273828
 11
1408.0664247283576
 21
1358.502999155992
  0
POINT
  8
_0-0_
 62
    7
 10
1191.0856573219089
 20
982.68128574273828
  0
CIRCLE
  8
_0-0_
  6
CONTINUOUS
 62
    5
 10
1191.8879915479411
 20
386.71280127793875
 40
22.5
  0
POINT
  8
_0-0_
 62
    7
 10
1189.1880221511092
 20
382.70405356064771
  0
LINE
  8
_0-0_
  6
CONTINUOUS
 62
    7
 10
1169.3879915479411
 20
453.52487597410004
 11
831.88799154794117
 21
453.52487597410004
  0
LINE
  8
_0-0_
  6
CONTINUOUS
 62
    7
 10
1214.3879915479411
 20
453.52487597410004
 11
1551.8879915479411
 21
453.52487597410004
  0
LINE
  8
_0-0_
  6
CONTINUOUS
 62
    2
 10
1214.2906304074895
 20
388.80367959304999
 11
1214.3879915479411
 21
388.90104073350153
  0
TEXT
  8
_0-0_
 62
    7
 10
794.46090397602177
 20
600.46184708723717
 40
30
 41
1
 50
0
  1
ｳﾚﾀﾝ防水
  0
LINE
  8
_0-0_
  6
CONTINUOUS
 62
    7
 10
999.06112689677514
 20
471.51765515004195
 11
918.85793595527696
 21
610.43365678986697
  0
POINT
  8
_0-0_
 62
    7
 10
999.06112689677514
 20
471.51765515004195
  0
LINE
  8
_0-0_
  6
CONTINUOUS
 62
    4
 10
831.88799154794117
 20
487.27487597410004
 11
1551.8879915479411
 21
487.27487597410004
  0
LINE
  8
_0-0_
  6
CONTINUOUS
 62
    3
 10
831.88799154794117
 20
467.02487597410004
 11
1551.8879915479411
 21
467.02487597410004
  0
LINE
  8
_0-0_
  6
CONTINUOUS
 62
    7
 10
1312.1822201820014
 20
458.02487597410004
 11
1402.3344846006748
 21
614.17317836462439
  0
POINT
  8
_0-0_
 62
    7
 10
1312.1822201820014
 20
458.02487597410004
  0
TEXT
  8
_0-0_
 62
    7
 10
1406.3568782415405
 20
602.11694239196299
 40
30
 41
1
 50
0
  1
通気緩衝ｼｰﾄ
  0
LINE
  8
_0-0_
  6
CONTINUOUS
 62
    7
 10
930.60819132873087
 20
487.27487597410004
 11
898.54189752957438
 21
542.81532604467088
  0
POINT
  8
_0-0_
 62
    7
 10
930.60819132873087
 20
487.27487597410004
  0
TEXT
  8
_0-0_
 62
    7
 10
790.93511215137198
 20
531.41679263186438
 40
30
 41
1
 50
0
  1
ﾄｯﾌﾟｺｰﾄ
  0
LINE
  8
_0-0_
  6
CONTINUOUS
 62
    7
 10
831.88799154794117
 20
303.52487597410004
 11
1551.8879915479411
 21
303.52487597410004
  0
LINE
  8
_0-0_
  6
CONTINUOUS
 62
    7
 10
831.88799154794117
 20
291.52487597410004
 11
1551.8879915479411
 21
291.52487597410004
  0
LINE
  8
_0-0_
  6
CONTINUOUS
 62
    7
 10
839.29104485101755
 20
228.52487597410004
 11
902.29104485101846
 21
291.52487597410027
  0
LINE
  8
_0-0_
  6
CONTINUOUS
 62
    7
 10
855.20094742771664
 20
228.52487597410004
 11
918.20094742771755
 21
291.52487597410027
  0
LINE
  8
_0-0_
  6
CONTINUOUS
 62
    7
 10
1332.4980247286312
 20
228.52487597410004
 11
1395.4980247286303
 21
291.52487597409981
  0
LINE
  8
_0-0_
  6
CONTINUOUS
 62
    7
 10
1348.4079273053303
 20
228.52487597410004
 11
1411.4079273053303
 21
291.52487597410038
  0
LINE
  8
_0-0_
  6
CONTINUOUS
 62
    7
 10
1364.3178298820258
 20
228.52487597410004
 11
1427.3178298820267
 21
291.52487597409981
  0
LINE
  8
_0-0_
  6
CONTINUOUS
 62
    7
 10
1169.3879915479411
 20
453.52487597410004
 11
1169.3879915479411
 21
303.52487597410004
  0
LINE
  8
_0-0_
  6
CONTINUOUS
 62
    7
 10
1214.3879915479411
 20
453.52487597410004
 11
1214.3879915479411
 21
303.52487597410004
  0
LINE
  8
_0-0_
  6
CONTINUOUS
 62
    7
 10
922.19243769963953
 20
453.52487597409959
 11
1072.1924376996394
 21
303.52487597410004
  0
LINE
  8
_0-0_
  6
CONTINUOUS
 62
    7
 10
938.1023402763368
 20
453.52487597409959
 11
1088.1023402763367
 21
303.52487597409959
  0
LINE
  8
_0-0_
  6
CONTINUOUS
 62
    7
 10
954.01224285303408
 20
453.52487597410004
 11
1104.012242853034
 21
303.52487597410004
  0
LINE
  8
_0-0_
  6
CONTINUOUS
 62
    7
 10
1339.385438599702
 20
453.52487597409913
 11
1489.385438599702
 21
303.52487597409913
  0
LINE
  8
_0-0_
  6
CONTINUOUS
 62
    7
 10
1355.2953411763992
 20
453.52487597410004
 11
1505.2953411763992
 21
303.5248759741005
  0
LINE
  8
_0-0_
  6
CONTINUOUS
 62
    7
 10
1371.2052437530965
 20
453.5248759741005
 11
1521.2052437530965
 21
303.52487597410095
  0
LINE
  8
_0-0_
  6
CONTINUOUS
 62
    7
 10
831.88799154794117
 20
237.03172524772094
 11
886.38114227432027
 21
291.52487597410004
  0
LINE
  8
_0-0_
  6
CONTINUOUS
 62
    7
 10
1189.1880221511092
 20
382.70405356064771
 11
1031.1588449860783
 21
656.41861748878432
  0
LINE
  8
_0-0_
  6
CONTINUOUS
 62
    7
 10
1191.8713429239197
 20
439.87060284197901
 11
1032.5112449391281
 21
715.89038925079433
  0
TEXT
  8
_0-0_
 62
    7
 10
877.87382769236604
 20
642.6829767578613
 40
30
 41
1
 50
0
  1
ﾊﾞｯｸｱｯﾌﾟ材
  0
LINE
  8
_0-0_
  6
CONTINUOUS
 62
    7
 10
1338.3041051359551
 20
297.16359205230901
 11
1468.3761919332264
 21
522.45505503169738
  0
POINT
  8
_0-0_
 62
    7
 10
1338.3041051359551
 20
297.16359205230901
  0
LINE
  8
_0-0_
  6
CONTINUOUS
 62
    7
 10
1371.2052437530965
 20
453.5248759741005
 11
1439.6919645819353
 21
572.14735609343461
  0
TEXT
  8
_0-0_
 62
    7
 10
1444.6558323995641
 20
556.52543816305524
 40
30
 41
1
 50
0
  1
ﾌﾟﾗｲﾏｰ
  0
TEXT
  8
_0-0_
 62
    7
 10
1472.6272383388059
 20
505.37772444558544
 40
30
 41
1
 50
0
  1
既存防水層
  0
POINT
  8
_0-0_
 62
    7
 10
1371.2052437530974
 20
453.52487597410004
  0
LINE
  8
_0-0_
  6
CONTINUOUS
 62
    7
 10
1190.5156298658858
 20
339.14765486380833
 11
1407.4963972723344
 21
714.96936827706213
  0
POINT
  8
_0-0_
 62
    7
 10
1190.5156298658858
 20
339.14765486380833
  0
TEXT
  8
_0-0_
 62
    7
 10
1411.0901452724747
 20
693.98491877875563
 40
30
 41
1
 50
0
  1
水上がり防止層
  0
TEXT
  8
_0-0_
 62
    7
 10
1410.3046939127662
 20
726.64706220883886
 40
30
 41
1
 50
0
  1
通気＋
  0
LINE
  8
_0-0_
  6
CONTINUOUS
 62
    4
 10
832.4580190039643
 20
1117.3085068530299
 11
1552.4580190039642
 21
1117.3085068530299
  0
LINE
  8
_0-0_
  6
CONTINUOUS
 62
    7
 10
1004.7848004640556
 20
1106.1249091200445
 11
919.42796341130008
 21
1253.9672876687969
  0
POINT
  8
_0-0_
 62
    7
 10
1004.7848004640556
 20
1106.1249091200445
  0
POINT
  8
_0-0_
 62
    7
 10
938.97244741881434
 20
1117.3085068530299
  0
LINE
  8
_0-0_
  6
CONTINUOUS
 62
    7
 10
938.97244741881434
 20
1117.3085068530295
 11
899.11192498559751
 21
1186.3489569236008
  0
LINE
  8
_0-0_
  6
CONTINUOUS
 62
    4
 10
967.45801900396248
 20
1103.8085068530299
 11
955.76667605287287
 21
1097.0585068530299
  0
LINE
  8
_0-0_
  6
CONTINUOUS
 62
    4
 10
1417.4580190039624
 20
1103.8085068530299
 11
1429.1493619550556
 21
1097.0585068530299
  0
LINE
  8
_0-0_
  6
CONTINUOUS
 62
    4
 10
967.45801900396248
 20
1103.8085068530299
 11
1417.4580190039624
 21
1103.8085068530299
  0
LINE
  8
_0-0_
  6
DASHED2
 62
    5
 10
967.45801900396248
 20
1101.5585068530299
 11
1417.4580190039624
 21
1101.5585068530299
  0
TEXT
  8
_0-0_
 62
    7
 10
1411.0936240269848
 20
1379.9857755950329
 40
30
 41
1
 50
0
  1
通気＋
  0
TEXT
  8
_0-0_
 62
    7
 10
1411.0936240269848
 20
1350.3559082557633
 40
30
 41
1
 50
0
  1
水上がり防止層
  0
TEXT
  8
_0-0_
 62
    7
 10
1429.6122911140283
 20
1262.9477996049179
 40
30
 41
1
 50
0
  1
＋ｳﾚﾀﾝ増塗り
  0
LINE
  8
_0-0_
  6
CONTINUOUS
 62
    7
 10
1314.0558084908771
 20
1101.5585068530299
 11
1430.4256321919111
 21
1303.116953971054
  0
POINT
  8
_0-0_
 62
    7
 10
1314.0558084908771
 20
1101.5585068530299
  0
LINE
  8
_0-0_
  6
CONTINUOUS
 62
    2
 10
1169.9580190039642
 20
1097.0585068530299
 11
1214.9580190039642
 21
1097.0585068530299
  0
LINE
  8
_0-0_
  6
CONTINUOUS
 62
    2
 10
1214.9434031868004
 20
1031.0572947532607
 11
1214.9580190039633
 21
1031.0719105704241
  0
LINE
  8
_0-0_
  6
CONTINUOUS
 62
    2
 10
1213.8951547804045
 20
1037.0801141587292
 11
1214.9580190039651
 21
1038.1429783822894
  0
LINE
  8
_0-0_
  6
CONTINUOUS
 62
    2
 10
1211.6819217260036
 20
1041.9379489161945
 11
1214.9580190039642
 21
1045.2140461941547
  0
LINE
  8
_0-0_
  6
CONTINUOUS
 62
    2
 10
1208.5969085400939
 20
1045.9240035421506
 11
1214.9580190039633
 21
1052.2851140060204
  0
LINE
  8
_0-0_
  6
CONTINUOUS
 62
    2
 10
1204.7160103090591
 20
1049.1141731229802
 11
1214.9580190039651
 21
1059.3561818178857
  0
LINE
  8
_0-0_
  6
CONTINUOUS
 62
    2
 10
1199.9819344186417
 20
1051.451165044429
 11
1214.9580190039642
 21
1066.427249629751
  0
LINE
  8
_0-0_
  6
CONTINUOUS
 62
    2
 10
1194.1429558602886
 20
1052.6832542979416
 11
1214.9580190039633
 21
1073.4983174416168
  0
LINE
  8
_0-0_
  6
CONTINUOUS
 62
    2
 10
1169.9580190039642
 20
1035.5693852534816
 11
1170.8267095399879
 21
1036.4380757895049
  0
LINE
  8
_0-0_
  6
CONTINUOUS
 62
    2
 10
1186.2663753713296
 20
1051.877741620847
 11
1214.9580190039651
 21
1080.5693852534821
  0
LINE
  8
_0-0_
  6
CONTINUOUS
 62
    2
 10
1169.9580190039633
 20
1042.6404530653469
 11
1214.9580190039633
 21
1087.6404530653469
  0
LINE
  8
_0-0_
  6
CONTINUOUS
 62
    2
 10
1169.9580190039642
 20
1049.7115208772136
 11
1214.9580190039633
 21
1094.7115208772132
  0
LINE
  8
_0-0_
  6
CONTINUOUS
 62
    2
 10
1169.9580190039642
 20
1056.782588689078
 11
1210.2339371679154
 21
1097.0585068530293
  0
LINE
  8
_0-0_
  6
CONTINUOUS
 62
    2
 10
1169.9580190039633
 20
1063.8536565009433
 11
1203.1628693560506
 21
1097.0585068530302
  0
LINE
  8
_0-0_
  6
CONTINUOUS
 62
    2
 10
1169.9580190039651
 20
1070.9247243128104
 11
1196.091801544183
 21
1097.0585068530288
  0
LINE
  8
_0-0_
  6
CONTINUOUS
 62
    2
 10
1169.9580190039642
 20
1077.9957921246744
 11
1189.0207337323191
 21
1097.0585068530293
  0
LINE
  8
_0-0_
  6
CONTINUOUS
 62
    2
 10
1169.9580190039633
 20
1085.0668599365397
 11
1181.9496659204542
 21
1097.0585068530306
  0
LINE
  8
_0-0_
  6
CONTINUOUS
 62
    2
 10
1169.9580190039651
 20
1092.1379277484068
 11
1174.8785981085866
 21
1097.0585068530288
  0
TEXT
  8
_0-0_
 62
    7
 10
1434.7975178984007
 20
1291.8369202607057
 40
30
 41
1
 50
0
  1
補強布
  0
POINT
  8
_0-0_
 62
    7
 10
1192.4413703799428
 20
1083.4042337209089
  0
TEXT
  8
_0-0_
 62
    7
 10
943.68197531097223
 20
1342.73368240785
 40
30
 41
1
 50
0
  1
ｼｰﾘﾝｸﾞ
  0
TEXT
  8
_0-0_
 62
    7
 10
696.13606690525205
 20
1577.3565543671132
 40
30
 41
1
 50
0
  1
図面番号：meji-shinshuku
  0
ENDSEC
  0
EOF
