  0
SECTION
  2
HEADER
  9
$ACADVER
  1
AC1009
  9
$INSBASE
 10
0
 20
0
 30
0
  9
$EXTMIN
 10
0
 20
0
  9
$EXTMAX
 10
2378
 20
1682
  9
$LIMMIN
 10
0
 20
0
  9
$LIMMAX
 10
2378
 20
1682
  9
$LTSCALE
 40
1
  0
ENDSEC
  0
SECTION
  2
TABLES
  0
TABLE
  2
LTYPE
 70
     9
  0
LTYPE
  2
CONTINUOUS
 70
    64
  3
実線
 72
    65
 73
     0
 40
0.0
  0
LTYPE
  2
DASHED1
 70
    64
  3
--  --  --  --  --  --  --  --  
 72
    65
 73
     2
 40
2.5
 49
1.25
 49
-1.25
  0
LTYPE
  2
DASHED2
 70
    64
  3
----    ----    ----    ----    
 72
    65
 73
     2
 40
5.0
 49
2.5
 49
-2.5
  0
LTYPE
  2
DASHED3
 70
    64
  3
------  ------  ------  ------  
 72
    65
 73
     2
 40
5.0
 49
3.75
 49
-1.25
  0
LTYPE
  2
CENTER1
 70
    64
  3
----- - ----- - ----- - ----- - 
 72
    65
 73
     4
 40
10.0
 49
6.25
 49
-1.25
 49
1.25
 49
-1.25
  0
LTYPE
  2
CENTER2
 70
    64
  3
----------  --  ----------  --  
 72
    65
 73
     4
 40
20.0
 49
12.5
 49
-2.5
 49
2.5
 49
-2.5
  0
LTYPE
  2
PHANTOM1
 70
    64
  3
--- - - --- - - --- - - --- - - 
 72
    65
 73
     6
 40
10.0
 49
3.25
 49
-1.25
 49
1.25
 49
-1.25
 49
1.25
 49
-1.25
  0
LTYPE
  2
PHANTOM2
 70
    64
  3
--------  -  -  --------  -  -  
 72
    65
 73
     6
 40
20.0
 49
10.0
 49
-2.5
 49
1.25
 49
-2.5
 49
1.25
 49
-2.5
  0
LTYPE
  2
DOT
 70
    64
  3
-   -   -   -   -   -   -   -   
 72
    65
 73
     2
 40
2.5
 49
0.625
 49
-1.875
  0
LTYPE
  2
DUMMY
 70
    64
  3
ダミー
 72
    65
 73
     0
 40
0.0
  0
LTYPE
  2
RAND1
 70
    64
  3
ランダム線1
 72
    65
 73
     4
 40
10.0
 49
1.0
 49
-2.0
 49
3.0
 49
-4.0
  0
LTYPE
  2
RAND2
 70
    64
  3
ランダム線2
 72
    65
 73
     4
 40
14.0
 49
2.0
 49
-3.0
 49
4.0
 49
-5.0
  0
LTYPE
  2
RAND3
 70
    64
  3
ランダム線3
 72
    65
 73
     4
 40
18.0
 49
3.0
 49
-4.0
 49
5.0
 49
-6.0
  0
LTYPE
  2
RAND4
 70
    64
  3
ランダム線4
 72
    65
 73
     4
 40
22.0
 49
4.0
 49
-5.0
 49
6.0
 49
-7.0
  0
LTYPE
  2
RAND5
 70
    64
  3
ランダム線5
 72
    65
 73
     4
 40
26.0
 49
5.0
 49
-6.0
 49
7.0
 49
-8.0
  0
LTYPE
  2
LONG1
 70
    64
  3
----------  --  ----------  --  
 72
    65
 73
     4
 40
40.0
 49
32.5
 49
-2.5
 49
2.5
 49
-2.5
  0
LTYPE
  2
LONG2
 70
    64
  3
--------  -  -  --------  -  -  
 72
    65
 73
     6
 40
40.0
 49
30.0
 49
-2.5
 49
1.25
 49
-2.5
 49
1.25
 49
-2.5
  0
LTYPE
  2
LONG3
 70
    64
  3
+++++++++++++++..+++++++++++++++
 72
    65
 73
     2
 40
40.0
 49
37.5
 49
-2.5
  0
LTYPE
  2
LONG4
 70
    64
  3
+++++++++++++++..+++++++++++++++
 72
    65
 73
     2
 40
80.0
 49
75.0
 49
-5.0
  0
LTYPE
  2
LONG5
 70
    64
  3
----------  --  ----------  --  
 72
    65
 73
     4
 40
60.0
 49
37.5
 49
-7.5
 49
7.5
 49
-7.5
  0
LTYPE
  2
dashed
 70
   64
  3
-------   -------------   ------
 72
   65
 73
    2
 40
7.5
 49
6
 49
-1.5
  0
LTYPE
  2
dashed_spaced
 70
   64
  3
----        --------        ----
 72
   65
 73
    2
 40
12
 49
6
 49
-6
  0
LTYPE
  2
long_dashed_dotted
 70
   64
  3
------------- --- --------------
 72
   65
 73
    4
 40
15.25
 49
12
 49
-1.5
 49
0.25
 49
-1.5
  0
LTYPE
  2
long_dashed_double-dotted
 70
   64
  3
----------- --- --- ------------
 72
   65
 73
    6
 40
17
 49
12
 49
-1.5
 49
0.25
 49
-1.5
 49
0.25
 49
-1.5
  0
LTYPE
  2
long_dashed_triplicate-dotted
 70
   64
  3
--------- --- --- --- ----------
 72
   65
 73
    8
 40
18.75
 49
12
 49
-1.5
 49
0.25
 49
-1.5
 49
0.25
 49
-1.5
 49
0.25
 49
-1.5
  0
LTYPE
  2
dotted
 70
   64
  3
   -       -       -       -    
 72
   65
 73
    2
 40
1.75
 49
0.25
 49
-1.5
  0
LTYPE
  2
chain
 70
   64
  3
-------------- -- --------------
 72
   65
 73
    4
 40
18.5
 49
12
 49
-1.5
 49
3.5
 49
-1.5
  0
LTYPE
  2
chain_double_dash
 70
   64
  3
------------ -- -- -------------
 72
   65
 73
    6
 40
23.5
 49
12
 49
-1.5
 49
3.5
 49
-1.5
 49
3.5
 49
-1.5
  0
LTYPE
  2
dashed_dotted
 70
   64
  3
-----------     -     ----------
 72
   65
 73
    4
 40
9.25
 49
6
 49
-1.5
 49
0.25
 49
-1.5
  0
LTYPE
  2
double-dashed_dotted
 70
   64
  3
------   -----------   -   -----
 72
   65
 73
    6
 40
16.75
 49
6
 49
-1.5
 49
6
 49
-1.5
 49
0.25
 49
-1.5
  0
LTYPE
  2
dashed_double-dotted
 70
   64
  3
---------    -    -    ---------
 72
   65
 73
    6
 40
11
 49
6
 49
-1.5
 49
0.25
 49
-1.5
 49
0.25
 49
-1.5
  0
LTYPE
  2
double-dashed_double-dotted
 70
   64
  3
-----   ---------   -   -   ----
 72
   65
 73
    8
 40
18.5
 49
6
 49
-1.5
 49
6
 49
-1.5
 49
0.25
 49
-1.5
 49
0.25
 49
-1.5
  0
LTYPE
  2
dashed_triplicate-dotted
 70
   64
  3
-------    -    -    -    ------
 72
   65
 73
    8
 40
12.75
 49
6
 49
-1.5
 49
0.25
 49
-1.5
 49
0.25
 49
-1.5
 49
0.25
 49
-1.5
  0
LTYPE
  2
double-dashed_triplicate-dotted
 70
   64
  3
-----  ---------  -  -  -  -----
 72
   65
 73
   10
 40
20.25
 49
6
 49
-1.5
 49
6
 49
-1.5
 49
0.25
 49
-1.5
 49
0.25
 49
-1.5
 49
0.25
 49
-1.5
  0
LTYPE
  2
undefined
 70
   64
  3
--------------------------------
 72
   65
 73
    0
 40
0
  0
ENDTAB
  0
TABLE
  2
STYLE
  5
3
100
AcDbSymbolTable
 70
     1
  0
STYLE
  5
10
100
AcDbSymbolTableRecord
100
AcDbTextStyleTableRecord
  2
STANDARD
 70
     0
 40
0.0
 41
1.0
 50
0.0
 71
     0
 42
0.2
  3
txt
  4
bigfont.shx
  0
STYLE
  5
26
100
AcDbSymbolTableRecord
100
AcDbTextStyleTableRecord
  2
TATEGAKI
 70
    68
 40
0.0
 41
1.0
 50
0.0
 71
     0
 42
1.0
  3
txt
  4
bigfont.shx
  0
ENDTAB
  0
TABLE
  2
LAYER
 70
    2
  0
LAYER
  2
_0-0_
 70
   64
 62
    7
  6
CONTINUOUS
  0
LAYER
  2
ADD_LINE
 70
   64
 62
    7
  6
CONTINUOUS
  0
ENDTAB
  0
ENDSEC
  0
SECTION
  2
BLOCKS
  0
ENDSEC
  0
SECTION
  2
ENTITIES
  0
LINE
  8
_0-0_
  6
CONTINUOUS
 62
    2
 10
873.44191446582238
 20
416.90498708782457
 11
891.29690681604654
 21
434.75997943804964
  0
LINE
  8
_0-0_
  6
CONTINUOUS
 62
    3
 10
924.74627587860152
 20
1278.0365555609226
 11
866.42549915611301
 21
1278.0365555609226
  0
LINE
  8
_0-0_
  6
CONTINUOUS
 62
    7
 10
1013.505623599228
 20
1268.1180027107077
 11
1023.925499156113
 21
1257.3279057056282
  0
LINE
  8
_0-0_
  6
CONTINUOUS
 62
    4
 10
1016.1377012032918
 20
1274.0297458012049
 11
1029.9254991561129
 21
1259.7520630606389
  0
LINE
  8
_0-0_
  6
CONTINUOUS
 62
    3
 10
924.74627587860152
 20
1270.5365555609226
 11
873.92549915611301
 21
1270.5365555609226
  0
LINE
  8
_0-0_
  6
CONTINUOUS
 62
    3
 10
873.92549915611301
 20
1270.5365555609226
 11
873.92549915611301
 21
1188.0365555609226
  0
LINE
  8
_0-0_
  6
CONTINUOUS
 62
    3
 10
866.42549915611301
 20
1278.0365555609226
 11
866.42549915611301
 21
1188.0365555609226
  0
LINE
  8
_0-0_
  6
CONTINUOUS
 62
    3
 10
873.92549915611301
 20
1188.0365555609226
 11
866.42549915611301
 21
1188.0365555609226
  0
LINE
  8
_0-0_
  6
CONTINUOUS
 62
    3
 10
873.92549915611301
 20
1180.5365555609226
 11
866.42549915611301
 21
1180.5365555609226
  0
LINE
  8
_0-0_
  6
CONTINUOUS
 62
    3
 10
870.17549915611301
 20
1188.0365555609226
 11
870.17549915611301
 21
1180.5365555609226
  0
LINE
  8
_0-0_
  6
CONTINUOUS
 62
    7
 10
873.92549915611301
 20
1246.541307509626
 11
897.92074720740959
 21
1270.5365555609226
  0
LINE
  8
_0-0_
  6
CONTINUOUS
 62
    7
 10
873.92549915611301
 20
1239.4702396977611
 11
904.99181501927444
 21
1270.5365555609226
  0
LINE
  8
_0-0_
  6
CONTINUOUS
 62
    7
 10
873.92549915611391
 20
1232.3991718858972
 11
912.06288283113929
 21
1270.5365555609226
  0
LINE
  8
_0-0_
  6
CONTINUOUS
 62
    7
 10
939.74627587860152
 20
1270.6937358903208
 11
939.74627587860152
 21
1255.6937358903208
  0
LINE
  8
_0-0_
  6
CONTINUOUS
 62
    7
 10
939.74627587860152
 20
1255.6937358903208
 11
924.74627587860152
 21
1255.6937358903208
  0
LINE
  8
_0-0_
  6
CONTINUOUS
 62
    7
 10
924.74627587860152
 20
1255.6937358903208
 11
924.74627587860152
 21
1270.6937358903208
  0
LINE
  8
_0-0_
  6
CONTINUOUS
 62
    3
 10
924.74627587860152
 20
1278.0365555609226
 11
924.74627587860152
 21
1270.5365555609226
  0
LINE
  8
_0-0_
  6
CONTINUOUS
 62
    7
 10
1013.505623599228
 20
1268.1180027107077
 11
939.74627587860152
 21
1270.6937358903208
  0
LINE
  8
_0-0_
  6
CONTINUOUS
 62
    4
 10
935.74627587860152
 20
1276.8370762340812
 11
1016.1377012032918
 21
1274.0297458012049
  0
LINE
  8
_0-0_
  6
CONTINUOUS
 62
    4
 10
935.74627587860152
 20
1261.6937358903208
 11
924.74627587860152
 21
1261.6937358903208
  0
LINE
  8
_0-0_
  6
CONTINUOUS
 62
    4
 10
935.74627587860152
 20
1276.8370762340812
 11
935.74627587860152
 21
1261.6937358903208
  0
ARC
  8
_0-0_
  6
CONTINUOUS
 62
    2
 10
942.49073712220536
 20
1389.7264324549644
 40
113.0906472942477
 50
260.97271697893774
 51
266.5809851959296
  0
LINE
  8
_0-0_
  6
CONTINUOUS
 62
    2
 10
934.28415093775141
 20
1261.6937358903208
 11
935.74627587860152
 21
1263.1558608311709
  0
LINE
  8
_0-0_
  6
CONTINUOUS
 62
    2
 10
931.45572381300474
 20
1261.6937358903208
 11
935.74627587860152
 21
1265.9842879559176
  0
LINE
  8
_0-0_
  6
CONTINUOUS
 62
    2
 10
928.62729668825807
 20
1261.6937358903208
 11
935.74627587860152
 21
1268.8127150806642
  0
LINE
  8
_0-0_
  6
CONTINUOUS
 62
    2
 10
925.79886956351231
 20
1261.6937358903199
 11
935.74627587860152
 21
1271.6411422054091
  0
LINE
  8
_0-0_
  6
CONTINUOUS
 62
    2
 10
924.74627587860061
 20
1263.4695693301549
 11
935.74627587860152
 21
1274.4695693301558
  0
LINE
  8
_0-0_
  6
CONTINUOUS
 62
    2
 10
924.74627587860243
 20
1266.2979964549033
 11
935.31213117918207
 21
1276.863851755483
  0
LINE
  8
_0-0_
  6
CONTINUOUS
 62
    2
 10
924.74627587860152
 20
1269.1264235796482
 11
932.68182803425691
 21
1277.0619757353036
  0
LINE
  8
_0-0_
  6
CONTINUOUS
 62
    2
 10
924.74627587860152
 20
1271.9548507043939
 11
930.10725382804424
 21
1277.3158286538367
  0
LINE
  8
_0-0_
  6
CONTINUOUS
 62
    2
 10
924.74627587860061
 20
1274.7832778291397
 11
927.58535364371994
 21
1277.622355594259
  0
LINE
  8
_0-0_
  6
CONTINUOUS
 62
    2
 10
924.74627587860061
 20
1277.6117049538864
 11
925.11341626769183
 21
1277.9788453429776
  0
LINE
  8
_0-0_
  6
CONTINUOUS
 62
    3
 10
870.17549915611301
 20
775.53655556092258
 11
870.17549915611301
 21
768.03655556092258
  0
LINE
  8
_0-0_
  6
CONTINUOUS
 62
    7
 10
672.13606690525205
 20
567.53106997205509
 11
1706.8525777203677
 21
567.53106997205509
  0
LINE
  8
_0-0_
  6
CONTINUOUS
 62
    7
 10
672.13606690525205
 20
167.53106997205509
 11
1706.8525777203677
 21
167.53106997205509
  0
LINE
  8
_0-0_
  6
CONTINUOUS
 62
    7
 10
672.13606690525205
 20
627.53106997205509
 11
1706.8525777203677
 21
627.53106997205509
  0
LINE
  8
_0-0_
  6
CONTINUOUS
 62
    7
 10
1189.4943223128103
 20
627.53106997205509
 11
1189.4943223128103
 21
167.53106997205509
  0
LINE
  8
_0-0_
  6
CONTINUOUS
 62
    7
 10
672.13606690525205
 20
1633.3565543671132
 11
672.13606690525205
 21
167.53106997205509
  0
LINE
  8
_0-0_
  6
CONTINUOUS
 62
    7
 10
1706.8525777203677
 20
1633.3565543671132
 11
1706.8525777203677
 21
167.53106997205509
  0
LINE
  8
_0-0_
  6
CONTINUOUS
 62
    7
 10
1093.3410852713168
 20
772.9922480620146
 11
1373.3410852713178
 21
1052.9922480620155
  0
LINE
  8
_0-0_
  6
CONTINUOUS
 62
    7
 10
1086.2700174594529
 20
772.99224806201551
 11
1366.2700174594529
 21
1052.9922480620146
  0
LINE
  8
_0-0_
  6
CONTINUOUS
 62
    7
 10
873.92549915611391
 20
779.85083192650677
 11
1147.0669152916225
 21
1052.9922480620146
  0
LINE
  8
_0-0_
  6
CONTINUOUS
 62
    7
 10
873.92549915611301
 20
786.92189973837071
 11
1139.9958474797568
 21
1052.9922480620146
  0
LINE
  8
_0-0_
  6
CONTINUOUS
 62
    7
 10
873.92549915611301
 20
793.99296755023647
 11
1132.9247796678928
 21
1052.9922480620146
  0
LINE
  8
_0-0_
  6
CONTINUOUS
 62
    7
 10
873.92549915611391
 20
1006.125001906202
 11
1023.925499156113
 21
1156.1250019062011
  0
LINE
  8
_0-0_
  6
CONTINUOUS
 62
    7
 10
873.92549915611301
 20
1013.1960697180659
 11
1023.9254991561139
 21
1163.1960697180668
  0
LINE
  8
_0-0_
  6
CONTINUOUS
 62
    7
 10
873.92549915611301
 20
1020.2671375299308
 11
1023.925499156113
 21
1170.2671375299308
  0
LINE
  8
_0-0_
  6
CONTINUOUS
 62
    7
 10
1223.9254991561129
 20
872.99224806201551
 11
1523.9254991561129
 21
872.99224806201551
  0
LINE
  8
_0-0_
  6
CONTINUOUS
 62
    7
 10
1223.9254991561129
 20
872.99224806201551
 11
1223.9254991561129
 21
772.99224806201551
  0
LINE
  8
_0-0_
  6
CONTINUOUS
 62
    7
 10
1405.4731196272833
 20
872.99224806201551
 11
1523.9254991561138
 21
991.44462759084604
  0
LINE
  8
_0-0_
  6
CONTINUOUS
 62
    7
 10
1412.5441874391481
 20
872.99224806201551
 11
1523.9254991561129
 21
984.37355977898028
  0
LINE
  8
_0-0_
  6
CONTINUOUS
 62
    7
 10
1419.615255251013
 20
872.99224806201551
 11
1523.9254991561138
 21
977.30249196711543
  0
LINE
  8
_0-0_
  6
CONTINUOUS
 62
    7
 10
1079.1989496475881
 20
772.99224806201551
 11
1359.1989496475881
 21
1052.9922480620155
  0
CIRCLE
  8
_0-0_
  6
DASHED2
 62
    1
 10
951.16433613602578
 20
1269.5458920707845
 40
94.513505632925799
  0
TEXT
  8
_0-0_
 62
    7
 10
941.25844822473857
 20
1351.4850665766119
 40
24
 41
1
 50
0
  1
Ａ
  0
LINE
  8
_0-0_
  6
CONTINUOUS
 62
    4
 10
1110.0951668402231
 20
395.81267592005338
 11
1110.0951668402231
 21
252.65735719276404
  0
LINE
  8
_0-0_
  6
CONTINUOUS
 62
    7
 10
1096.5951668402231
 20
252.65735719276404
 11
1096.5951668402231
 21
390.35832187127949
  0
TEXT
  8
_0-0_
 62
    7
 10
906.73245032900388
 20
575.67973412101151
 40
40
 41
1
 50
0
  1
Ａ
  0
TEXT
  8
_0-0_
 62
    7
 10
1429.6891920142098
 20
576.02721287347708
 40
40
 41
1
 50
0
  1
Ｂ
  0
LINE
  8
_0-0_
  6
CONTINUOUS
 62
    3
 10
873.92549915611301
 20
1105.5365555609226
 11
866.42549915611301
 21
1105.5365555609226
  0
LINE
  8
_0-0_
  6
CONTINUOUS
 62
    3
 10
873.92549915611301
 20
1098.0365555609226
 11
866.42549915611301
 21
1098.0365555609226
  0
LINE
  8
_0-0_
  6
CONTINUOUS
 62
    3
 10
873.92549915611301
 20
1023.0365555609226
 11
866.42549915611301
 21
1023.0365555609226
  0
LINE
  8
_0-0_
  6
CONTINUOUS
 62
    3
 10
873.92549915611301
 20
1015.5365555609226
 11
866.42549915611301
 21
1015.5365555609226
  0
LINE
  8
_0-0_
  6
CONTINUOUS
 62
    3
 10
873.92549915611301
 20
940.53655556092258
 11
866.42549915611301
 21
940.53655556092258
  0
LINE
  8
_0-0_
  6
CONTINUOUS
 62
    3
 10
873.92549915611301
 20
933.03655556092258
 11
866.42549915611301
 21
933.03655556092258
  0
LINE
  8
_0-0_
  6
CONTINUOUS
 62
    3
 10
873.92549915611301
 20
858.03655556092258
 11
866.42549915611301
 21
858.03655556092258
  0
LINE
  8
_0-0_
  6
CONTINUOUS
 62
    3
 10
873.92549915611301
 20
850.53655556092258
 11
866.42549915611301
 21
850.53655556092258
  0
LINE
  8
_0-0_
  6
CONTINUOUS
 62
    3
 10
873.92549915611301
 20
775.53655556092258
 11
866.42549915611301
 21
775.53655556092258
  0
LINE
  8
_0-0_
  6
CONTINUOUS
 62
    3
 10
866.42549915611301
 20
1180.5365555609226
 11
866.42549915611301
 21
1105.5365555609226
  0
LINE
  8
_0-0_
  6
CONTINUOUS
 62
    3
 10
866.42549915611301
 20
1098.0365555609226
 11
866.42549915611301
 21
1023.0365555609226
  0
LINE
  8
_0-0_
  6
CONTINUOUS
 62
    3
 10
873.92549915611301
 20
1180.5365555609226
 11
873.92549915611301
 21
1105.5365555609226
  0
LINE
  8
_0-0_
  6
CONTINUOUS
 62
    3
 10
873.92549915611301
 20
1098.0365555609226
 11
873.92549915611301
 21
1023.0365555609226
  0
LINE
  8
_0-0_
  6
CONTINUOUS
 62
    3
 10
873.92549915611301
 20
1015.5365555609226
 11
873.92549915611301
 21
940.53655556092258
  0
LINE
  8
_0-0_
  6
CONTINUOUS
 62
    3
 10
873.92549915611301
 20
933.03655556092258
 11
873.92549915611301
 21
858.03655556092258
  0
LINE
  8
_0-0_
  6
CONTINUOUS
 62
    3
 10
873.92549915611301
 20
850.53655556092258
 11
873.92549915611301
 21
775.53655556092258
  0
LINE
  8
_0-0_
  6
CONTINUOUS
 62
    3
 10
866.42549915611301
 20
1015.5365555609226
 11
866.42549915611301
 21
940.53655556092258
  0
LINE
  8
_0-0_
  6
CONTINUOUS
 62
    3
 10
866.42549915611301
 20
933.03655556092258
 11
866.42549915611301
 21
858.03655556092258
  0
LINE
  8
_0-0_
  6
CONTINUOUS
 62
    3
 10
866.42549915611301
 20
850.53655556092258
 11
866.42549915611301
 21
775.53655556092258
  0
LINE
  8
_0-0_
  6
CONTINUOUS
 62
    3
 10
870.17549915611301
 20
1105.5365555609226
 11
870.17549915611301
 21
1098.0365555609226
  0
LINE
  8
_0-0_
  6
CONTINUOUS
 62
    3
 10
870.17549915611301
 20
1023.0365555609226
 11
870.17549915611301
 21
1015.5365555609226
  0
LINE
  8
_0-0_
  6
CONTINUOUS
 62
    3
 10
870.17549915611301
 20
940.53655556092258
 11
870.17549915611301
 21
933.03655556092258
  0
LINE
  8
_0-0_
  6
CONTINUOUS
 62
    3
 10
870.17549915611301
 20
858.03655556092258
 11
870.17549915611301
 21
850.53655556092258
  0
LINE
  8
_0-0_
  6
CONTINUOUS
 62
    7
 10
873.92549915611301
 20
1270.5365555609226
 11
873.92549915611301
 21
772.99224806201551
  0
LINE
  8
_0-0_
  6
CONTINUOUS
 62
    3
 10
873.44191446582238
 20
436.9527840456924
 11
742.22016684022321
 21
436.9527840456924
  0
LINE
  8
_0-0_
  6
CONTINUOUS
 62
    7
 10
1073.1504468372323
 20
414.63604013270856
 11
1096.5951668402231
 21
390.35832187127949
  0
LINE
  8
_0-0_
  6
CONTINUOUS
 62
    4
 10
1079.0726214463757
 20
427.93746208632751
 11
1110.0951668402231
 21
395.81267592005338
  0
LINE
  8
_0-0_
  6
CONTINUOUS
 62
    3
 10
873.44191446582238
 20
420.0777840456924
 11
759.09516684022321
 21
420.0777840456924
  0
LINE
  8
_0-0_
  6
CONTINUOUS
 62
    7
 10
759.09516684022321
 20
366.08847593027463
 11
813.08447495564099
 21
420.0777840456924
  0
LINE
  8
_0-0_
  6
CONTINUOUS
 62
    7
 10
759.09516684022321
 20
350.17857335357826
 11
828.99437753233644
 21
420.0777840456924
  0
LINE
  8
_0-0_
  6
CONTINUOUS
 62
    7
 10
759.09516684022503
 20
334.26867077688462
 11
844.9042801090319
 21
420.0777840456924
  0
LINE
  8
_0-0_
  6
CONTINUOUS
 62
    7
 10
907.19191446582238
 20
420.4314397868377
 11
907.19191446582238
 21
386.6814397868377
  0
LINE
  8
_0-0_
  6
CONTINUOUS
 62
    7
 10
907.19191446582238
 20
386.6814397868377
 11
873.44191446582238
 21
386.6814397868377
  0
LINE
  8
_0-0_
  6
CONTINUOUS
 62
    7
 10
873.44191446582238
 20
386.6814397868377
 11
873.44191446582238
 21
420.4314397868377
  0
LINE
  8
_0-0_
  6
CONTINUOUS
 62
    3
 10
873.44191446582238
 20
436.9527840456924
 11
873.44191446582238
 21
420.0777840456924
  0
LINE
  8
_0-0_
  6
CONTINUOUS
 62
    7
 10
1073.1504468372323
 20
414.63604013270856
 11
907.19191446582238
 21
420.4314397868377
  0
LINE
  8
_0-0_
  6
CONTINUOUS
 62
    4
 10
898.19191446582238
 20
434.25395556029912
 11
1079.0726214463757
 21
427.93746208632751
  0
LINE
  8
_0-0_
  6
CONTINUOUS
 62
    4
 10
898.19191446582238
 20
400.1814397868377
 11
873.44191446582238
 21
400.1814397868377
  0
LINE
  8
_0-0_
  6
CONTINUOUS
 62
    4
 10
898.19191446582238
 20
434.25395556029912
 11
898.19191446582238
 21
400.1814397868377
  0
ARC
  8
_0-0_
  6
CONTINUOUS
 62
    2
 10
913.36695226393124
 20
688.25500705728632
 40
254.45395641205732
 50
260.97271697893774
 51
266.5809851959296
  0
LINE
  8
_0-0_
  6
CONTINUOUS
 62
    2
 10
894.90213334891007
 20
400.1814397868377
 11
898.19191446582238
 21
403.47122090375092
  0
LINE
  8
_0-0_
  6
CONTINUOUS
 62
    2
 10
888.53817231823007
 20
400.1814397868377
 11
898.19191446582238
 21
409.83518193443092
  0
LINE
  8
_0-0_
  6
CONTINUOUS
 62
    2
 10
882.17421128755007
 20
400.1814397868377
 11
898.19191446582238
 21
416.19914296511092
  0
LINE
  8
_0-0_
  6
CONTINUOUS
 62
    2
 10
875.81025025687188
 20
400.18143978683588
 11
898.19191446582238
 21
422.56310399578638
  0
LINE
  8
_0-0_
  6
CONTINUOUS
 62
    2
 10
873.44191446582056
 20
404.17706502646456
 11
898.19191446582238
 21
428.92706502646638
  0
LINE
  8
_0-0_
  6
CONTINUOUS
 62
    2
 10
873.4419144658242
 20
410.5410260571482
 11
897.21508889212885
 21
434.31420048345285
  0
LINE
  8
_0-0_
  6
CONTINUOUS
 62
    2
 10
873.44191446582238
 20
423.26894811850275
 11
885.50411485206871
 21
435.33114850474908
  0
LINE
  8
_0-0_
  6
CONTINUOUS
 62
    2
 10
873.44191446582056
 20
429.63290914918093
 11
879.82983943733882
 21
436.02083412069919
  0
LINE
  8
_0-0_
  6
CONTINUOUS
 62
    2
 10
873.44191446582056
 20
435.99687017986093
 11
874.2679803412758
 21
436.82293605531618
  0
LINE
  8
_0-0_
  6
CONTINUOUS
 62
    3
 10
742.22016684022321
 20
436.9527840456924
 11
742.22016684022321
 21
252.65735719276404
  0
LINE
  8
_0-0_
  6
CONTINUOUS
 62
    3
 10
759.09516684022321
 20
420.0777840456924
 11
759.09516684022321
 21
252.65735719276404
  0
LINE
  8
_0-0_
  6
CONTINUOUS
 62
    7
 10
884.24025387602489
 20
415.67031022546712
 11
941.65834394223486
 21
515.12135949370827
  0
POINT
  8
_0-0_
 62
    7
 10
884.24025387602489
 20
415.67031022546712
  0
TEXT
  8
_0-0_
 62
    7
 10
943.97157890153233
 20
508.37830427547328
 40
21.617968000000001
 41
1
 50
0
  1
ｼｰﾘﾝｸﾞ
  0
LINE
  8
_0-0_
  6
CONTINUOUS
 62
    4
 10
1284.8174122492483
 20
540.46997988964654
 11
1284.8174122492483
 21
480.15661248479523
  0
LINE
  8
_0-0_
  6
CONTINUOUS
 62
    7
 10
1404.7070225560378
 20
341.14200217800612
 11
1489.820983586716
 21
341.14200217800612
  0
LINE
  8
_0-0_
  6
CONTINUOUS
 62
    7
 10
1275.8174122492483
 20
404.39557351547342
 11
1336.820983586716
 21
343.39200217800612
  0
LINE
  8
_0-0_
  6
CONTINUOUS
 62
    6
 10
1271.3174122492469
 20
308.45694812199258
 11
1288.2524663052623
 21
325.39200217800794
  0
LINE
  8
_0-0_
  6
CONTINUOUS
 62
    6
 10
1271.3174122492469
 20
276.63714296859803
 11
1320.0722714586568
 21
325.39200217800794
  0
LINE
  8
_0-0_
  6
CONTINUOUS
 62
    6
 10
1273.1420766120477
 20
246.6420021780043
 11
1351.8920766120477
 21
325.3920021780043
  0
LINE
  8
_0-0_
  6
CONTINUOUS
 62
    6
 10
1304.9618817654468
 20
246.64200217800794
 11
1383.7118817654468
 21
325.39200217800794
  0
LINE
  8
_0-0_
  6
CONTINUOUS
 62
    6
 10
1336.7816869188405
 20
246.64200217800794
 11
1415.5316869188405
 21
325.39200217800794
  0
LINE
  8
_0-0_
  6
CONTINUOUS
 62
    6
 10
1368.6014920722323
 20
246.64200217800612
 11
1447.3514920722314
 21
325.3920021780043
  0
LINE
  8
_0-0_
  6
CONTINUOUS
 62
    6
 10
1400.4212972256305
 20
246.64200217800794
 11
1479.1712972256305
 21
325.39200217800794
  0
LINE
  8
_0-0_
  6
CONTINUOUS
 62
    6
 10
1432.2411023790241
 20
246.64200217800794
 11
1510.9911023790241
 21
325.39200217800794
  0
LINE
  8
_0-0_
  6
CONTINUOUS
 62
    6
 10
1464.060907532416
 20
246.6420021780043
 11
1542.810907532416
 21
325.39200217800612
  0
LINE
  8
_0-0_
  6
CONTINUOUS
 62
    6
 10
1480.4189997034468
 20
325.3920021780043
 11
1559.1689997034468
 21
246.6420021780043
  0
LINE
  8
_0-0_
  6
CONTINUOUS
 62
    6
 10
1448.5991945500487
 20
325.39200217800794
 11
1527.3491945500487
 21
246.64200217800794
  0
LINE
  8
_0-0_
  6
CONTINUOUS
 62
    6
 10
1416.7793893966568
 20
325.3920021780043
 11
1495.5293893966559
 21
246.6420021780043
  0
LINE
  8
_0-0_
  6
CONTINUOUS
 62
    6
 10
1384.9595842432632
 20
325.3920021780043
 11
1463.7095842432623
 21
246.64200217800794
  0
LINE
  8
_0-0_
  6
CONTINUOUS
 62
    6
 10
1353.139779089865
 20
325.39200217800794
 11
1431.889779089865
 21
246.64200217800794
  0
LINE
  8
_0-0_
  6
CONTINUOUS
 62
    6
 10
1321.3199739364732
 20
325.3920021780043
 11
1400.0699739364732
 21
246.6420021780043
  0
LINE
  8
_0-0_
  6
CONTINUOUS
 62
    6
 10
1289.5001687830795
 20
325.3920021780043
 11
1368.2501687830795
 21
246.6420021780043
  0
LINE
  8
_0-0_
  6
CONTINUOUS
 62
    6
 10
1271.3174122492496
 20
311.75495355843964
 11
1336.4303636296813
 21
246.64200217800794
  0
LINE
  8
_0-0_
  6
CONTINUOUS
 62
    6
 10
1271.3174122492469
 20
279.9351484050469
 11
1304.6105584762877
 21
246.6420021780043
  0
LINE
  8
_0-0_
  6
CONTINUOUS
 62
    6
 10
1271.3174122492483
 20
248.11534325164871
 11
1272.7907533228909
 21
246.64200217800612
  0
LINE
  8
_0-0_
  6
CONTINUOUS
 62
    6
 10
1271.3174122492483
 20
325.39200217800612
 11
1271.3174122492483
 21
246.64200217800612
  0
LINE
  8
_0-0_
  6
CONTINUOUS
 62
    1
 10
1217.3174122492483
 20
437.21359300013432
 11
1218.8603099381912
 21
438.75649068907774
  0
LINE
  8
_0-0_
  6
CONTINUOUS
 62
    1
 10
1217.3174122492483
 20
437.21359300013432
 11
1218.8603099381912
 21
435.67069531119091
  0
LINE
  8
_0-0_
  6
DASHED1
 62
    1
 10
1218.8603099381912
 20
438.75649068907774
 11
1220.1299122492483
 21
440.02609300013432
  0
LINE
  8
_0-0_
  6
DASHED1
 62
    1
 10
1218.8603099381912
 20
435.67069531119091
 11
1220.1299122492483
 21
434.40109300013432
  0
LINE
  8
_0-0_
  6
CONTINUOUS
 62
    1
 10
1217.6668643615853
 20
430.54564947882614
 11
1217.4022766889389
 21
435.59428302647689
  0
LINE
  8
_0-0_
  6
CONTINUOUS
 62
    1
 10
1217.4022766889389
 20
438.83290297379176
 11
1217.6668643615853
 21
443.88153652144251
  0
LINE
  8
_0-0_
  6
CONTINUOUS
 62
    4
 10
1391.1432457700266
 20
363.64200217800612
 11
1408.0820225560378
 21
363.64200217800612
  0
LINE
  8
_0-0_
  6
CONTINUOUS
 62
    7
 10
1489.820983586716
 20
341.14200217800612
 11
1489.820983586716
 21
338.89200217800612
  0
LINE
  8
_0-0_
  6
CONTINUOUS
 62
    7
 10
1336.820983586716
 20
343.39200217800612
 11
1336.820983586716
 21
345.64200217800612
  0
LINE
  8
_0-0_
  6
CONTINUOUS
 62
    7
 10
1273.5674122492483
 20
472.28161248479523
 11
1278.0674122492483
 21
472.28161248479523
  0
LINE
  8
_0-0_
  6
CONTINUOUS
 62
    7
 10
1275.8174122492483
 20
404.39557351547342
 11
1278.0674122492483
 21
404.39557351547342
  0
LINE
  8
_0-0_
  6
CONTINUOUS
 62
    1
 10
1237.5674122492483
 20
431.58859300013432
 11
1217.6668643615853
 21
430.54564947882614
  0
LINE
  8
_0-0_
  6
CONTINUOUS
 62
    1
 10
1275.8174122492483
 20
431.58859300013432
 11
1275.8174122492483
 21
420.33859300013432
  0
LINE
  8
_0-0_
  6
CONTINUOUS
 62
    1
 10
1275.8174122492483
 20
442.83859300013432
 11
1275.8174122492483
 21
454.08859300013432
  0
LINE
  8
_0-0_
  6
CONTINUOUS
 62
    1
 10
1280.3174122492483
 20
441.31945770808602
 11
1280.3174122492483
 21
433.10772829218263
  0
LINE
  8
_0-0_
  6
CONTINUOUS
 62
    1
 10
1280.3174122492483
 20
441.31945770808579
 11
1278.3417636543277
 21
448.91496503245571
  0
LINE
  8
_0-0_
  6
CONTINUOUS
 62
    1
 10
1278.3417636543277
 20
448.91496503245571
 11
1275.8174122492483
 21
454.08859300013432
  0
LINE
  8
_0-0_
  6
CONTINUOUS
 62
    1
 10
1275.8174122492483
 20
420.33859300013432
 11
1279.1148272263617
 21
427.70585504351408
  0
LINE
  8
_0-0_
  6
CONTINUOUS
 62
    1
 10
1279.1148272263617
 20
427.70585504351408
 11
1280.3174122492483
 21
433.10772829218286
  0
LINE
  8
_0-0_
  6
CONTINUOUS
 62
    1
 10
1280.6961516432946
 20
433.88649003066729
 11
1280.3174122492483
 21
434.40109300013432
  0
LINE
  8
_0-0_
  6
CONTINUOUS
 62
    1
 10
1280.3174122492483
 20
440.02609300013432
 11
1280.6961516432946
 21
440.54069596960136
  0
LINE
  8
_0-0_
  6
CONTINUOUS
 62
    1
 10
1280.6961516432946
 20
433.88649003066712
 11
1280.7626159118211
 21
434.46317544542757
  0
LINE
  8
_0-0_
  6
CONTINUOUS
 62
    1
 10
1280.7626159118211
 20
434.46317544542757
 11
1280.8155528923439
 21
435.12343090580936
  0
LINE
  8
_0-0_
  6
CONTINUOUS
 62
    1
 10
1280.8155528923439
 20
435.12343090580936
 11
1280.8533541214979
 21
435.84719488375413
  0
LINE
  8
_0-0_
  6
CONTINUOUS
 62
    1
 10
1280.8533541214979
 20
435.84719488375413
 11
1280.8748710280634
 21
436.61247617703435
  0
LINE
  8
_0-0_
  6
CONTINUOUS
 62
    1
 10
1280.8748710280634
 20
436.61247617703435
 11
1280.879449831722
 21
437.39602210080466
  0
LINE
  8
_0-0_
  6
CONTINUOUS
 62
    1
 10
1280.879449831722
 20
437.39602210080466
 11
1280.866951407842
 21
438.17402500866467
  0
LINE
  8
_0-0_
  6
CONTINUOUS
 62
    1
 10
1280.866951407842
 20
438.17402500866467
 11
1280.8377555147085
 21
438.92284567594754
  0
LINE
  8
_0-0_
  6
CONTINUOUS
 62
    1
 10
1280.8377555147085
 20
438.92284567594754
 11
1280.7927492547603
 21
439.61973156559941
  0
LINE
  8
_0-0_
  6
CONTINUOUS
 62
    1
 10
1280.7927492547603
 20
439.61973156559941
 11
1280.7333001204317
 21
440.24350815250449
  0
LINE
  8
_0-0_
  6
CONTINUOUS
 62
    1
 10
1280.7333001204317
 20
440.24350815250449
 11
1280.6961516432946
 21
440.54069596960136
  0
LINE
  8
_0-0_
  6
DASHED1
 62
    1
 10
1280.3174122492483
 20
440.02609300013432
 11
1220.1299122492483
 21
440.02609300013432
  0
LINE
  8
_0-0_
  6
DASHED1
 62
    1
 10
1280.3174122492483
 20
434.40109300013432
 11
1220.1299122492483
 21
434.40109300013432
  0
LINE
  8
_0-0_
  6
CONTINUOUS
 62
    1
 10
1237.5674122492483
 20
442.83859300013432
 11
1275.8174122492483
 21
442.83859300013432
  0
LINE
  8
_0-0_
  6
CONTINUOUS
 62
    1
 10
1237.5674122492483
 20
442.83859300013432
 11
1217.6668643615853
 21
443.88153652144251
  0
LINE
  8
_0-0_
  6
CONTINUOUS
 62
    1
 10
1237.5674122492483
 20
437.77609300013432
 11
1217.4022766889389
 21
438.83290297379176
  0
LINE
  8
_0-0_
  6
CONTINUOUS
 62
    1
 10
1237.5674122492483
 20
431.58859300013432
 11
1275.8174122492483
 21
431.58859300013432
  0
LINE
  8
_0-0_
  6
CONTINUOUS
 62
    1
 10
1237.5674122492483
 20
436.65109300013432
 11
1217.4022766889389
 21
435.59428302647689
  0
LINE
  8
_0-0_
  6
CONTINUOUS
 62
    1
 10
1237.5674122492483
 20
436.65109300013432
 11
1237.5674122492483
 21
437.77609300013432
  0
LINE
  8
_0-0_
  6
CONTINUOUS
 62
    7
 10
1278.0674122492483
 20
404.39557351547342
 11
1278.0674122492483
 21
419.77672643442497
  0
LINE
  8
_0-0_
  6
CONTINUOUS
 62
    7
 10
1278.0674122492483
 20
454.65045956584368
 11
1278.0674122492483
 21
472.28161248479523
  0
LINE
  8
_0-0_
  6
CONTINUOUS
 62
    7
 10
1278.0674122492483
 20
419.7767264344252
 11
1281.4072910500499
 21
427.53469548197802
  0
LINE
  8
_0-0_
  6
CONTINUOUS
 62
    7
 10
1281.4072910500499
 20
427.53469548197802
 11
1282.7998313145329
 21
435.5867529328616
  0
LINE
  8
_0-0_
  6
CONTINUOUS
 62
    7
 10
1282.7998313145329
 20
435.5867529328616
 11
1282.20272141142
 21
443.68824109596846
  0
LINE
  8
_0-0_
  6
CONTINUOUS
 62
    7
 10
1282.20272141142
 20
443.68824109596846
 11
1279.6341042229653
 21
451.59300035301339
  0
LINE
  8
_0-0_
  6
CONTINUOUS
 62
    7
 10
1279.6341042229653
 20
451.59300035301339
 11
1278.0674122492483
 21
454.65045956584345
  0
LINE
  8
_0-0_
  6
CENTER2
 62
    1
 10
1292.6704247205166
 20
437.21359300013432
 11
1207.6720572425179
 21
437.21359300013432
  0
LINE
  8
_0-0_
  6
CONTINUOUS
 62
    4
 10
1289.3174122492483
 20
409.9874566075116
 11
1289.3174122492483
 21
417.15570802278967
  0
LINE
  8
_0-0_
  6
CONTINUOUS
 62
    4
 10
1289.3174122492483
 20
417.15570802279018
 11
1292.8506046016882
 21
426.87185744774717
  0
LINE
  8
_0-0_
  6
CONTINUOUS
 62
    4
 10
1292.8506046016882
 20
426.87185744774717
 11
1294.0887591261387
 21
436.90223527429276
  0
LINE
  8
_0-0_
  6
CONTINUOUS
 62
    4
 10
1294.0887591261387
 20
436.90223527429276
 11
1292.9942551239108
 21
446.94207354778348
  0
LINE
  8
_0-0_
  6
CONTINUOUS
 62
    4
 10
1292.9942551239108
 20
446.94207354778348
 11
1289.6003485452666
 21
456.68631686268253
  0
LINE
  8
_0-0_
  6
CONTINUOUS
 62
    4
 10
1289.6003485452666
 20
456.68631686268253
 11
1289.3174122492483
 21
457.27147797747847
  0
LINE
  8
_0-0_
  6
CONTINUOUS
 62
    4
 10
1289.3174122492483
 20
457.27147797747807
 11
1289.3174122492483
 21
475.65661248479523
  0
LINE
  8
_0-0_
  6
CONTINUOUS
 62
    4
 10
1289.3174122492483
 20
475.65661248479523
 11
1284.8174122492483
 21
480.15661248479523
  0
LINE
  8
_0-0_
  6
CONTINUOUS
 62
    7
 10
1404.7070225560378
 20
341.14200217800612
 11
1404.7070225560378
 21
345.64200217800612
  0
LINE
  8
_0-0_
  6
CONTINUOUS
 62
    7
 10
1336.820983586716
 20
345.64200217800612
 11
1352.2021365056667
 21
345.64200217800612
  0
LINE
  8
_0-0_
  6
CONTINUOUS
 62
    7
 10
1387.0758696370872
 20
345.64200217800612
 11
1404.7070225560378
 21
345.64200217800612
  0
LINE
  8
_0-0_
  6
CONTINUOUS
 62
    7
 10
1387.0758696370851
 20
345.64200217800612
 11
1379.3179005895322
 21
348.98188097880791
  0
LINE
  8
_0-0_
  6
CONTINUOUS
 62
    7
 10
1379.3179005895322
 20
348.98188097880791
 11
1371.2658431386487
 21
350.37442124329084
  0
LINE
  8
_0-0_
  6
CONTINUOUS
 62
    7
 10
1371.2658431386487
 20
350.37442124329084
 11
1363.164354975542
 21
349.7773113401779
  0
LINE
  8
_0-0_
  6
CONTINUOUS
 62
    7
 10
1363.164354975542
 20
349.7773113401779
 11
1355.2595957184969
 21
347.20869415172314
  0
LINE
  8
_0-0_
  6
CONTINUOUS
 62
    7
 10
1355.2595957184969
 20
347.20869415172314
 11
1352.2021365056669
 21
345.64200217800612
  0
LINE
  8
_0-0_
  6
CONTINUOUS
 62
    4
 10
1289.3174122492483
 20
409.9874566075116
 11
1335.6628666787542
 21
363.64200217800612
  0
LINE
  8
_0-0_
  6
CONTINUOUS
 62
    4
 10
1335.6628666787542
 20
363.64200217800612
 11
1348.1347603727277
 21
363.64200217800612
  0
LINE
  8
_0-0_
  6
CONTINUOUS
 62
    4
 10
1391.1432457700259
 20
363.64200217800612
 11
1380.2495570855367
 21
367.27802347139664
  0
LINE
  8
_0-0_
  6
CONTINUOUS
 62
    4
 10
1380.2495570855367
 20
367.27802347139664
 11
1369.0334720865264
 21
368.41078719712573
  0
LINE
  8
_0-0_
  6
CONTINUOUS
 62
    4
 10
1369.0334720865264
 20
368.41078719712573
 11
1357.8357858400775
 21
367.00587490259335
  0
LINE
  8
_0-0_
  6
CONTINUOUS
 62
    4
 10
1357.8357858400775
 20
367.00587490259335
 11
1348.1347603727261
 21
363.64200217800612
  0
LINE
  8
_0-0_
  6
CONTINUOUS
 62
    4
 10
1408.0820225560378
 20
363.64200217800612
 11
1412.5820225560378
 21
359.14200217800612
  0
LINE
  8
_0-0_
  6
CONTINUOUS
 62
    7
 10
1271.3174122492483
 20
402.53161248479523
 11
1334.9570225560378
 21
338.89200217800612
  0
LINE
  8
_0-0_
  6
CONTINUOUS
 62
    7
 10
1334.9570225560378
 20
338.89200217800612
 11
1402.4570225560378
 21
338.89200217800612
  0
LINE
  8
_0-0_
  6
CONTINUOUS
 62
    7
 10
1402.4570225560378
 20
338.89200217800612
 11
1402.4570225560378
 21
343.39200217800612
  0
LINE
  8
_0-0_
  6
CONTINUOUS
 62
    7
 10
1271.3174122492483
 20
470.03161248479523
 11
1271.3174122492483
 21
402.53161248479523
  0
LINE
  8
_0-0_
  6
CONTINUOUS
 62
    7
 10
1271.3174122492483
 20
470.03161248479523
 11
1275.8174122492483
 21
470.03161248479523
  0
LINE
  8
_0-0_
  6
CONTINUOUS
 62
    7
 10
1275.8174122492483
 20
470.03161248479523
 11
1275.8174122492483
 21
404.39557351547342
  0
LINE
  8
_0-0_
  6
CONTINUOUS
 62
    7
 10
1336.820983586716
 20
343.39200217800612
 11
1402.4570225560378
 21
343.39200217800612
  0
LINE
  8
_0-0_
  6
DASHED1
 62
    1
 10
1366.826503071376
 20
347.89200217800612
 11
1366.826503071376
 21
188.70450217800612
  0
LINE
  8
_0-0_
  6
CONTINUOUS
 62
    1
 10
1365.5331383634243
 20
347.89200217800612
 11
1373.7448677793277
 21
347.89200217800612
  0
LINE
  8
_0-0_
  6
CONTINUOUS
 62
    1
 10
1365.5331383634245
 20
347.89200217800612
 11
1357.9376310390546
 21
345.91635358308559
  0
LINE
  8
_0-0_
  6
CONTINUOUS
 62
    1
 10
1357.9376310390546
 20
345.91635358308559
 11
1352.764003071376
 21
343.39200217800612
  0
LINE
  8
_0-0_
  6
CONTINUOUS
 62
    1
 10
1372.966106040843
 20
348.27074157205237
 11
1372.451503071376
 21
347.89200217800612
  0
LINE
  8
_0-0_
  6
CONTINUOUS
 62
    1
 10
1366.826503071376
 20
347.89200217800612
 11
1366.311900101909
 21
348.27074157205237
  0
LINE
  8
_0-0_
  6
CONTINUOUS
 62
    1
 10
1372.9661060408432
 20
348.27074157205237
 11
1372.3894206260827
 21
348.3372058405788
  0
LINE
  8
_0-0_
  6
CONTINUOUS
 62
    1
 10
1372.3894206260827
 20
348.3372058405788
 11
1371.729165165701
 21
348.3901428211019
  0
LINE
  8
_0-0_
  6
CONTINUOUS
 62
    1
 10
1371.729165165701
 20
348.3901428211019
 11
1371.0054011877562
 21
348.4279440502558
  0
LINE
  8
_0-0_
  6
CONTINUOUS
 62
    1
 10
1371.0054011877562
 20
348.4279440502558
 11
1370.240119894476
 21
348.4494609568211
  0
LINE
  8
_0-0_
  6
CONTINUOUS
 62
    1
 10
1370.240119894476
 20
348.4494609568211
 11
1369.4565739707057
 21
348.45403976047987
  0
LINE
  8
_0-0_
  6
CONTINUOUS
 62
    1
 10
1369.4565739707057
 20
348.45403976047987
 11
1368.6785710628455
 21
348.44154133659993
  0
LINE
  8
_0-0_
  6
CONTINUOUS
 62
    1
 10
1368.6785710628455
 20
348.44154133659993
 11
1367.9297503955627
 21
348.41234544346634
  0
LINE
  8
_0-0_
  6
CONTINUOUS
 62
    1
 10
1367.9297503955627
 20
348.41234544346634
 11
1367.2328645059108
 21
348.36733918351808
  0
LINE
  8
_0-0_
  6
CONTINUOUS
 62
    1
 10
1367.2328645059108
 20
348.36733918351808
 11
1366.6090879190058
 21
348.30789004918955
  0
LINE
  8
_0-0_
  6
CONTINUOUS
 62
    1
 10
1366.6090879190058
 20
348.30789004918955
 11
1366.311900101909
 21
348.27074157205243
  0
LINE
  8
_0-0_
  6
CONTINUOUS
 62
    1
 10
1364.014003071376
 20
343.33093668705919
 11
1364.014003071376
 21
343.39200217800612
  0
LINE
  8
_0-0_
  6
CONTINUOUS
 62
    1
 10
1386.514003071376
 20
343.39200217800612
 11
1386.2178540651064
 21
343.5645599035434
  0
LINE
  8
_0-0_
  6
CONTINUOUS
 62
    1
 10
1386.2178540651064
 20
343.5645599035434
 11
1378.8341161563676
 21
346.78588800498989
  0
LINE
  8
_0-0_
  6
CONTINUOUS
 62
    1
 10
1378.8341161563676
 20
346.78588800498989
 11
1373.7448677793275
 21
347.89200217800612
  0
LINE
  8
_0-0_
  6
CONTINUOUS
 62
    1
 10
1386.514003071376
 20
343.39200217800612
 11
1352.764003071376
 21
343.39200217800612
  0
LINE
  8
_0-0_
  6
CONTINUOUS
 62
    1
 10
1375.264003071376
 20
206.14200217800612
 11
1376.3069465926851
 21
186.24145429034365
  0
LINE
  8
_0-0_
  6
CONTINUOUS
 62
    1
 10
1369.639003071376
 20
185.89200217800612
 11
1368.0961053824335
 21
187.43489986694954
  0
LINE
  8
_0-0_
  6
CONTINUOUS
 62
    1
 10
1369.639003071376
 20
185.89200217800612
 11
1371.1819007603194
 21
187.43489986694954
  0
LINE
  8
_0-0_
  6
DASHED1
 62
    1
 10
1368.0961053824335
 20
187.43489986694954
 11
1366.826503071376
 21
188.70450217800612
  0
LINE
  8
_0-0_
  6
CONTINUOUS
 62
    1
 10
1364.014003071376
 20
206.14200217800612
 11
1362.9710595500687
 21
186.24145429034365
  0
LINE
  8
_0-0_
  6
CONTINUOUS
 62
    1
 10
1369.076503071376
 20
206.14200217800612
 11
1368.0196930977186
 21
185.97686661769626
  0
LINE
  8
_0-0_
  6
CONTINUOUS
 62
    1
 10
1370.201503071376
 20
206.14200217800612
 11
1371.2583130450334
 21
185.97686661769626
  0
LINE
  8
_0-0_
  6
DASHED1
 62
    1
 10
1371.1819007603194
 20
187.43489986694954
 11
1372.451503071376
 21
188.70450217800612
  0
LINE
  8
_0-0_
  6
CONTINUOUS
 62
    1
 10
1376.3069465926851
 20
186.24145429034365
 11
1371.2583130450334
 21
185.97686661769626
  0
LINE
  8
_0-0_
  6
CONTINUOUS
 62
    1
 10
1368.0196930977186
 20
185.97686661769626
 11
1362.9710595500687
 21
186.24145429034365
  0
LINE
  8
_0-0_
  6
CONTINUOUS
 62
    1
 10
1370.201503071376
 20
206.14200217800612
 11
1369.076503071376
 21
206.14200217800612
  0
LINE
  8
_0-0_
  6
DASHED1
 62
    1
 10
1372.451503071376
 20
347.89200217800612
 11
1372.451503071376
 21
188.70450217800612
  0
LINE
  8
_0-0_
  6
CENTER2
 62
    1
 10
1369.639003071376
 20
367.14095560387182
 11
1369.639003071376
 21
175.69870740295596
  0
LINE
  8
_0-0_
  6
CONTINUOUS
 62
    1
 10
1375.264003071376
 20
206.14200217800612
 11
1375.264003071376
 21
343.39200217800612
  0
LINE
  8
_0-0_
  6
CONTINUOUS
 62
    1
 10
1364.014003071376
 20
206.14200217800612
 11
1364.014003071376
 21
343.39200217800612
  0
LINE
  8
_0-0_
  6
CONTINUOUS
 62
    1
 10
1380.889003071376
 20
246.64200217800612
 11
1358.389003071376
 21
246.64200217800612
  0
LINE
  8
_0-0_
  6
CONTINUOUS
 62
    1
 10
1358.389003071376
 20
246.64200217800612
 11
1358.389003071376
 21
325.39200217800612
  0
LINE
  8
_0-0_
  6
CONTINUOUS
 62
    1
 10
1358.389003071376
 20
325.39200217800612
 11
1380.889003071376
 21
325.39200217800612
  0
LINE
  8
_0-0_
  6
CONTINUOUS
 62
    1
 10
1380.889003071376
 20
325.39200217800612
 11
1380.889003071376
 21
246.64200217800612
  0
LINE
  8
_0-0_
  6
CONTINUOUS
 62
    1
 10
1360.639003071376
 20
246.64200217800612
 11
1360.639003071376
 21
325.39200217800612
  0
LINE
  8
_0-0_
  6
CONTINUOUS
 62
    1
 10
1378.639003071376
 20
325.39200217800612
 11
1378.639003071376
 21
246.64200217800612
  0
LINE
  8
_0-0_
  6
CONTINUOUS
 62
    7
 10
1273.5674122492483
 20
472.28161248479523
 11
1273.5674122492483
 21
540.46997988964654
  0
LINE
  8
_0-0_
  6
CONTINUOUS
 62
    7
 10
1271.3174122492483
 20
246.64200217800612
 11
1271.3174122492483
 21
540.46997988964654
  0
LINE
  8
_0-0_
  6
CONTINUOUS
 62
    4
 10
1412.5820225560378
 20
359.14200217800612
 11
1559.1689997034459
 21
359.14200217800612
  0
LINE
  8
_0-0_
  6
CONTINUOUS
 62
    3
 10
1271.3174122492483
 20
338.89200217800612
 11
1559.1689997034459
 21
338.89200217800612
  0
LINE
  8
_0-0_
  6
CONTINUOUS
 62
    6
 10
1559.1689997034459
 20
325.39200217800612
 11
1271.3174122492483
 21
325.39200217800612
  0
LINE
  8
_0-0_
  6
CONTINUOUS
 62
    6
 10
1271.3174122492483
 20
246.64200217800612
 11
1559.1689997034468
 21
246.64200217800612
  0
LINE
  8
_0-0_
  6
CONTINUOUS
 62
    6
 10
1495.8807126858133
 20
246.64200217800612
 11
1559.1689997034459
 21
309.93028919563881
  0
LINE
  8
_0-0_
  6
CONTINUOUS
 62
    6
 10
1544.0586100102323
 20
325.39200217800794
 11
1559.1689997034459
 21
310.28161248479341
  0
LINE
  8
_0-0_
  6
CONTINUOUS
 62
    6
 10
1527.7005178392078
 20
246.64200217800794
 11
1559.1689997034459
 21
278.11048404224607
  0
LINE
  8
_0-0_
  6
CONTINUOUS
 62
    6
 10
1512.2388048568405
 20
325.3920021780043
 11
1559.1689997034459
 21
278.46180733139704
  0
LINE
  8
_0-0_
  6
CONTINUOUS
 62
    7
 10
1271.3174122492483
 20
246.64200217800612
 11
1559.1689997034468
 21
246.64200217800612
  0
LINE
  8
_0-0_
  6
CONTINUOUS
 62
    7
 10
1383.3927299469633
 20
175.69870740295596
 11
1454.336024722013
 21
246.64200217800612
  0
LINE
  8
_0-0_
  6
CONTINUOUS
 62
    7
 10
1399.3026325236606
 20
175.69870740295596
 11
1470.2459272987112
 21
246.64200217800612
  0
LINE
  8
_0-0_
  6
CONTINUOUS
 62
    7
 10
1415.2125351003579
 20
175.69870740295596
 11
1486.1558298754085
 21
246.64200217800612
  0
LINE
  8
_0-0_
  6
CONTINUOUS
 62
    7
 10
1207.6720572425179
 20
525.00481972952116
 11
1223.1372174026433
 21
540.46997988964654
  0
LINE
  8
_0-0_
  6
CONTINUOUS
 62
    7
 10
1207.6720572425179
 20
509.09491715282388
 11
1239.0471199793406
 21
540.46997988964654
  0
LINE
  8
_0-0_
  6
CONTINUOUS
 62
    7
 10
1207.6720572425179
 20
493.1850145761266
 11
1254.9570225560378
 21
540.46997988964654
  0
LINE
  8
_0-0_
  6
CONTINUOUS
 62
    7
 10
1369.4694544198414
 20
345.64672629204256
 11
1440.2922573064848
 21
468.31541922614383
  0
POINT
  8
_0-0_
 62
    7
 10
1369.4694544198414
 20
345.64672629204256
  0
TEXT
  8
_0-0_
 62
    7
 10
1442.4627684084967
 20
460.87112062068377
 40
21.617968000000001
 41
1
 50
0
  1
ｱﾙﾐｻｽｱﾝｶｰ
  0
LINE
  8
_0-0_
  6
CONTINUOUS
 62
    7
 10
1284.8174122492483
 20
480.15661248479523
 11
1312.9771377321217
 21
528.93068774832432
  0
POINT
  8
_0-0_
 62
    7
 10
1284.8174122492483
 20
480.15661248479523
  0
LINE
  8
_0-0_
  6
CONTINUOUS
 62
    7
 10
1289.3174122492483
 20
457.27147797747898
 11
1312.2130849928953
 21
496.92794644294486
  0
POINT
  8
_0-0_
 62
    7
 10
1289.3174122492483
 20
457.27147797747898
  0
TEXT
  8
_0-0_
 62
    7
 10
1314.9745832461872
 20
486.6452954683466
 40
21.617968000000001
 41
1
 50
0
  1
ｳﾚﾀﾝ防水
  0
TEXT
  8
_0-0_
 62
    7
 10
1313.2140641464364
 20
520.97541791348817
 40
21.617968000000001
 41
1
 50
0
  1
ﾄｯﾌﾟｺｰﾄ
  0
LINE
  8
_0-0_
  6
CONTINUOUS
 62
    7
 10
1278.3596661974716
 20
437.24619036179524
 11
1440.2922573064848
 21
468.31541922614383
  0
POINT
  8
_0-0_
 62
    7
 10
1278.3596661974716
 20
437.24619036179524
  0
LINE
  8
_0-0_
  6
CONTINUOUS
 62
    7
 10
1544.0586100102323
 20
325.39200217800794
 11
1566.1235596732558
 21
363.60961606081332
  0
TEXT
  8
_0-0_
 62
    7
 10
1568.796127236697
 20
353.35722120482683
 40
21.617968000000001
 41
1
 50
0
  1
ﾌﾟﾗｲﾏｰ
  0
LINE
  8
_0-0_
  6
CONTINUOUS
 62
    7
 10
1543.434758771326
 20
262.37624311012519
 11
1578.0242060480566
 21
322.2869231991474
  0
POINT
  8
_0-0_
 62
    7
 10
1543.434758771326
 20
262.37624311012519
  0
TEXT
  8
_0-0_
 62
    7
 10
1579.3250923083383
 20
310.39904371252965
 40
21.617968000000001
 41
1
 50
0
  1
断熱材
  0
POINT
  8
_0-0_
 62
    7
 10
1544.0586100102323
 20
325.39200217800794
  0
LINE
  8
_0-0_
  6
CONTINUOUS
 62
    7
 10
1530.5586100102341
 20
338.89200217800612
 11
1569.9272571917372
 21
407.0804993216218
  0
POINT
  8
_0-0_
 62
    7
 10
1530.5586100102341
 20
338.89200217800612
  0
TEXT
  8
_0-0_
 62
    7
 10
1571.1630207012095
 20
396.90823978778212
 40
21.617968000000001
 41
1
 50
0
  1
ﾗﾝｽﾛｯｸｼｰﾄ
  0
POINT
  8
_0-0_
 62
    7
 10
1449.4798680478623
 20
339.92860817057704
  0
LINE
  8
_0-0_
  6
CONTINUOUS
 62
    7
 10
1449.4798680478623
 20
339.92860817057704
 11
1478.3935134590715
 21
390.00851105482184
  0
TEXT
  8
_0-0_
 62
    7
 10
1480.5321634513271
 20
380.62574142326889
 40
21.617968000000001
 41
1
 50
0
  1
FJﾃｰﾌﾟ
  0
TEXT
  8
_0-0_
 62
    7
 10
1439.7074529784072
 20
410.42778006850062
 40
21.617968000000001
 41
1
 50
0
  1
ﾗﾝｽﾛｯｸｷｬﾝﾄ
  0
LINE
  8
_0-0_
  6
CONTINUOUS
 62
    7
 10
1392.35078882982
 20
341.43401936926625
 11
1437.8735446272765
 21
420.28174531101217
  0
POINT
  8
_0-0_
 62
    7
 10
1392.35078882982
 20
341.43401936926625
  0
LINE
  8
_0-0_
  6
CONTINUOUS
 62
    7
 10
1216.1733265094581
 20
1060.4922480620155
 11
1275.9312715000369
 21
1163.9960449416042
  0
POINT
  8
_0-0_
 62
    7
 10
1216.1733265094581
 20
1060.4922480620155
  0
LINE
  8
_0-0_
  6
CONTINUOUS
 62
    7
 10
1023.925499156113
 20
1052.9922480620155
 11
1023.925499156113
 21
1257.3279057056282
  0
LINE
  8
_0-0_
  6
CONTINUOUS
 62
    7
 10
1083.209770403575
 20
1094.9922480620155
 11
1121.0381975283208
 21
1094.9922480620155
  0
LINE
  8
_0-0_
  6
CONTINUOUS
 62
    7
 10
1025.9254991561129
 20
1123.1049464342234
 11
1053.0381975283208
 21
1095.9922480620155
  0
LINE
  8
_0-0_
  6
CONTINUOUS
 62
    6
 10
1023.9254991561126
 20
1080.4655573704542
 11
1031.4521898476746
 21
1087.9922480620164
  0
LINE
  8
_0-0_
  6
CONTINUOUS
 62
    6
 10
1023.9254991561126
 20
1066.3234217467227
 11
1045.5943254714057
 21
1087.9922480620164
  0
LINE
  8
_0-0_
  6
CONTINUOUS
 62
    6
 10
1024.7364610951349
 20
1052.9922480620146
 11
1059.7364610951349
 21
1087.9922480620146
  0
LINE
  8
_0-0_
  6
CONTINUOUS
 62
    6
 10
1038.8785967188678
 20
1052.9922480620164
 11
1073.8785967188678
 21
1087.9922480620164
  0
LINE
  8
_0-0_
  6
CONTINUOUS
 62
    6
 10
1053.0207323425984
 20
1052.9922480620164
 11
1088.0207323425984
 21
1087.9922480620164
  0
LINE
  8
_0-0_
  6
CONTINUOUS
 62
    6
 10
1067.1628679663281
 20
1052.9922480620155
 11
1102.1628679663277
 21
1087.9922480620146
  0
LINE
  8
_0-0_
  6
CONTINUOUS
 62
    6
 10
1081.3050035900606
 20
1052.9922480620164
 11
1116.3050035900606
 21
1087.9922480620164
  0
LINE
  8
_0-0_
  6
CONTINUOUS
 62
    6
 10
1095.4471392137912
 20
1052.9922480620164
 11
1130.4471392137912
 21
1087.9922480620164
  0
LINE
  8
_0-0_
  6
CONTINUOUS
 62
    6
 10
1109.5892748375209
 20
1052.9922480620146
 11
1144.5892748375209
 21
1087.9922480620155
  0
LINE
  8
_0-0_
  6
CONTINUOUS
 62
    6
 10
1123.7314104612528
 20
1052.9922480620155
 11
1158.7314104612533
 21
1087.9922480620164
  0
LINE
  8
_0-0_
  6
CONTINUOUS
 62
    6
 10
1137.8735460849839
 20
1052.9922480620164
 11
1172.8735460849844
 21
1087.9922480620164
  0
LINE
  8
_0-0_
  6
CONTINUOUS
 62
    6
 10
1152.0156817087136
 20
1052.9922480620155
 11
1187.0156817087136
 21
1087.9922480620146
  0
LINE
  8
_0-0_
  6
CONTINUOUS
 62
    6
 10
1166.1578173324456
 20
1052.9922480620164
 11
1201.1578173324456
 21
1087.9922480620155
  0
LINE
  8
_0-0_
  6
CONTINUOUS
 62
    6
 10
1180.2999529561771
 20
1052.9922480620164
 11
1215.2999529561771
 21
1087.9922480620164
  0
LINE
  8
_0-0_
  6
CONTINUOUS
 62
    6
 10
1194.4420885799063
 20
1052.9922480620155
 11
1229.4420885799063
 21
1087.9922480620155
  0
LINE
  8
_0-0_
  6
CONTINUOUS
 62
    6
 10
1208.5842242036383
 20
1052.9922480620155
 11
1243.5842242036383
 21
1087.9922480620155
  0
LINE
  8
_0-0_
  6
CONTINUOUS
 62
    6
 10
1222.7263598273694
 20
1052.9922480620164
 11
1257.7263598273694
 21
1087.9922480620164
  0
LINE
  8
_0-0_
  6
CONTINUOUS
 62
    6
 10
1236.8684954510991
 20
1052.9922480620146
 11
1271.8684954510991
 21
1087.9922480620146
  0
LINE
  8
_0-0_
  6
CONTINUOUS
 62
    6
 10
1251.0106310748311
 20
1052.9922480620155
 11
1286.0106310748311
 21
1087.9922480620155
  0
LINE
  8
_0-0_
  6
CONTINUOUS
 62
    6
 10
1265.1527666985617
 20
1052.9922480620164
 11
1300.1527666985621
 21
1087.9922480620164
  0
LINE
  8
_0-0_
  6
CONTINUOUS
 62
    6
 10
1279.2949023222923
 20
1052.9922480620155
 11
1314.2949023222923
 21
1087.9922480620146
  0
LINE
  8
_0-0_
  6
CONTINUOUS
 62
    6
 10
1293.4370379460247
 20
1052.9922480620164
 11
1328.4370379460247
 21
1087.9922480620164
  0
LINE
  8
_0-0_
  6
CONTINUOUS
 62
    6
 10
1307.5791735697544
 20
1052.9922480620155
 11
1342.5791735697544
 21
1087.9922480620164
  0
LINE
  8
_0-0_
  6
CONTINUOUS
 62
    6
 10
1321.7213091934868
 20
1052.9922480620164
 11
1356.7213091934868
 21
1087.9922480620164
  0
LINE
  8
_0-0_
  6
CONTINUOUS
 62
    6
 10
1335.8634448172174
 20
1052.9922480620164
 11
1370.8634448172174
 21
1087.9922480620164
  0
LINE
  8
_0-0_
  6
CONTINUOUS
 62
    6
 10
1350.0055804409471
 20
1052.9922480620164
 11
1385.0055804409471
 21
1087.9922480620164
  0
LINE
  8
_0-0_
  6
CONTINUOUS
 62
    6
 10
1364.1477160646796
 20
1052.9922480620164
 11
1399.1477160646796
 21
1087.9922480620164
  0
LINE
  8
_0-0_
  6
CONTINUOUS
 62
    6
 10
1378.2898516884102
 20
1052.9922480620164
 11
1413.2898516884102
 21
1087.9922480620164
  0
LINE
  8
_0-0_
  6
CONTINUOUS
 62
    6
 10
1392.4319873121408
 20
1052.9922480620164
 11
1427.4319873121399
 21
1087.9922480620164
  0
LINE
  8
_0-0_
  6
CONTINUOUS
 62
    6
 10
1406.5741229358723
 20
1052.9922480620164
 11
1441.5741229358723
 21
1087.9922480620164
  0
LINE
  8
_0-0_
  6
CONTINUOUS
 62
    6
 10
1420.7162585596038
 20
1052.9922480620164
 11
1455.7162585596029
 21
1087.9922480620164
  0
LINE
  8
_0-0_
  6
CONTINUOUS
 62
    6
 10
1434.8583941833326
 20
1052.9922480620146
 11
1469.8583941833326
 21
1087.9922480620146
  0
LINE
  8
_0-0_
  6
CONTINUOUS
 62
    6
 10
1449.000529807065
 20
1052.9922480620164
 11
1484.0005298070655
 21
1087.9922480620164
  0
LINE
  8
_0-0_
  6
CONTINUOUS
 62
    6
 10
1463.1426654307966
 20
1052.9922480620164
 11
1498.1426654307966
 21
1087.9922480620164
  0
LINE
  8
_0-0_
  6
CONTINUOUS
 62
    6
 10
1477.2848010545258
 20
1052.9922480620146
 11
1512.2848010545258
 21
1087.9922480620146
  0
LINE
  8
_0-0_
  6
CONTINUOUS
 62
    6
 10
1491.4269366782582
 20
1052.9922480620164
 11
1523.9254991561129
 21
1085.4908105398711
  0
LINE
  8
_0-0_
  6
CONTINUOUS
 62
    6
 10
1505.5690723019893
 20
1052.9922480620164
 11
1523.9254991561129
 21
1071.3486749161395
  0
LINE
  8
_0-0_
  6
CONTINUOUS
 62
    6
 10
1519.7112079257186
 20
1052.9922480620146
 11
1523.9254991561138
 21
1057.2065392924098
  0
LINE
  8
_0-0_
  6
CONTINUOUS
 62
    6
 10
1512.8393354891114
 20
1087.9922480620164
 11
1523.9254991561133
 21
1076.906084395014
  0
LINE
  8
_0-0_
  6
CONTINUOUS
 62
    6
 10
1498.6971998653808
 20
1087.9922480620155
 11
1523.9254991561124
 21
1062.7639487712834
  0
LINE
  8
_0-0_
  6
CONTINUOUS
 62
    6
 10
1484.5550642416497
 20
1087.9922480620164
 11
1519.5550642416497
 21
1052.9922480620164
  0
LINE
  8
_0-0_
  6
CONTINUOUS
 62
    6
 10
1470.4129286179182
 20
1087.9922480620164
 11
1505.4129286179186
 21
1052.9922480620164
  0
LINE
  8
_0-0_
  6
CONTINUOUS
 62
    6
 10
1456.2707929941876
 20
1087.9922480620155
 11
1491.270792994188
 21
1052.9922480620155
  0
LINE
  8
_0-0_
  6
CONTINUOUS
 62
    6
 10
1442.128657370456
 20
1087.9922480620164
 11
1477.1286573704556
 21
1052.9922480620164
  0
LINE
  8
_0-0_
  6
CONTINUOUS
 62
    6
 10
1427.9865217467254
 20
1087.9922480620164
 11
1462.9865217467254
 21
1052.9922480620164
  0
LINE
  8
_0-0_
  6
CONTINUOUS
 62
    6
 10
1413.8443861229948
 20
1087.9922480620146
 11
1448.8443861229948
 21
1052.9922480620155
  0
LINE
  8
_0-0_
  6
CONTINUOUS
 62
    6
 10
1399.7022504992633
 20
1087.9922480620164
 11
1434.7022504992624
 21
1052.9922480620164
  0
LINE
  8
_0-0_
  6
CONTINUOUS
 62
    6
 10
1385.5601148755327
 20
1087.9922480620164
 11
1420.5601148755327
 21
1052.9922480620164
  0
LINE
  8
_0-0_
  6
CONTINUOUS
 62
    6
 10
1371.4179792518021
 20
1087.9922480620155
 11
1406.4179792518021
 21
1052.9922480620155
  0
LINE
  8
_0-0_
  6
CONTINUOUS
 62
    6
 10
1357.2758436280706
 20
1087.9922480620164
 11
1392.2758436280697
 21
1052.9922480620164
  0
LINE
  8
_0-0_
  6
CONTINUOUS
 62
    6
 10
1343.13370800434
 20
1087.9922480620155
 11
1378.13370800434
 21
1052.9922480620164
  0
LINE
  8
_0-0_
  6
CONTINUOUS
 62
    6
 10
1328.9915723806093
 20
1087.9922480620155
 11
1363.9915723806093
 21
1052.9922480620155
  0
LINE
  8
_0-0_
  6
CONTINUOUS
 62
    6
 10
1314.8494367568778
 20
1087.9922480620164
 11
1349.8494367568778
 21
1052.9922480620164
  0
LINE
  8
_0-0_
  6
CONTINUOUS
 62
    6
 10
1300.7073011331468
 20
1087.9922480620164
 11
1335.7073011331472
 21
1052.9922480620164
  0
LINE
  8
_0-0_
  6
CONTINUOUS
 62
    6
 10
1286.5651655094161
 20
1087.9922480620155
 11
1321.5651655094166
 21
1052.9922480620155
  0
LINE
  8
_0-0_
  6
CONTINUOUS
 62
    6
 10
1272.4230298856842
 20
1087.9922480620164
 11
1307.4230298856846
 21
1052.9922480620164
  0
LINE
  8
_0-0_
  6
CONTINUOUS
 62
    6
 10
1258.2808942619536
 20
1087.9922480620164
 11
1293.280894261954
 21
1052.9922480620164
  0
LINE
  8
_0-0_
  6
CONTINUOUS
 62
    6
 10
1244.1387586382239
 20
1087.9922480620155
 11
1279.1387586382234
 21
1052.9922480620155
  0
LINE
  8
_0-0_
  6
CONTINUOUS
 62
    6
 10
1229.9966230144914
 20
1087.9922480620164
 11
1264.9966230144914
 21
1052.9922480620164
  0
LINE
  8
_0-0_
  6
CONTINUOUS
 62
    6
 10
1215.8544873907613
 20
1087.9922480620155
 11
1250.8544873907617
 21
1052.9922480620155
  0
LINE
  8
_0-0_
  6
CONTINUOUS
 62
    6
 10
1201.7123517670311
 20
1087.9922480620146
 11
1236.7123517670307
 21
1052.9922480620155
  0
LINE
  8
_0-0_
  6
CONTINUOUS
 62
    6
 10
1187.5702161432987
 20
1087.9922480620164
 11
1222.5702161432987
 21
1052.9922480620164
  0
LINE
  8
_0-0_
  6
CONTINUOUS
 62
    6
 10
1173.428080519569
 20
1087.9922480620155
 11
1208.428080519569
 21
1052.9922480620155
  0
LINE
  8
_0-0_
  6
CONTINUOUS
 62
    6
 10
1159.2859448958384
 20
1087.9922480620146
 11
1194.2859448958379
 21
1052.9922480620164
  0
LINE
  8
_0-0_
  6
CONTINUOUS
 62
    6
 10
1145.143809272106
 20
1087.9922480620164
 11
1180.143809272106
 21
1052.9922480620164
  0
LINE
  8
_0-0_
  6
CONTINUOUS
 62
    6
 10
1131.0016736483763
 20
1087.9922480620146
 11
1166.0016736483758
 21
1052.9922480620146
  0
LINE
  8
_0-0_
  6
CONTINUOUS
 62
    6
 10
1116.8595380246456
 20
1087.9922480620146
 11
1151.8595380246456
 21
1052.9922480620146
  0
LINE
  8
_0-0_
  6
CONTINUOUS
 62
    6
 10
1102.7174024009132
 20
1087.9922480620164
 11
1137.7174024009132
 21
1052.9922480620164
  0
LINE
  8
_0-0_
  6
CONTINUOUS
 62
    6
 10
1088.5752667771835
 20
1087.9922480620146
 11
1123.5752667771831
 21
1052.9922480620146
  0
LINE
  8
_0-0_
  6
CONTINUOUS
 62
    6
 10
1074.4331311534529
 20
1087.9922480620146
 11
1109.4331311534525
 21
1052.9922480620164
  0
LINE
  8
_0-0_
  6
CONTINUOUS
 62
    6
 10
1060.2909955297205
 20
1087.9922480620164
 11
1095.2909955297205
 21
1052.9922480620164
  0
LINE
  8
_0-0_
  6
CONTINUOUS
 62
    6
 10
1046.1488599059908
 20
1087.9922480620146
 11
1081.1488599059908
 21
1052.9922480620146
  0
LINE
  8
_0-0_
  6
CONTINUOUS
 62
    6
 10
1032.0067242822602
 20
1087.9922480620146
 11
1067.0067242822602
 21
1052.9922480620146
  0
LINE
  8
_0-0_
  6
CONTINUOUS
 62
    6
 10
1023.9254991561135
 20
1081.9313375644299
 11
1052.8645886585277
 21
1052.9922480620164
  0
LINE
  8
_0-0_
  6
CONTINUOUS
 62
    6
 10
1023.9254991561126
 20
1067.7892019407002
 11
1038.7224530347971
 21
1052.9922480620146
  0
LINE
  8
_0-0_
  6
CONTINUOUS
 62
    6
 10
1023.925499156113
 20
1053.6470663169678
 11
1024.5803174110652
 21
1052.9922480620155
  0
LINE
  8
_0-0_
  6
CONTINUOUS
 62
    6
 10
1023.925499156113
 20
1087.9922480620155
 11
1023.925499156113
 21
1052.9922480620155
  0
LINE
  8
_0-0_
  6
CONTINUOUS
 62
    6
 10
1523.9254991561133
 20
1087.9922480620155
 11
1023.925499156113
 21
1087.9922480620155
  0
LINE
  8
_0-0_
  6
CONTINUOUS
 62
    1
 10
1365.1989496475876
 20
1093.9922480620155
 11
1395.1989496475876
 21
1093.9922480620155
  0
LINE
  8
_0-0_
  6
CONTINUOUS
 62
    1
 10
1395.1989496475876
 20
1094.2422480620155
 11
1365.1989496475876
 21
1094.2422480620155
  0
LINE
  8
_0-0_
  6
CENTER2
 62
    1
 10
1380.1989496475876
 20
1100.4071673132669
 11
1380.1989496475876
 21
1018.0672547851839
  0
LINE
  8
_0-0_
  6
CONTINUOUS
 62
    1
 10
999.92549915611301
 20
1137.690732871851
 11
1000.6112314623098
 21
1138.3764651780477
  0
LINE
  8
_0-0_
  6
CONTINUOUS
 62
    1
 10
999.92549915611301
 20
1137.690732871851
 11
1000.6112314623098
 21
1137.0050005656533
  0
LINE
  8
_0-0_
  6
DASHED1
 62
    1
 10
1000.6112314623098
 20
1138.3764651780477
 11
1001.175499156113
 21
1138.940732871851
  0
LINE
  8
_0-0_
  6
DASHED1
 62
    1
 10
1000.6112314623098
 20
1137.0050005656533
 11
1001.175499156113
 21
1136.440732871851
  0
LINE
  8
_0-0_
  6
CONTINUOUS
 62
    1
 10
1000.0808112060405
 20
1134.7272024179358
 11
999.96321668486428
 21
1136.9710395502254
  0
LINE
  8
_0-0_
  6
CONTINUOUS
 62
    1
 10
999.96321668486428
 20
1138.4104261934765
 11
1000.0808112060405
 21
1140.6542633257652
  0
LINE
  8
_0-0_
  6
CONTINUOUS
 62
    4
 10
1077.1814251653477
 20
1104.9922480620155
 11
1084.709770403575
 21
1104.9922480620155
  0
LINE
  8
_0-0_
  6
CONTINUOUS
 62
    7
 10
1121.0381975283208
 20
1094.9922480620155
 11
1121.0381975283208
 21
1093.9922480620155
  0
LINE
  8
_0-0_
  6
CONTINUOUS
 62
    7
 10
1053.0381975283208
 20
1095.9922480620155
 11
1053.0381975283208
 21
1096.9922480620155
  0
LINE
  8
_0-0_
  6
CONTINUOUS
 62
    7
 10
1024.9254991561129
 20
1153.2765193094776
 11
1026.9254991561129
 21
1153.2765193094776
  0
LINE
  8
_0-0_
  6
CONTINUOUS
 62
    7
 10
1025.9254991561129
 20
1123.1049464342234
 11
1026.9254991561129
 21
1123.1049464342234
  0
LINE
  8
_0-0_
  6
CONTINUOUS
 62
    1
 10
1008.925499156113
 20
1135.190732871851
 11
1000.0808112060405
 21
1134.7272024179358
  0
LINE
  8
_0-0_
  6
CONTINUOUS
 62
    1
 10
1025.9254991561129
 20
1135.190732871851
 11
1025.9254991561129
 21
1130.190732871851
  0
LINE
  8
_0-0_
  6
CONTINUOUS
 62
    1
 10
1025.9254991561129
 20
1140.190732871851
 11
1025.9254991561129
 21
1145.190732871851
  0
LINE
  8
_0-0_
  6
CONTINUOUS
 62
    1
 10
1027.9254991561129
 20
1139.5155616309396
 11
1027.9254991561129
 21
1135.8659041127605
  0
LINE
  8
_0-0_
  6
CONTINUOUS
 62
    1
 10
1027.9254991561129
 20
1139.5155616309405
 11
1027.047433113926
 21
1142.8913426639938
  0
LINE
  8
_0-0_
  6
CONTINUOUS
 62
    1
 10
1027.047433113926
 20
1142.8913426639938
 11
1025.9254991561129
 21
1145.190732871851
  0
LINE
  8
_0-0_
  6
CONTINUOUS
 62
    1
 10
1025.9254991561129
 20
1130.190732871851
 11
1027.391016923719
 21
1133.4650715577975
  0
LINE
  8
_0-0_
  6
CONTINUOUS
 62
    1
 10
1027.391016923719
 20
1133.4650715577975
 11
1027.9254991561129
 21
1135.8659041127614
  0
LINE
  8
_0-0_
  6
CONTINUOUS
 62
    1
 10
1028.0938277756891
 20
1136.2120204409766
 11
1027.9254991561129
 21
1136.440732871851
  0
LINE
  8
_0-0_
  6
CONTINUOUS
 62
    1
 10
1027.9254991561129
 20
1138.940732871851
 11
1028.0938277756891
 21
1139.1694453027253
  0
LINE
  8
_0-0_
  6
CONTINUOUS
 62
    1
 10
1028.0938277756891
 20
1136.2120204409766
 11
1028.1233674505897
 21
1136.468325069759
  0
LINE
  8
_0-0_
  6
CONTINUOUS
 62
    1
 10
1028.1233674505897
 20
1136.468325069759
 11
1028.1468949974887
 21
1136.7617719410398
  0
LINE
  8
_0-0_
  6
CONTINUOUS
 62
    1
 10
1028.1468949974887
 20
1136.7617719410398
 11
1028.1636955437793
 21
1137.0834448201265
  0
LINE
  8
_0-0_
  6
CONTINUOUS
 62
    1
 10
1028.1636955437793
 20
1137.0834448201265
 11
1028.1732586133639
 21
1137.423569839362
  0
LINE
  8
_0-0_
  6
CONTINUOUS
 62
    1
 10
1028.1732586133639
 20
1137.423569839362
 11
1028.1752936372122
 21
1137.7718124721489
  0
LINE
  8
_0-0_
  6
CONTINUOUS
 62
    1
 10
1028.1752936372122
 20
1137.7718124721489
 11
1028.1697387821546
 21
1138.1175915423089
  0
LINE
  8
_0-0_
  6
CONTINUOUS
 62
    1
 10
1028.1697387821546
 20
1138.1175915423089
 11
1028.1567628296507
 21
1138.4504007277681
  0
LINE
  8
_0-0_
  6
CONTINUOUS
 62
    1
 10
1028.1567628296507
 20
1138.4504007277681
 11
1028.1367600474516
 21
1138.7601277898355
  0
LINE
  8
_0-0_
  6
CONTINUOUS
 62
    1
 10
1028.1367600474516
 20
1138.7601277898355
 11
1028.1103382099723
 21
1139.03736182846
  0
LINE
  8
_0-0_
  6
CONTINUOUS
 62
    1
 10
1028.1103382099723
 20
1139.03736182846
 11
1028.0938277756891
 21
1139.1694453027253
  0
LINE
  8
_0-0_
  6
DASHED1
 62
    1
 10
1027.9254991561129
 20
1138.940732871851
 11
1001.175499156113
 21
1138.940732871851
  0
LINE
  8
_0-0_
  6
DASHED1
 62
    1
 10
1027.9254991561129
 20
1136.440732871851
 11
1001.175499156113
 21
1136.440732871851
  0
LINE
  8
_0-0_
  6
CONTINUOUS
 62
    1
 10
1008.925499156113
 20
1140.190732871851
 11
1025.9254991561129
 21
1140.190732871851
  0
LINE
  8
_0-0_
  6
CONTINUOUS
 62
    1
 10
1008.925499156113
 20
1140.190732871851
 11
1000.0808112060405
 21
1140.6542633257652
  0
LINE
  8
_0-0_
  6
CONTINUOUS
 62
    1
 10
1008.925499156113
 20
1137.940732871851
 11
999.96321668486428
 21
1138.4104261934765
  0
LINE
  8
_0-0_
  6
CONTINUOUS
 62
    1
 10
1008.925499156113
 20
1135.190732871851
 11
1025.9254991561129
 21
1135.190732871851
  0
LINE
  8
_0-0_
  6
CONTINUOUS
 62
    1
 10
1008.925499156113
 20
1137.440732871851
 11
999.96321668486428
 21
1136.9710395502254
  0
LINE
  8
_0-0_
  6
CONTINUOUS
 62
    1
 10
1008.925499156113
 20
1137.440732871851
 11
1008.925499156113
 21
1137.940732871851
  0
LINE
  8
_0-0_
  6
CONTINUOUS
 62
    7
 10
1026.9254991561129
 20
1123.1049464342234
 11
1026.9254991561129
 21
1129.9410143982016
  0
LINE
  8
_0-0_
  6
CONTINUOUS
 62
    7
 10
1026.9254991561129
 20
1145.4404513454986
 11
1026.9254991561129
 21
1153.2765193094776
  0
LINE
  8
_0-0_
  6
CONTINUOUS
 62
    7
 10
1026.9254991561131
 20
1129.9410143982025
 11
1028.4098897342471
 21
1133.3890006415593
  0
LINE
  8
_0-0_
  6
CONTINUOUS
 62
    7
 10
1028.4098897342471
 20
1133.3890006415593
 11
1029.0287965184618
 21
1136.9676928419519
  0
LINE
  8
_0-0_
  6
CONTINUOUS
 62
    7
 10
1029.0287965184618
 20
1136.9676928419519
 11
1028.7634143393004
 21
1140.5683542477773
  0
LINE
  8
_0-0_
  6
CONTINUOUS
 62
    7
 10
1028.7634143393004
 20
1140.5683542477773
 11
1027.6218066999872
 21
1144.0815805842417
  0
LINE
  8
_0-0_
  6
CONTINUOUS
 62
    7
 10
1027.6218066999872
 20
1144.0815805842417
 11
1026.9254991561131
 21
1145.4404513454995
  0
LINE
  8
_0-0_
  6
CENTER2
 62
    1
 10
1033.4157269211209
 20
1137.690732871851
 11
995.63867470867729
 21
1137.690732871851
  0
LINE
  8
_0-0_
  6
CONTINUOUS
 62
    4
 10
1031.9254991561129
 20
1125.5902278084625
 11
1031.9254991561129
 21
1128.7761173263636
  0
LINE
  8
_0-0_
  6
CONTINUOUS
 62
    4
 10
1031.9254991561131
 20
1128.7761173263648
 11
1033.4958068683086
 21
1133.0944059596789
  0
LINE
  8
_0-0_
  6
CONTINUOUS
 62
    4
 10
1033.4958068683086
 20
1133.0944059596789
 11
1034.0460977680643
 21
1137.5523516603657
  0
LINE
  8
_0-0_
  6
CONTINUOUS
 62
    4
 10
1034.0460977680643
 20
1137.5523516603657
 11
1033.5596515448519
 21
1142.0145020041396
  0
LINE
  8
_0-0_
  6
CONTINUOUS
 62
    4
 10
1033.5596515448519
 20
1142.0145020041396
 11
1032.05124862101
 21
1146.3452768107613
  0
LINE
  8
_0-0_
  6
CONTINUOUS
 62
    4
 10
1032.05124862101
 20
1146.3452768107613
 11
1031.9254991561131
 21
1146.6053484173372
  0
LINE
  8
_0-0_
  6
CONTINUOUS
 62
    4
 10
1031.9254991561129
 20
1146.6053484173365
 11
1031.9254991561129
 21
1154.7765193094776
  0
LINE
  8
_0-0_
  6
CONTINUOUS
 62
    4
 10
1031.9254991561129
 20
1154.7765193094776
 11
1029.9254991561129
 21
1156.7765193094776
  0
LINE
  8
_0-0_
  6
CONTINUOUS
 62
    7
 10
1083.209770403575
 20
1094.9922480620155
 11
1083.209770403575
 21
1096.9922480620155
  0
LINE
  8
_0-0_
  6
CONTINUOUS
 62
    7
 10
1053.0381975283208
 20
1096.9922480620155
 11
1059.8742654922989
 21
1096.9922480620155
  0
LINE
  8
_0-0_
  6
CONTINUOUS
 62
    7
 10
1075.3737024395969
 20
1096.9922480620155
 11
1083.209770403575
 21
1096.9922480620155
  0
LINE
  8
_0-0_
  6
CONTINUOUS
 62
    7
 10
1075.3737024395959
 20
1096.9922480620155
 11
1071.9257161962391
 21
1098.4766386401495
  0
LINE
  8
_0-0_
  6
CONTINUOUS
 62
    7
 10
1071.9257161962391
 20
1098.4766386401495
 11
1068.3470239958465
 21
1099.0955454243642
  0
LINE
  8
_0-0_
  6
CONTINUOUS
 62
    7
 10
1068.3470239958465
 20
1099.0955454243642
 11
1064.7463625900211
 21
1098.830163245203
  0
LINE
  8
_0-0_
  6
CONTINUOUS
 62
    7
 10
1064.7463625900211
 20
1098.830163245203
 11
1061.2331362535567
 21
1097.6885556058896
  0
LINE
  8
_0-0_
  6
CONTINUOUS
 62
    7
 10
1061.2331362535567
 20
1097.6885556058896
 11
1059.8742654922989
 21
1096.9922480620155
  0
LINE
  8
_0-0_
  6
CONTINUOUS
 62
    4
 10
1031.9254991561129
 20
1125.5902278084625
 11
1052.5234789025599
 21
1104.9922480620155
  0
LINE
  8
_0-0_
  6
CONTINUOUS
 62
    4
 10
1052.5234789025599
 20
1104.9922480620155
 11
1058.0665427665481
 21
1104.9922480620155
  0
LINE
  8
_0-0_
  6
CONTINUOUS
 62
    4
 10
1077.1814251653475
 20
1104.9922480620155
 11
1072.3397857500188
 21
1106.6082575257446
  0
LINE
  8
_0-0_
  6
CONTINUOUS
 62
    4
 10
1072.3397857500188
 20
1106.6082575257446
 11
1067.354859083792
 21
1107.111708070513
  0
LINE
  8
_0-0_
  6
CONTINUOUS
 62
    4
 10
1067.354859083792
 20
1107.111708070513
 11
1062.3781096409259
 21
1106.4873026062764
  0
LINE
  8
_0-0_
  6
CONTINUOUS
 62
    4
 10
1062.3781096409259
 20
1106.4873026062764
 11
1058.0665427665474
 21
1104.9922480620155
  0
LINE
  8
_0-0_
  6
CONTINUOUS
 62
    4
 10
1084.709770403575
 20
1104.9922480620155
 11
1086.709770403575
 21
1102.9922480620155
  0
LINE
  8
_0-0_
  6
CONTINUOUS
 62
    4
 10
1086.709770403575
 20
1102.9922480620155
 11
1523.9254991561129
 21
1102.9922480620155
  0
LINE
  8
_0-0_
  6
CONTINUOUS
 62
    7
 10
1023.925499156113
 20
1122.2765193094776
 11
1052.209770403575
 21
1093.9922480620155
  0
LINE
  8
_0-0_
  6
CONTINUOUS
 62
    7
 10
1052.209770403575
 20
1093.9922480620155
 11
1082.209770403575
 21
1093.9922480620155
  0
LINE
  8
_0-0_
  6
CONTINUOUS
 62
    7
 10
1082.209770403575
 20
1093.9922480620155
 11
1082.209770403575
 21
1095.9922480620155
  0
LINE
  8
_0-0_
  6
CONTINUOUS
 62
    7
 10
1023.925499156113
 20
1152.2765193094776
 11
1023.925499156113
 21
1122.2765193094776
  0
LINE
  8
_0-0_
  6
CONTINUOUS
 62
    7
 10
1023.925499156113
 20
1152.2765193094776
 11
1025.9254991561129
 21
1152.2765193094776
  0
LINE
  8
_0-0_
  6
CONTINUOUS
 62
    7
 10
1025.9254991561129
 20
1152.2765193094776
 11
1025.9254991561129
 21
1123.1049464342234
  0
LINE
  8
_0-0_
  6
CONTINUOUS
 62
    1
 10
1381.3019641169653
 20
1025.9922480620155
 11
1384.290548211241
 21
1026.253715290258
  0
LINE
  8
_0-0_
  6
CONTINUOUS
 62
    1
 10
1381.1707311216765
 20
1027.4922480620155
 11
1384.1593152159521
 21
1027.753715290258
  0
LINE
  8
_0-0_
  6
CONTINUOUS
 62
    1
 10
1381.0394981263876
 20
1028.9922480620155
 11
1384.0280822206632
 21
1029.253715290258
  0
LINE
  8
_0-0_
  6
CONTINUOUS
 62
    1
 10
1380.9082651310987
 20
1030.4922480620155
 11
1383.8968492253744
 21
1030.753715290258
  0
LINE
  8
_0-0_
  6
CONTINUOUS
 62
    1
 10
1380.7770321358098
 20
1031.9922480620155
 11
1383.7656162300855
 21
1032.253715290258
  0
LINE
  8
_0-0_
  6
CONTINUOUS
 62
    1
 10
1380.6457991405209
 20
1033.4922480620155
 11
1383.6343832347961
 21
1033.753715290258
  0
LINE
  8
_0-0_
  6
CONTINUOUS
 62
    1
 10
1380.514566145232
 20
1034.9922480620155
 11
1383.5031502395072
 21
1035.253715290258
  0
LINE
  8
_0-0_
  6
CONTINUOUS
 62
    1
 10
1380.3833331499432
 20
1036.4922480620155
 11
1383.3719172442184
 21
1036.753715290258
  0
LINE
  8
_0-0_
  6
CONTINUOUS
 62
    1
 10
1380.4489496475876
 20
1035.7422480620155
 11
1381.4076628178123
 21
1024.7841063830067
  0
LINE
  8
_0-0_
  6
CONTINUOUS
 62
    1
 10
1380.3833331499432
 20
1036.4922480620155
 11
1380.014566145232
 21
1036.4922480620155
  0
LINE
  8
_0-0_
  6
CONTINUOUS
 62
    1
 10
1380.4489496475876
 20
1035.7422480620155
 11
1379.9489496475876
 21
1035.7422480620155
  0
LINE
  8
_0-0_
  6
CONTINUOUS
 62
    1
 10
1379.0959351782099
 20
1025.9922480620155
 11
1376.1073510839346
 21
1026.253715290258
  0
LINE
  8
_0-0_
  6
CONTINUOUS
 62
    1
 10
1379.2271681734987
 20
1027.4922480620155
 11
1376.2385840792235
 21
1027.753715290258
  0
LINE
  8
_0-0_
  6
CONTINUOUS
 62
    1
 10
1379.3584011687876
 20
1028.9922480620155
 11
1376.3698170745124
 21
1029.253715290258
  0
LINE
  8
_0-0_
  6
CONTINUOUS
 62
    1
 10
1379.4896341640765
 20
1030.4922480620155
 11
1376.5010500698013
 21
1030.753715290258
  0
LINE
  8
_0-0_
  6
CONTINUOUS
 62
    1
 10
1379.6208671593654
 20
1031.9922480620155
 11
1376.6322830650902
 21
1032.253715290258
  0
LINE
  8
_0-0_
  6
CONTINUOUS
 62
    1
 10
1379.7521001546543
 20
1033.4922480620155
 11
1376.7635160603791
 21
1033.753715290258
  0
LINE
  8
_0-0_
  6
CONTINUOUS
 62
    1
 10
1379.8833331499432
 20
1034.9922480620155
 11
1376.8947490556679
 21
1035.253715290258
  0
LINE
  8
_0-0_
  6
CONTINUOUS
 62
    1
 10
1380.014566145232
 20
1036.4922480620155
 11
1377.0259820509568
 21
1036.753715290258
  0
LINE
  8
_0-0_
  6
CONTINUOUS
 62
    1
 10
1379.9489496475876
 20
1035.7422480620155
 11
1378.9902364773639
 21
1024.7841063830067
  0
LINE
  8
_0-0_
  6
CONTINUOUS
 62
    1
 10
1377.1989496475876
 20
1062.5976080185403
 11
1377.1989496475876
 21
1038.7307439664312
  0
LINE
  8
_0-0_
  6
CONTINUOUS
 62
    1
 10
1377.1989496475876
 20
1038.7307439664312
 11
1376.0016523830886
 21
1025.0455736112492
  0
LINE
  8
_0-0_
  6
CONTINUOUS
 62
    1
 10
1383.1989496475876
 20
1038.7307439664312
 11
1384.3962469120875
 21
1025.0455736112492
  0
LINE
  8
_0-0_
  6
CONTINUOUS
 62
    1
 10
1378.9902364773639
 20
1024.7841063830067
 11
1376.0016523830886
 21
1025.0455736112492
  0
LINE
  8
_0-0_
  6
CONTINUOUS
 62
    1
 10
1381.4076628178123
 20
1024.7841063830067
 11
1384.3962469120875
 21
1025.0455736112492
  0
LINE
  8
_0-0_
  6
CONTINUOUS
 62
    1
 10
1380.1989496475876
 20
1024.4922480620155
 11
1378.6989496475876
 21
1027.0903242733687
  0
LINE
  8
_0-0_
  6
CONTINUOUS
 62
    1
 10
1380.1989496475876
 20
1024.4922480620155
 11
1381.6989496475876
 21
1027.0903242733687
  0
LINE
  8
_0-0_
  6
CONTINUOUS
 62
    1
 10
1377.1989496475876
 20
1062.5976080185403
 11
1377.1989496475876
 21
1092.5976080185403
  0
LINE
  8
_0-0_
  6
CONTINUOUS
 62
    1
 10
1365.1989496475876
 20
1094.2422480620155
 11
1365.1989496475876
 21
1093.9922480620155
  0
LINE
  8
_0-0_
  6
CONTINUOUS
 62
    1
 10
1394.1989496475876
 20
1093.9922480620155
 11
1393.9489496475876
 21
1093.7422480620155
  0
LINE
  8
_0-0_
  6
CONTINUOUS
 62
    1
 10
1393.9489496475876
 20
1093.7422480620155
 11
1366.4489496475876
 21
1093.7422480620155
  0
LINE
  8
_0-0_
  6
CONTINUOUS
 62
    1
 10
1366.1989496475876
 20
1093.9922480620155
 11
1366.4489496475876
 21
1093.7422480620155
  0
LINE
  8
_0-0_
  6
CONTINUOUS
 62
    1
 10
1395.1989496475876
 20
1094.2422480620155
 11
1395.1989496475876
 21
1093.9922480620155
  0
LINE
  8
_0-0_
  6
CONTINUOUS
 62
    1
 10
1383.1989496475876
 20
1092.5976080185403
 11
1377.1989496475876
 21
1092.5976080185403
  0
LINE
  8
_0-0_
  6
CONTINUOUS
 62
    1
 10
1374.1989496475876
 20
1094.2422480620155
 11
1374.4489496475876
 21
1094.4922480620155
  0
LINE
  8
_0-0_
  6
CONTINUOUS
 62
    1
 10
1374.4489496475876
 20
1094.4922480620155
 11
1385.9489496475876
 21
1094.4922480620155
  0
LINE
  8
_0-0_
  6
CONTINUOUS
 62
    1
 10
1386.1989496475876
 20
1094.2422480620155
 11
1385.9489496475876
 21
1094.4922480620155
  0
LINE
  8
_0-0_
  6
CONTINUOUS
 62
    1
 10
1377.1989496475876
 20
1092.5976080185403
 11
1376.0543096041124
 21
1093.7422480620155
  0
LINE
  8
_0-0_
  6
CONTINUOUS
 62
    1
 10
1383.1989496475876
 20
1092.5976080185403
 11
1384.3435896910637
 21
1093.7422480620155
  0
LINE
  8
_0-0_
  6
CONTINUOUS
 62
    1
 10
1378.6989496475876
 20
1094.492248062016
 11
1378.1900523196334
 21
1094.8227917871964
  0
LINE
  8
_0-0_
  6
CONTINUOUS
 62
    1
 10
1382.2078469755418
 20
1094.8227917871964
 11
1381.6989496475876
 21
1094.492248062016
  0
LINE
  8
_0-0_
  6
CONTINUOUS
 62
    1
 10
1382.2078469755415
 20
1094.8227917871964
 11
1382.0013649313594
 21
1094.896891042014
  0
LINE
  8
_0-0_
  6
CONTINUOUS
 62
    1
 10
1382.0013649313594
 20
1094.896891042014
 11
1381.7401174108459
 21
1094.961896733608
  0
LINE
  8
_0-0_
  6
CONTINUOUS
 62
    1
 10
1381.7401174108459
 20
1094.961896733608
 11
1381.4320422877145
 21
1095.0158336969334
  0
LINE
  8
_0-0_
  6
CONTINUOUS
 62
    1
 10
1381.4320422877145
 20
1095.0158336969334
 11
1381.0865002686876
 21
1095.0570630846535
  0
LINE
  8
_0-0_
  6
CONTINUOUS
 62
    1
 10
1381.0865002686876
 20
1095.0570630846535
 11
1380.7139904731609
 21
1095.0843321626851
  0
LINE
  8
_0-0_
  6
CONTINUOUS
 62
    1
 10
1380.7139904731609
 20
1095.0843321626851
 11
1380.3258314227724
 21
1095.0968123738912
  0
LINE
  8
_0-0_
  6
CONTINUOUS
 62
    1
 10
1380.3258314227724
 20
1095.0968123738912
 11
1379.9338171338502
 21
1095.0941245133695
  0
LINE
  8
_0-0_
  6
CONTINUOUS
 62
    1
 10
1379.9338171338502
 20
1095.0941245133695
 11
1379.5498587621944
 21
1095.0763502504019
  0
LINE
  8
_0-0_
  6
CONTINUOUS
 62
    1
 10
1379.5498587621944
 20
1095.0763502504019
 11
1379.1856226886355
 21
1095.0440296469746
  0
LINE
  8
_0-0_
  6
CONTINUOUS
 62
    1
 10
1379.1856226886355
 20
1095.0440296469746
 11
1378.852176041956
 21
1094.9981447482674
  0
LINE
  8
_0-0_
  6
CONTINUOUS
 62
    1
 10
1378.852176041956
 20
1094.9981447482674
 11
1378.5596504297835
 21
1094.9400897437088
  0
LINE
  8
_0-0_
  6
CONTINUOUS
 62
    1
 10
1378.5596504297835
 20
1094.9400897437088
 11
1378.3169340948184
 21
1094.8716286052352
  0
LINE
  8
_0-0_
  6
CONTINUOUS
 62
    1
 10
1378.3169340948184
 20
1094.8716286052352
 11
1378.1900523196337
 21
1094.8227917871964
  0
LINE
  8
_0-0_
  6
CONTINUOUS
 62
    1
 10
1383.1989496475876
 20
1092.5976080185403
 11
1383.1989496475876
 21
1038.7307439664312
  0
LINE
  8
_0-0_
  6
DASHED1
 62
    1
 10
1378.6989496475876
 20
1094.4922480620155
 11
1378.6989496475876
 21
1027.0903242733687
  0
LINE
  8
_0-0_
  6
DASHED1
 62
    1
 10
1381.6989496475876
 20
1094.4922480620155
 11
1381.6989496475876
 21
1027.0903242733687
  0
LINE
  8
_0-0_
  6
CONTINUOUS
 62
    3
 10
1023.925499156113
 20
1093.9922480620155
 11
1523.9254991561129
 21
1093.9922480620155
  0
LINE
  8
_0-0_
  6
CONTINUOUS
 62
    7
 10
1053.0381975283208
 20
1095.9922480620155
 11
1082.209770403575
 21
1095.9922480620155
  0
LINE
  8
_0-0_
  6
DASHED1
 62
    1
 10
1066.3739839659474
 20
1097.9922480620155
 11
1066.3739839659474
 21
1027.2422480620155
  0
LINE
  8
_0-0_
  6
CONTINUOUS
 62
    1
 10
1065.7991552068579
 20
1097.9922480620155
 11
1069.448812725037
 21
1097.9922480620155
  0
LINE
  8
_0-0_
  6
CONTINUOUS
 62
    1
 10
1065.7991552068579
 20
1097.9922480620155
 11
1062.4233741738046
 21
1097.1141820198286
  0
LINE
  8
_0-0_
  6
CONTINUOUS
 62
    1
 10
1062.4233741738046
 20
1097.1141820198286
 11
1060.1239839659474
 21
1095.9922480620155
  0
LINE
  8
_0-0_
  6
CONTINUOUS
 62
    1
 10
1069.1026963968218
 20
1098.1605766815917
 11
1068.8739839659474
 21
1097.9922480620155
  0
LINE
  8
_0-0_
  6
CONTINUOUS
 62
    1
 10
1066.3739839659474
 20
1097.9922480620155
 11
1066.1452715350731
 21
1098.1605766815917
  0
LINE
  8
_0-0_
  6
CONTINUOUS
 62
    1
 10
1069.1026963968218
 20
1098.1605766815917
 11
1068.8463917680394
 21
1098.1901163564924
  0
LINE
  8
_0-0_
  6
CONTINUOUS
 62
    1
 10
1068.8463917680394
 20
1098.1901163564924
 11
1068.5529448967586
 21
1098.2136439033914
  0
LINE
  8
_0-0_
  6
CONTINUOUS
 62
    1
 10
1068.5529448967586
 20
1098.2136439033914
 11
1068.2312720176719
 21
1098.230444449682
  0
LINE
  8
_0-0_
  6
CONTINUOUS
 62
    1
 10
1068.2312720176719
 20
1098.230444449682
 11
1067.8911469984364
 21
1098.2400075192666
  0
LINE
  8
_0-0_
  6
CONTINUOUS
 62
    1
 10
1067.8911469984364
 20
1098.2400075192666
 11
1067.5429043656495
 21
1098.2420425431148
  0
LINE
  8
_0-0_
  6
CONTINUOUS
 62
    1
 10
1067.5429043656495
 20
1098.2420425431148
 11
1067.1971252954895
 21
1098.2364876880572
  0
LINE
  8
_0-0_
  6
CONTINUOUS
 62
    1
 10
1067.1971252954895
 20
1098.2364876880572
 11
1066.8643161100304
 21
1098.2235117355533
  0
LINE
  8
_0-0_
  6
CONTINUOUS
 62
    1
 10
1066.8643161100304
 20
1098.2235117355533
 11
1066.554589047963
 21
1098.2035089533542
  0
LINE
  8
_0-0_
  6
CONTINUOUS
 62
    1
 10
1066.554589047963
 20
1098.2035089533542
 11
1066.2773550093384
 21
1098.1770871158749
  0
LINE
  8
_0-0_
  6
CONTINUOUS
 62
    1
 10
1066.2773550093384
 20
1098.1770871158749
 11
1066.1452715350731
 21
1098.1605766815917
  0
LINE
  8
_0-0_
  6
CONTINUOUS
 62
    1
 10
1065.1239839659474
 20
1095.9651078438176
 11
1065.1239839659474
 21
1095.9922480620155
  0
LINE
  8
_0-0_
  6
CONTINUOUS
 62
    1
 10
1075.1239839659474
 20
1095.9922480620155
 11
1074.9923621853832
 21
1096.0689403844765
  0
LINE
  8
_0-0_
  6
CONTINUOUS
 62
    1
 10
1074.9923621853832
 20
1096.0689403844765
 11
1071.7107008926105
 21
1097.5006417628972
  0
LINE
  8
_0-0_
  6
CONTINUOUS
 62
    1
 10
1071.7107008926105
 20
1097.5006417628972
 11
1069.448812725037
 21
1097.9922480620155
  0
LINE
  8
_0-0_
  6
CONTINUOUS
 62
    1
 10
1075.1239839659474
 20
1095.9922480620155
 11
1060.1239839659474
 21
1095.9922480620155
  0
LINE
  8
_0-0_
  6
CONTINUOUS
 62
    1
 10
1070.1239839659474
 20
1034.9922480620155
 11
1070.5875144198626
 21
1026.147560111943
  0
LINE
  8
_0-0_
  6
CONTINUOUS
 62
    1
 10
1067.6239839659474
 20
1025.9922480620155
 11
1066.9382516597507
 21
1026.6779803682123
  0
LINE
  8
_0-0_
  6
CONTINUOUS
 62
    1
 10
1067.6239839659474
 20
1025.9922480620155
 11
1068.3097162721447
 21
1026.6779803682123
  0
LINE
  8
_0-0_
  6
DASHED1
 62
    1
 10
1066.9382516597507
 20
1026.6779803682123
 11
1066.3739839659474
 21
1027.2422480620155
  0
LINE
  8
_0-0_
  6
CONTINUOUS
 62
    1
 10
1065.1239839659474
 20
1034.9922480620155
 11
1064.6604535120332
 21
1026.147560111943
  0
LINE
  8
_0-0_
  6
CONTINUOUS
 62
    1
 10
1067.3739839659474
 20
1034.9922480620155
 11
1066.9042906443219
 21
1026.0299655907668
  0
LINE
  8
_0-0_
  6
CONTINUOUS
 62
    1
 10
1067.8739839659474
 20
1034.9922480620155
 11
1068.343677287573
 21
1026.0299655907668
  0
LINE
  8
_0-0_
  6
DASHED1
 62
    1
 10
1068.3097162721447
 20
1026.6779803682123
 11
1068.8739839659474
 21
1027.2422480620155
  0
LINE
  8
_0-0_
  6
CONTINUOUS
 62
    1
 10
1070.5875144198626
 20
1026.147560111943
 11
1068.343677287573
 21
1026.0299655907668
  0
LINE
  8
_0-0_
  6
CONTINUOUS
 62
    1
 10
1066.9042906443219
 20
1026.0299655907668
 11
1064.6604535120332
 21
1026.147560111943
  0
LINE
  8
_0-0_
  6
CONTINUOUS
 62
    1
 10
1067.8739839659474
 20
1034.9922480620155
 11
1067.3739839659474
 21
1034.9922480620155
  0
LINE
  8
_0-0_
  6
DASHED1
 62
    1
 10
1068.8739839659474
 20
1097.9922480620155
 11
1068.8739839659474
 21
1027.2422480620155
  0
LINE
  8
_0-0_
  6
CENTER2
 62
    1
 10
1067.6239839659474
 20
1106.5473384735117
 11
1067.6239839659474
 21
1021.46189482866
  0
LINE
  8
_0-0_
  6
CONTINUOUS
 62
    1
 10
1070.1239839659474
 20
1034.9922480620155
 11
1070.1239839659474
 21
1095.9922480620155
  0
LINE
  8
_0-0_
  6
CONTINUOUS
 62
    1
 10
1065.1239839659474
 20
1034.9922480620155
 11
1065.1239839659474
 21
1095.9922480620155
  0
LINE
  8
_0-0_
  6
CONTINUOUS
 62
    7
 10
1024.9254991561129
 20
1153.2765193094776
 11
1024.9254991561129
 21
1191.1049464342234
  0
LINE
  8
_0-0_
  6
CONTINUOUS
 62
    7
 10
1024.9254991561129
 20
1191.1049464342234
 11
1023.925499156113
 21
1191.1049464342234
  0
LINE
  8
_0-0_
  6
CONTINUOUS
 62
    4
 10
1029.9254991561129
 20
1259.7520630606389
 11
1029.9254991561129
 21
1156.7765193094776
  0
LINE
  8
_0-0_
  6
CONTINUOUS
 62
    1
 10
1385.1989496475876
 20
1052.9922480620155
 11
1375.1989496475876
 21
1052.9922480620155
  0
LINE
  8
_0-0_
  6
CONTINUOUS
 62
    1
 10
1375.1989496475876
 20
1052.9922480620155
 11
1375.1989496475876
 21
1087.9922480620155
  0
LINE
  8
_0-0_
  6
CONTINUOUS
 62
    1
 10
1375.1989496475876
 20
1087.9922480620155
 11
1385.1989496475876
 21
1087.9922480620155
  0
LINE
  8
_0-0_
  6
CONTINUOUS
 62
    1
 10
1385.1989496475876
 20
1087.9922480620155
 11
1385.1989496475876
 21
1052.9922480620155
  0
LINE
  8
_0-0_
  6
CONTINUOUS
 62
    1
 10
1376.1989496475876
 20
1052.9922480620155
 11
1376.1989496475876
 21
1087.9922480620155
  0
LINE
  8
_0-0_
  6
CONTINUOUS
 62
    1
 10
1384.1989496475876
 20
1087.9922480620155
 11
1384.1989496475876
 21
1052.9922480620155
  0
LINE
  8
_0-0_
  6
CONTINUOUS
 62
    1
 10
1072.6239839659474
 20
1052.9922480620155
 11
1062.6239839659474
 21
1052.9922480620155
  0
LINE
  8
_0-0_
  6
CONTINUOUS
 62
    1
 10
1062.6239839659474
 20
1052.9922480620155
 11
1062.6239839659474
 21
1087.9922480620155
  0
LINE
  8
_0-0_
  6
CONTINUOUS
 62
    1
 10
1062.6239839659474
 20
1087.9922480620155
 11
1072.6239839659474
 21
1087.9922480620155
  0
LINE
  8
_0-0_
  6
CONTINUOUS
 62
    1
 10
1072.6239839659474
 20
1087.9922480620155
 11
1072.6239839659474
 21
1052.9922480620155
  0
LINE
  8
_0-0_
  6
CONTINUOUS
 62
    1
 10
1063.6239839659474
 20
1052.9922480620155
 11
1063.6239839659474
 21
1087.9922480620155
  0
LINE
  8
_0-0_
  6
CONTINUOUS
 62
    1
 10
1071.6239839659474
 20
1087.9922480620155
 11
1071.6239839659474
 21
1052.9922480620155
  0
LINE
  8
_0-0_
  6
CONTINUOUS
 62
    7
 10
1023.925499156113
 20
1052.9922480620155
 11
1523.9254991561129
 21
1052.9922480620155
  0
CIRCLE
  8
_0-0_
  6
DASHED2
 62
    1
 10
1052.209770403575
 20
1093.9922480620155
 40
80
  0
TEXT
  8
_0-0_
 62
    7
 10
1039.8152235685779
 20
1162.0712712978195
 40
24
 41
1
 50
0
  1
Ｂ
  0
TEXT
  8
_0-0_
 62
    7
 10
1284.4641887437335
 20
1149.6558850112081
 40
30
 41
1
 50
0
  1
断熱材
  0
LINE
  8
_0-0_
  6
CONTINUOUS
 62
    7
 10
1124.4670144048614
 20
439.4193768810805
 11
1084.8728068387268
 21
402.49718100199505
  0
POINT
  8
_0-0_
 62
    7
 10
1084.8728068387268
 20
402.49718100199505
  0
TEXT
  8
_0-0_
 62
    7
 10
1098.9213555542201
 20
442.38026560903796
 40
21.617968000000001
 41
1
 50
0
  1
面取り
  0
LINE
  8
_0-0_
  6
CONTINUOUS
 62
    7
 10
672.13606690525205
 20
1633.3565543671132
 11
1706.8525777203677
 21
1633.3565543671132
  0
LINE
  8
_0-0_
  6
CONTINUOUS
 62
    7
 10
672.13606690525205
 20
1553.3565543671132
 11
1706.8525777203677
 21
1553.3565543671132
  0
LINE
  8
_0-0_
  6
CONTINUOUS
 62
    7
 10
672.13606690525205
 20
1473.3565543671132
 11
1706.8525777203677
 21
1473.3565543671132
  0
LINE
  8
_0-0_
  6
CONTINUOUS
 62
    7
 10
1189.4943223128103
 20
1633.3565543671132
 11
1189.4943223128103
 21
1473.3565543671132
  0
TEXT
  8
_0-0_
 62
    7
 10
696.13606690525205
 20
1497.3565543671132
 40
20
 41
1
 50
0
  1
施工部位：パラペット(外壁タイル)
  0
TEXT
  8
_0-0_
 62
    7
 10
1213.4943223128103
 20
1577.3565543671132
 40
20
 41
1
 50
0
  1
構造：ＲＣ造
  0
TEXT
  8
_0-0_
 62
    7
 10
1213.4943223128103
 20
1497.3565543671132
 40
20
 41
1
 50
0
  1
下地：コンクリートスラブ
  0
TEXT
  8
_0-0_
 62
    7
 10
696.13606690525205
 20
1577.3565543671132
 40
20
 41
1
 50
0
  1
図面番号：dan-kikai-SP-para-02
  0
ENDSEC
  0
EOF
