  0
SECTION
  2
HEADER
  9
$ACADVER
  1
AC1009
  9
$INSBASE
 10
0
 20
0
 30
0
  9
$EXTMIN
 10
0
 20
0
  9
$EXTMAX
 10
2378
 20
1682
  9
$LIMMIN
 10
0
 20
0
  9
$LIMMAX
 10
2378
 20
1682
  9
$LTSCALE
 40
1
  0
ENDSEC
  0
SECTION
  2
TABLES
  0
TABLE
  2
LTYPE
 70
     9
  0
LTYPE
  2
CONTINUOUS
 70
    64
  3
実線
 72
    65
 73
     0
 40
0.0
  0
LTYPE
  2
DASHED1
 70
    64
  3
--  --  --  --  --  --  --  --  
 72
    65
 73
     2
 40
2.5
 49
1.25
 49
-1.25
  0
LTYPE
  2
DASHED2
 70
    64
  3
----    ----    ----    ----    
 72
    65
 73
     2
 40
5.0
 49
2.5
 49
-2.5
  0
LTYPE
  2
DASHED3
 70
    64
  3
------  ------  ------  ------  
 72
    65
 73
     2
 40
5.0
 49
3.75
 49
-1.25
  0
LTYPE
  2
CENTER1
 70
    64
  3
----- - ----- - ----- - ----- - 
 72
    65
 73
     4
 40
10.0
 49
6.25
 49
-1.25
 49
1.25
 49
-1.25
  0
LTYPE
  2
CENTER2
 70
    64
  3
----------  --  ----------  --  
 72
    65
 73
     4
 40
20.0
 49
12.5
 49
-2.5
 49
2.5
 49
-2.5
  0
LTYPE
  2
PHANTOM1
 70
    64
  3
--- - - --- - - --- - - --- - - 
 72
    65
 73
     6
 40
10.0
 49
3.25
 49
-1.25
 49
1.25
 49
-1.25
 49
1.25
 49
-1.25
  0
LTYPE
  2
PHANTOM2
 70
    64
  3
--------  -  -  --------  -  -  
 72
    65
 73
     6
 40
20.0
 49
10.0
 49
-2.5
 49
1.25
 49
-2.5
 49
1.25
 49
-2.5
  0
LTYPE
  2
DOT
 70
    64
  3
-   -   -   -   -   -   -   -   
 72
    65
 73
     2
 40
2.5
 49
0.625
 49
-1.875
  0
LTYPE
  2
DUMMY
 70
    64
  3
ダミー
 72
    65
 73
     0
 40
0.0
  0
LTYPE
  2
RAND1
 70
    64
  3
ランダム線1
 72
    65
 73
     4
 40
10.0
 49
1.0
 49
-2.0
 49
3.0
 49
-4.0
  0
LTYPE
  2
RAND2
 70
    64
  3
ランダム線2
 72
    65
 73
     4
 40
14.0
 49
2.0
 49
-3.0
 49
4.0
 49
-5.0
  0
LTYPE
  2
RAND3
 70
    64
  3
ランダム線3
 72
    65
 73
     4
 40
18.0
 49
3.0
 49
-4.0
 49
5.0
 49
-6.0
  0
LTYPE
  2
RAND4
 70
    64
  3
ランダム線4
 72
    65
 73
     4
 40
22.0
 49
4.0
 49
-5.0
 49
6.0
 49
-7.0
  0
LTYPE
  2
RAND5
 70
    64
  3
ランダム線5
 72
    65
 73
     4
 40
26.0
 49
5.0
 49
-6.0
 49
7.0
 49
-8.0
  0
LTYPE
  2
LONG1
 70
    64
  3
----------  --  ----------  --  
 72
    65
 73
     4
 40
40.0
 49
32.5
 49
-2.5
 49
2.5
 49
-2.5
  0
LTYPE
  2
LONG2
 70
    64
  3
--------  -  -  --------  -  -  
 72
    65
 73
     6
 40
40.0
 49
30.0
 49
-2.5
 49
1.25
 49
-2.5
 49
1.25
 49
-2.5
  0
LTYPE
  2
LONG3
 70
    64
  3
+++++++++++++++..+++++++++++++++
 72
    65
 73
     2
 40
40.0
 49
37.5
 49
-2.5
  0
LTYPE
  2
LONG4
 70
    64
  3
+++++++++++++++..+++++++++++++++
 72
    65
 73
     2
 40
80.0
 49
75.0
 49
-5.0
  0
LTYPE
  2
LONG5
 70
    64
  3
----------  --  ----------  --  
 72
    65
 73
     4
 40
60.0
 49
37.5
 49
-7.5
 49
7.5
 49
-7.5
  0
LTYPE
  2
dashed
 70
   64
  3
-------   -------------   ------
 72
   65
 73
    2
 40
7.5
 49
6
 49
-1.5
  0
LTYPE
  2
dashed_spaced
 70
   64
  3
----        --------        ----
 72
   65
 73
    2
 40
12
 49
6
 49
-6
  0
LTYPE
  2
long_dashed_dotted
 70
   64
  3
------------- --- --------------
 72
   65
 73
    4
 40
15.25
 49
12
 49
-1.5
 49
0.25
 49
-1.5
  0
LTYPE
  2
long_dashed_double-dotted
 70
   64
  3
----------- --- --- ------------
 72
   65
 73
    6
 40
17
 49
12
 49
-1.5
 49
0.25
 49
-1.5
 49
0.25
 49
-1.5
  0
LTYPE
  2
long_dashed_triplicate-dotted
 70
   64
  3
--------- --- --- --- ----------
 72
   65
 73
    8
 40
18.75
 49
12
 49
-1.5
 49
0.25
 49
-1.5
 49
0.25
 49
-1.5
 49
0.25
 49
-1.5
  0
LTYPE
  2
dotted
 70
   64
  3
   -       -       -       -    
 72
   65
 73
    2
 40
1.75
 49
0.25
 49
-1.5
  0
LTYPE
  2
chain
 70
   64
  3
-------------- -- --------------
 72
   65
 73
    4
 40
18.5
 49
12
 49
-1.5
 49
3.5
 49
-1.5
  0
LTYPE
  2
chain_double_dash
 70
   64
  3
------------ -- -- -------------
 72
   65
 73
    6
 40
23.5
 49
12
 49
-1.5
 49
3.5
 49
-1.5
 49
3.5
 49
-1.5
  0
LTYPE
  2
dashed_dotted
 70
   64
  3
-----------     -     ----------
 72
   65
 73
    4
 40
9.25
 49
6
 49
-1.5
 49
0.25
 49
-1.5
  0
LTYPE
  2
double-dashed_dotted
 70
   64
  3
------   -----------   -   -----
 72
   65
 73
    6
 40
16.75
 49
6
 49
-1.5
 49
6
 49
-1.5
 49
0.25
 49
-1.5
  0
LTYPE
  2
dashed_double-dotted
 70
   64
  3
---------    -    -    ---------
 72
   65
 73
    6
 40
11
 49
6
 49
-1.5
 49
0.25
 49
-1.5
 49
0.25
 49
-1.5
  0
LTYPE
  2
double-dashed_double-dotted
 70
   64
  3
-----   ---------   -   -   ----
 72
   65
 73
    8
 40
18.5
 49
6
 49
-1.5
 49
6
 49
-1.5
 49
0.25
 49
-1.5
 49
0.25
 49
-1.5
  0
LTYPE
  2
dashed_triplicate-dotted
 70
   64
  3
-------    -    -    -    ------
 72
   65
 73
    8
 40
12.75
 49
6
 49
-1.5
 49
0.25
 49
-1.5
 49
0.25
 49
-1.5
 49
0.25
 49
-1.5
  0
LTYPE
  2
double-dashed_triplicate-dotted
 70
   64
  3
-----  ---------  -  -  -  -----
 72
   65
 73
   10
 40
20.25
 49
6
 49
-1.5
 49
6
 49
-1.5
 49
0.25
 49
-1.5
 49
0.25
 49
-1.5
 49
0.25
 49
-1.5
  0
LTYPE
  2
undefined
 70
   64
  3
--------------------------------
 72
   65
 73
    0
 40
0
  0
ENDTAB
  0
TABLE
  2
STYLE
  5
3
100
AcDbSymbolTable
 70
     1
  0
STYLE
  5
10
100
AcDbSymbolTableRecord
100
AcDbTextStyleTableRecord
  2
STANDARD
 70
     0
 40
0.0
 41
1.0
 50
0.0
 71
     0
 42
0.2
  3
txt
  4
bigfont.shx
  0
STYLE
  5
26
100
AcDbSymbolTableRecord
100
AcDbTextStyleTableRecord
  2
TATEGAKI
 70
    68
 40
0.0
 41
1.0
 50
0.0
 71
     0
 42
1.0
  3
txt
  4
bigfont.shx
  0
ENDTAB
  0
TABLE
  2
LAYER
 70
    2
  0
LAYER
  2
_0-0_
 70
   64
 62
    7
  6
CONTINUOUS
  0
LAYER
  2
ADD_LINE
 70
   64
 62
    7
  6
CONTINUOUS
  0
ENDTAB
  0
ENDSEC
  0
SECTION
  2
BLOCKS
  0
ENDSEC
  0
SECTION
  2
ENTITIES
  0
LINE
  8
_0-0_
  6
CONTINUOUS
 62
    7
 10
1181.7074071739462
 20
1012.5130174339722
 11
1226.1615646437822
 21
1012.5130174339722
  0
LINE
  8
_0-0_
  6
CONTINUOUS
 62
    7
 10
672.13606690525205
 20
1633.3565543671114
 11
672.13606690525205
 21
167.53106997205509
  0
LINE
  8
_0-0_
  6
CONTINUOUS
 62
    2
 10
1181.7074071739462
 20
1314.2059893463941
 11
1181.7074071739462
 21
931.75890422318776
  0
LINE
  8
_0-0_
  6
CONTINUOUS
 62
    7
 10
672.13606690525205
 20
167.53106997205509
 11
1706.8525777203686
 21
167.53106997205509
  0
LINE
  8
_0-0_
  6
CONTINUOUS
 62
    7
 10
672.13606690525205
 20
1633.3565543671132
 11
672.13606690525205
 21
167.53106997205509
  0
LINE
  8
_0-0_
  6
CONTINUOUS
 62
    7
 10
1706.8525777203686
 20
1633.3565543671132
 11
1706.8525777203686
 21
167.53106997205509
  0
LINE
  8
_0-0_
  6
CONTINUOUS
 62
    7
 10
1053.7353194053103
 20
1012.5130174339722
 11
1029.8704655402635
 21
988.64816356892629
  0
LINE
  8
_0-0_
  6
CONTINUOUS
 62
    4
 10
1048.1434363132739
 20
1026.0130174339722
 11
1016.3704655402636
 21
994.24004666096175
  0
LINE
  8
_0-0_
  6
CONTINUOUS
 62
    2
 10
1204.8697089423222
 20
1315.5944082711433
 11
1205.9791493506345
 21
1316.8513591604317
  0
LINE
  8
_0-0_
  6
CONTINUOUS
 62
    2
 10
1182.6425589423216
 20
1312.8174537291072
 11
1181.7074071739462
 21
1314.2059893463941
  0
LINE
  8
_0-0_
  6
CONTINUOUS
 62
    2
 10
1183.7519993506339
 20
1311.5605028398188
 11
1182.6425589423216
 21
1312.8174537291072
  0
LINE
  8
_0-0_
  6
CONTINUOUS
 62
    2
 10
1185.0153405455458
 20
1310.4585363106946
 11
1183.7519993506339
 21
1311.5605028398188
  0
LINE
  8
_0-0_
  6
CONTINUOUS
 62
    2
 10
1186.4110833162213
 20
1309.5303583106308
 11
1185.0153405455458
 21
1310.4585363106946
  0
LINE
  8
_0-0_
  6
CONTINUOUS
 62
    2
 10
1187.9158502576465
 20
1308.7915167310568
 11
1186.4110833162213
 21
1309.5303583106308
  0
LINE
  8
_0-0_
  6
CONTINUOUS
 62
    2
 10
1189.5039301140587
 20
1308.2546588203188
 11
1187.9158502576465
 21
1308.7915167310568
  0
LINE
  8
_0-0_
  6
CONTINUOUS
 62
    2
 10
1191.1481557513707
 20
1307.9289032667059
 11
1189.5039301140587
 21
1308.2546588203188
  0
LINE
  8
_0-0_
  6
CONTINUOUS
 62
    2
 10
1192.8209821739474
 20
1307.819684608394
 11
1191.1481557513707
 21
1307.9289032667059
  0
LINE
  8
_0-0_
  6
CONTINUOUS
 62
    2
 10
1194.4938030397334
 20
1307.9289032667059
 11
1192.8209821739474
 21
1307.819684608394
  0
LINE
  8
_0-0_
  6
CONTINUOUS
 62
    2
 10
1196.1380286770454
 20
1308.2546588203188
 11
1194.4938030397334
 21
1307.9289032667059
  0
LINE
  8
_0-0_
  6
CONTINUOUS
 62
    2
 10
1197.7261085334594
 20
1308.7915167310568
 11
1196.1380286770454
 21
1308.2546588203188
  0
LINE
  8
_0-0_
  6
CONTINUOUS
 62
    2
 10
1199.2308754748829
 20
1309.5303583106308
 11
1197.7261085334594
 21
1308.7915167310568
  0
LINE
  8
_0-0_
  6
CONTINUOUS
 62
    2
 10
1200.6266182455583
 20
1310.4585363106946
 11
1199.2308754748829
 21
1309.5303583106308
  0
LINE
  8
_0-0_
  6
CONTINUOUS
 62
    2
 10
1201.8899594404702
 20
1311.5605028398188
 11
1200.6266182455583
 21
1310.4585363106946
  0
LINE
  8
_0-0_
  6
CONTINUOUS
 62
    2
 10
1202.9993998487826
 20
1312.8174537291072
 11
1201.8899594404702
 21
1311.5605028398188
  0
LINE
  8
_0-0_
  6
CONTINUOUS
 62
    2
 10
1203.934557173945
 20
1314.2059893463941
 11
1202.9993998487826
 21
1312.8174537291072
  0
LINE
  8
_0-0_
  6
CONTINUOUS
 62
    2
 10
1202.9993998487826
 20
1315.5944082711433
 11
1203.934557173945
 21
1314.2058782106435
  0
LINE
  8
_0-0_
  6
CONTINUOUS
 62
    2
 10
1201.8899594404702
 20
1316.8513591604317
 11
1202.9993998487826
 21
1315.5944082711433
  0
LINE
  8
_0-0_
  6
CONTINUOUS
 62
    2
 10
1200.6266182455583
 20
1317.9533256895559
 11
1201.8899594404702
 21
1316.8513591604317
  0
LINE
  8
_0-0_
  6
CONTINUOUS
 62
    2
 10
1199.2308754748829
 20
1318.8815036896196
 11
1200.6266182455583
 21
1317.9533256895559
  0
LINE
  8
_0-0_
  6
CONTINUOUS
 62
    2
 10
1197.7261085334594
 20
1319.6203452691936
 11
1199.2308754748829
 21
1318.8815036896196
  0
LINE
  8
_0-0_
  6
CONTINUOUS
 62
    2
 10
1196.1380286770454
 20
1320.1572031799317
 11
1197.7261085334594
 21
1319.6203452691936
  0
LINE
  8
_0-0_
  6
CONTINUOUS
 62
    2
 10
1194.4938030397334
 20
1320.4829587335428
 11
1196.1380286770454
 21
1320.1572031799317
  0
LINE
  8
_0-0_
  6
CONTINUOUS
 62
    2
 10
1192.8209821739474
 20
1320.5921829486435
 11
1194.4938030397334
 21
1320.4829587335428
  0
LINE
  8
_0-0_
  6
CONTINUOUS
 62
    2
 10
1191.1481557513707
 20
1320.4829587335428
 11
1192.8209821739474
 21
1320.5921829486435
  0
LINE
  8
_0-0_
  6
CONTINUOUS
 62
    2
 10
1189.5039301140587
 20
1320.1572031799317
 11
1191.1481557513707
 21
1320.4829587335428
  0
LINE
  8
_0-0_
  6
CONTINUOUS
 62
    2
 10
1187.9158502576465
 20
1319.6203452691936
 11
1189.5039301140587
 21
1320.1572031799317
  0
LINE
  8
_0-0_
  6
CONTINUOUS
 62
    2
 10
1186.4110833162213
 20
1318.8815036896196
 11
1187.9158502576465
 21
1319.6203452691936
  0
LINE
  8
_0-0_
  6
CONTINUOUS
 62
    2
 10
1185.0153405455458
 20
1317.9533256895559
 11
1186.4110833162213
 21
1318.8815036896196
  0
LINE
  8
_0-0_
  6
CONTINUOUS
 62
    2
 10
1183.7519993506339
 20
1316.8513591604317
 11
1185.0153405455458
 21
1317.9533256895559
  0
LINE
  8
_0-0_
  6
CONTINUOUS
 62
    2
 10
1182.6425589423216
 20
1315.5944082711433
 11
1183.7519993506339
 21
1316.8513591604317
  0
LINE
  8
_0-0_
  6
CONTINUOUS
 62
    2
 10
1181.7074071739462
 20
1314.2058782106435
 11
1182.6425589423216
 21
1315.5944082711433
  0
LINE
  8
_0-0_
  6
CONTINUOUS
 62
    2
 10
1224.1171094404708
 20
1316.8513591604317
 11
1225.2265498487832
 21
1315.5944082711433
  0
LINE
  8
_0-0_
  6
CONTINUOUS
 62
    2
 10
1222.853768245559
 20
1317.9533256895559
 11
1224.1171094404708
 21
1316.8513591604317
  0
LINE
  8
_0-0_
  6
CONTINUOUS
 62
    2
 10
1221.4580254748835
 20
1318.8815036896196
 11
1222.853768245559
 21
1317.9533256895559
  0
LINE
  8
_0-0_
  6
CONTINUOUS
 62
    2
 10
1219.9532585334582
 20
1319.6203452691936
 11
1221.4580254748835
 21
1318.8815036896196
  0
LINE
  8
_0-0_
  6
CONTINUOUS
 62
    2
 10
1218.3651786770461
 20
1320.1572031799317
 11
1219.9532585334582
 21
1319.6203452691936
  0
LINE
  8
_0-0_
  6
CONTINUOUS
 62
    2
 10
1216.720953039734
 20
1320.4829587335428
 11
1218.3651786770461
 21
1320.1572031799317
  0
LINE
  8
_0-0_
  6
CONTINUOUS
 62
    2
 10
1215.0481321739462
 20
1320.5921829486435
 11
1216.720953039734
 21
1320.4829587335428
  0
LINE
  8
_0-0_
  6
CONTINUOUS
 62
    2
 10
1213.3753057513713
 20
1320.4829587335428
 11
1215.0481321739462
 21
1320.5921829486435
  0
LINE
  8
_0-0_
  6
CONTINUOUS
 62
    2
 10
1211.7310801140593
 20
1320.1572031799317
 11
1213.3753057513713
 21
1320.4829587335428
  0
LINE
  8
_0-0_
  6
CONTINUOUS
 62
    2
 10
1210.1430002576453
 20
1319.6203452691936
 11
1211.7310801140593
 21
1320.1572031799317
  0
LINE
  8
_0-0_
  6
CONTINUOUS
 62
    2
 10
1208.6382333162219
 20
1318.8815036896196
 11
1210.1430002576453
 21
1319.6203452691936
  0
LINE
  8
_0-0_
  6
CONTINUOUS
 62
    2
 10
1207.2424905455464
 20
1317.9533256895559
 11
1208.6382333162219
 21
1318.8815036896196
  0
LINE
  8
_0-0_
  6
CONTINUOUS
 62
    2
 10
1205.9791493506345
 20
1316.8513591604317
 11
1207.2424905455464
 21
1317.9533256895559
  0
LINE
  8
_0-0_
  6
CONTINUOUS
 62
    2
 10
1203.934557173945
 20
1314.2058782106435
 11
1204.8697089423222
 21
1315.5944082711433
  0
LINE
  8
_0-0_
  6
CONTINUOUS
 62
    2
 10
1225.2265498487832
 20
1315.5944082711433
 11
1226.1615646437822
 21
1314.2060898407219
  0
LINE
  8
_0-0_
  6
CONTINUOUS
 62
    2
 10
1226.1615646437822
 20
931.75890422318776
 11
1226.1615646437822
 21
1314.2060898407219
  0
LINE
  8
_0-0_
  6
CONTINUOUS
 62
    2
 10
1135.9500478610644
 20
931.75890422318776
 11
1181.7074071739462
 21
931.75890422318776
  0
LINE
  8
_0-0_
  6
CONTINUOUS
 62
    2
 10
1135.9500478610644
 20
931.75890422318776
 11
1131.7074071739462
 21
927.51626353606866
  0
LINE
  8
_0-0_
  6
CONTINUOUS
 62
    2
 10
1131.7074071739462
 20
891.54738744047086
 11
1131.7074071739462
 21
927.51626353606866
  0
LINE
  8
_0-0_
  6
CONTINUOUS
 62
    2
 10
1131.7074071739462
 20
891.54738744047086
 11
1135.9500478610644
 21
887.30474675335176
  0
LINE
  8
_0-0_
  6
CONTINUOUS
 62
    2
 10
1271.9189239566622
 20
931.75890422318776
 11
1226.1615646437822
 21
931.75890422318776
  0
LINE
  8
_0-0_
  6
CONTINUOUS
 62
    2
 10
1271.9189239566622
 20
931.75890422318776
 11
1276.1615646437822
 21
927.51626353606866
  0
LINE
  8
_0-0_
  6
CONTINUOUS
 62
    2
 10
1276.1615646437822
 20
891.54738744047086
 11
1276.1615646437822
 21
927.51626353606866
  0
LINE
  8
_0-0_
  6
CONTINUOUS
 62
    2
 10
1271.9189239566622
 20
887.30474675335176
 11
1135.9500478610644
 21
887.30474675335176
  0
LINE
  8
_0-0_
  6
CONTINUOUS
 62
    2
 10
1276.1615646437822
 20
891.54738744047086
 11
1271.9189239566622
 21
887.30474675335176
  0
LINE
  8
_0-0_
  6
CONTINUOUS
 62
    7
 10
1354.1336524124181
 20
1012.5130174339722
 11
1377.9985062774631
 21
988.64816356892629
  0
LINE
  8
_0-0_
  6
CONTINUOUS
 62
    4
 10
1359.7255355044545
 20
1026.0130174339722
 11
1391.4985062774631
 21
994.24004666096266
  0
LINE
  8
_0-0_
  6
CONTINUOUS
 62
    7
 10
1029.8704655402635
 20
969.30235668574937
 11
1073.0811262884872
 21
1012.5130174339722
  0
LINE
  8
_0-0_
  6
CONTINUOUS
 62
    7
 10
1029.8704655402635
 20
953.39245410905392
 11
1088.9910288651827
 21
1012.5130174339722
  0
LINE
  8
_0-0_
  6
CONTINUOUS
 62
    7
 10
1029.8704655402635
 20
937.48255153235755
 11
1104.9009314418781
 21
1012.5130174339722
  0
LINE
  8
_0-0_
  6
CONTINUOUS
 62
    7
 10
1366.8801965912435
 20
1008.0710672304406
 11
1453.0264762259976
 21
1157.2808004408719
  0
POINT
  8
_0-0_
 62
    7
 10
1366.8801965912435
 20
1008.0710672304406
  0
LINE
  8
_0-0_
  6
CONTINUOUS
 62
    7
 10
1217.4321806447142
 20
372.70955003017139
 11
1467.4321806447142
 21
622.70955003017139
  0
LINE
  8
_0-0_
  6
CONTINUOUS
 62
    7
 10
1201.5222780680187
 20
372.70955003017139
 11
1451.5222780680187
 21
622.70955003017139
  0
ARC
  8
_0-0_
  6
CONTINUOUS
 62
    1
 10
1094.4024757245643
 20
562.70955003017139
 40
30
 50
180
 51
0
  0
ARC
  8
_0-0_
  6
CONTINUOUS
 62
    1
 10
1094.4024757245643
 20
562.70955003017139
 40
15
 50
180
 51
0
  0
LINE
  8
_0-0_
  6
CONTINUOUS
 62
    1
 10
1079.4024757245643
 20
572.70955003017139
 11
1064.4024757245643
 21
572.70955003017139
  0
LINE
  8
_0-0_
  6
CONTINUOUS
 62
    1
 10
1079.4024757245643
 20
562.70955003017139
 11
1079.4024757245643
 21
572.70955003017139
  0
LINE
  8
_0-0_
  6
CONTINUOUS
 62
    1
 10
1064.4024757245643
 20
562.70955003017139
 11
1064.4024757245643
 21
572.70955003017139
  0
ARC
  8
_0-0_
  6
CONTINUOUS
 62
    1
 10
1139.4024757245643
 20
682.70955003017139
 40
30
 50
0
 51
180
  0
ARC
  8
_0-0_
  6
CONTINUOUS
 62
    1
 10
1139.4024757245643
 20
682.70955003017139
 40
15
 50
0
 51
180
  0
LINE
  8
_0-0_
  6
CONTINUOUS
 62
    1
 10
1154.4024757245652
 20
672.70955003017139
 11
1169.4024757245652
 21
672.70955003017139
  0
LINE
  8
_0-0_
  6
CONTINUOUS
 62
    1
 10
1154.4024757245652
 20
682.70955003017139
 11
1154.4024757245652
 21
672.70955003017139
  0
LINE
  8
_0-0_
  6
CONTINUOUS
 62
    1
 10
1169.4024757245652
 20
682.70955003017139
 11
1169.4024757245652
 21
672.70955003017139
  0
LINE
  8
_0-0_
  6
CONTINUOUS
 62
    1
 10
1109.4024757245643
 20
562.70955003017139
 11
1109.4024757245643
 21
682.70955003017139
  0
LINE
  8
_0-0_
  6
CONTINUOUS
 62
    1
 10
1124.4024757245643
 20
682.70955003017139
 11
1124.4024757245643
 21
562.70955003017139
  0
ARC
  8
_0-0_
  6
CONTINUOUS
 62
    1
 10
1268.4664960931641
 20
562.70955003017139
 40
30
 50
180
 51
0
  0
ARC
  8
_0-0_
  6
CONTINUOUS
 62
    1
 10
1268.4664960931641
 20
562.70955003017139
 40
15
 50
180
 51
0
  0
LINE
  8
_0-0_
  6
CONTINUOUS
 62
    1
 10
1253.4664960931641
 20
572.70955003017139
 11
1238.4664960931641
 21
572.70955003017139
  0
LINE
  8
_0-0_
  6
CONTINUOUS
 62
    1
 10
1253.4664960931641
 20
562.70955003017139
 11
1253.4664960931641
 21
572.70955003017139
  0
LINE
  8
_0-0_
  6
CONTINUOUS
 62
    1
 10
1238.4664960931641
 20
562.70955003017139
 11
1238.4664960931641
 21
572.70955003017139
  0
ARC
  8
_0-0_
  6
CONTINUOUS
 62
    1
 10
1313.4664960931641
 20
682.70955003017139
 40
30
 50
0
 51
180
  0
ARC
  8
_0-0_
  6
CONTINUOUS
 62
    1
 10
1313.4664960931641
 20
682.70955003017139
 40
15
 50
0
 51
180
  0
LINE
  8
_0-0_
  6
CONTINUOUS
 62
    1
 10
1328.466496093165
 20
672.70955003017139
 11
1343.466496093165
 21
672.70955003017139
  0
LINE
  8
_0-0_
  6
CONTINUOUS
 62
    1
 10
1328.466496093165
 20
682.70955003017139
 11
1328.466496093165
 21
672.70955003017139
  0
LINE
  8
_0-0_
  6
CONTINUOUS
 62
    1
 10
1343.466496093165
 20
682.70955003017139
 11
1343.466496093165
 21
672.70955003017139
  0
LINE
  8
_0-0_
  6
CONTINUOUS
 62
    1
 10
1283.4664960931641
 20
562.70955003017139
 11
1283.4664960931641
 21
682.70955003017139
  0
LINE
  8
_0-0_
  6
CONTINUOUS
 62
    1
 10
1298.4664960931641
 20
682.70955003017139
 11
1298.4664960931641
 21
562.70955003017139
  0
LINE
  8
_0-0_
  6
CONTINUOUS
 62
    7
 10
1185.6123754913224
 20
372.70955003017139
 11
1435.6123754913224
 21
622.70955003017139
  0
LINE
  8
_0-0_
  6
CONTINUOUS
 62
    7
 10
1511.3881165842522
 20
717.20955003017139
 11
1596.5020776149304
 21
717.20955003017139
  0
LINE
  8
_0-0_
  6
CONTINUOUS
 62
  136
 10
1382.4985062774631
 20
780.46312136763868
 11
1443.5020776149304
 21
719.45955003017139
  0
LINE
  8
_0-0_
  6
CONTINUOUS
 62
    6
 10
1377.9985062774613
 20
684.52449597415875
 11
1394.9335603334757
 21
701.4595500301732
  0
LINE
  8
_0-0_
  6
CONTINUOUS
 62
    6
 10
1377.9985062774613
 20
652.70469082076238
 11
1426.7533654868712
 21
701.4595500301732
  0
LINE
  8
_0-0_
  6
CONTINUOUS
 62
    6
 10
1379.8231706402612
 20
622.70955003016957
 11
1458.5731706402612
 21
701.45955003016957
  0
LINE
  8
_0-0_
  6
CONTINUOUS
 62
    6
 10
1411.6429757936612
 20
622.7095500301732
 11
1490.3929757936612
 21
701.4595500301732
  0
LINE
  8
_0-0_
  6
CONTINUOUS
 62
    6
 10
1443.4627809470549
 20
622.7095500301732
 11
1522.2127809470549
 21
701.4595500301732
  0
LINE
  8
_0-0_
  6
CONTINUOUS
 62
    6
 10
1475.2825861004476
 20
622.70955003017139
 11
1554.0325861004449
 21
701.45955003016957
  0
LINE
  8
_0-0_
  6
CONTINUOUS
 62
    6
 10
1507.1023912538449
 20
622.7095500301732
 11
1585.8523912538449
 21
701.4595500301732
  0
LINE
  8
_0-0_
  6
CONTINUOUS
 62
    6
 10
1538.9221964072385
 20
622.7095500301732
 11
1617.6721964072385
 21
701.4595500301732
  0
LINE
  8
_0-0_
  6
CONTINUOUS
 62
    6
 10
1570.7420015606313
 20
622.70955003016957
 11
1649.4920015606313
 21
701.45955003017139
  0
LINE
  8
_0-0_
  6
CONTINUOUS
 62
    6
 10
1555.2802885782621
 20
701.4595500301732
 11
1634.0302885782621
 21
622.7095500301732
  0
LINE
  8
_0-0_
  6
CONTINUOUS
 62
    6
 10
1523.4604834248712
 20
701.45955003016957
 11
1602.2104834248712
 21
622.70955003016957
  0
LINE
  8
_0-0_
  6
CONTINUOUS
 62
    6
 10
1491.6406782714766
 20
701.45955003016957
 11
1570.3906782714766
 21
622.7095500301732
  0
LINE
  8
_0-0_
  6
CONTINUOUS
 62
    6
 10
1459.8208731180785
 20
701.4595500301732
 11
1538.5708731180785
 21
622.7095500301732
  0
LINE
  8
_0-0_
  6
CONTINUOUS
 62
    6
 10
1428.0010679646875
 20
701.45955003016957
 11
1506.7510679646875
 21
622.70955003016957
  0
LINE
  8
_0-0_
  6
CONTINUOUS
 62
    6
 10
1396.181262811293
 20
701.45955003016957
 11
1474.931262811293
 21
622.70955003016957
  0
LINE
  8
_0-0_
  6
CONTINUOUS
 62
    6
 10
1377.9985062774631
 20
687.82250141060399
 11
1443.1114576578948
 21
622.7095500301732
  0
LINE
  8
_0-0_
  6
CONTINUOUS
 62
    6
 10
1377.9985062774613
 20
656.00269625721216
 11
1411.2916525045011
 21
622.70955003016957
  0
LINE
  8
_0-0_
  6
CONTINUOUS
 62
    6
 10
1377.9985062774631
 20
624.18289110381397
 11
1379.4718473511057
 21
622.70955003017139
  0
LINE
  8
_0-0_
  6
CONTINUOUS
 62
    6
 10
1377.9985062774631
 20
701.45955003017139
 11
1377.9985062774631
 21
622.70955003017139
  0
LINE
  8
_0-0_
  6
CONTINUOUS
 62
    1
 10
1323.9985062774631
 20
813.28114085230141
 11
1325.5414039664056
 21
814.82403854124391
  0
LINE
  8
_0-0_
  6
CONTINUOUS
 62
    1
 10
1323.9985062774631
 20
813.28114085230141
 11
1325.5414039664056
 21
811.73824316335617
  0
LINE
  8
_0-0_
  6
DASHED1
 62
    1
 10
1325.5414039664056
 20
814.82403854124391
 11
1326.8110062774631
 21
816.09364085230141
  0
LINE
  8
_0-0_
  6
DASHED1
 62
    1
 10
1325.5414039664056
 20
811.73824316335617
 11
1326.8110062774631
 21
810.46864085230141
  0
LINE
  8
_0-0_
  6
CONTINUOUS
 62
    1
 10
1324.3479583897997
 20
806.61319733099231
 11
1324.0833707171532
 21
811.66183087864397
  0
LINE
  8
_0-0_
  6
CONTINUOUS
 62
    1
 10
1324.0833707171532
 20
814.90045082595884
 11
1324.3479583897997
 21
819.94908437360777
  0
LINE
  8
_0-0_
  6
CONTINUOUS
 62
    4
 10
1497.8243397982405
 20
739.70955003017139
 11
1514.7631165842522
 21
739.70955003017139
  0
LINE
  8
_0-0_
  6
CONTINUOUS
 62
    7
 10
1596.5020776149304
 20
717.20955003017139
 11
1596.5020776149304
 21
714.95955003017139
  0
LINE
  8
_0-0_
  6
CONTINUOUS
 62
    7
 10
1443.5020776149304
 20
719.45955003017139
 11
1443.5020776149304
 21
721.70955003017139
  0
LINE
  8
_0-0_
  6
CONTINUOUS
 62
    7
 10
1380.2485062774631
 20
848.3491603369614
 11
1384.7485062774631
 21
848.3491603369614
  0
LINE
  8
_0-0_
  6
CONTINUOUS
 62
    7
 10
1382.4985062774631
 20
780.46312136763868
 11
1384.7485062774631
 21
780.46312136763868
  0
LINE
  8
_0-0_
  6
CONTINUOUS
 62
    1
 10
1344.2485062774631
 20
807.65614085230141
 11
1324.3479583897997
 21
806.61319733099231
  0
LINE
  8
_0-0_
  6
CONTINUOUS
 62
    1
 10
1382.4985062774631
 20
807.65614085230141
 11
1382.4985062774631
 21
796.40614085230141
  0
LINE
  8
_0-0_
  6
CONTINUOUS
 62
    1
 10
1382.4985062774631
 20
818.90614085230141
 11
1382.4985062774631
 21
830.15614085230141
  0
LINE
  8
_0-0_
  6
CONTINUOUS
 62
    1
 10
1386.9985062774631
 20
817.38700556025037
 11
1386.9985062774631
 21
809.17527614434789
  0
LINE
  8
_0-0_
  6
CONTINUOUS
 62
    1
 10
1386.9985062774631
 20
817.38700556025287
 11
1386.9985062774631
 21
817.38700556025287
  0
LINE
  8
_0-0_
  6
CONTINUOUS
 62
    1
 10
1386.9985062774631
 20
817.38700556025287
 11
1385.0228576825425
 21
824.98251288462279
  0
LINE
  8
_0-0_
  6
CONTINUOUS
 62
    1
 10
1385.0228576825425
 20
824.98251288462279
 11
1382.4985062774631
 21
830.15614085230141
  0
LINE
  8
_0-0_
  6
CONTINUOUS
 62
    1
 10
1382.4985062774631
 20
796.40614085230141
 11
1382.4985062774631
 21
796.40614085230141
  0
LINE
  8
_0-0_
  6
CONTINUOUS
 62
    1
 10
1382.4985062774631
 20
796.40614085230141
 11
1385.7959212545766
 21
803.77340289568122
  0
LINE
  8
_0-0_
  6
CONTINUOUS
 62
    1
 10
1385.7959212545766
 20
803.77340289568122
 11
1386.9985062774631
 21
809.17527614434994
  0
LINE
  8
_0-0_
  6
CONTINUOUS
 62
    1
 10
1387.3772456715094
 20
809.95403788283443
 11
1387.3772456715094
 21
809.95403788283443
  0
LINE
  8
_0-0_
  6
CONTINUOUS
 62
    1
 10
1387.3772456715094
 20
809.95403788283443
 11
1386.9985062774631
 21
810.46864085230141
  0
LINE
  8
_0-0_
  6
CONTINUOUS
 62
    1
 10
1386.9985062774631
 20
816.09364085230141
 11
1386.9985062774631
 21
816.09364085230141
  0
LINE
  8
_0-0_
  6
CONTINUOUS
 62
    1
 10
1386.9985062774631
 20
816.09364085230141
 11
1387.3772456715094
 21
816.60824382176838
  0
LINE
  8
_0-0_
  6
CONTINUOUS
 62
    1
 10
1387.3772456715094
 20
809.9540378828342
 11
1387.3772456715094
 21
809.9540378828342
  0
LINE
  8
_0-0_
  6
CONTINUOUS
 62
    1
 10
1387.3772456715094
 20
809.9540378828342
 11
1387.4437099400359
 21
810.53072329759459
  0
LINE
  8
_0-0_
  6
CONTINUOUS
 62
    1
 10
1387.4437099400359
 20
810.53072329759459
 11
1387.4966469205588
 21
811.19097875797638
  0
LINE
  8
_0-0_
  6
CONTINUOUS
 62
    1
 10
1387.4966469205588
 20
811.19097875797638
 11
1387.5344481497127
 21
811.91474273592121
  0
LINE
  8
_0-0_
  6
CONTINUOUS
 62
    1
 10
1387.5344481497127
 20
811.91474273592121
 11
1387.5559650562782
 21
812.68002402920149
  0
LINE
  8
_0-0_
  6
CONTINUOUS
 62
    1
 10
1387.5559650562782
 20
812.68002402920149
 11
1387.5605438599368
 21
813.46356995297174
  0
LINE
  8
_0-0_
  6
CONTINUOUS
 62
    1
 10
1387.5605438599368
 20
813.46356995297174
 11
1387.5480454360568
 21
814.24157286083175
  0
LINE
  8
_0-0_
  6
CONTINUOUS
 62
    1
 10
1387.5480454360568
 20
814.24157286083175
 11
1387.5188495429234
 21
814.99039352811462
  0
LINE
  8
_0-0_
  6
CONTINUOUS
 62
    1
 10
1387.5188495429234
 20
814.99039352811462
 11
1387.4738432829752
 21
815.68727941776649
  0
LINE
  8
_0-0_
  6
CONTINUOUS
 62
    1
 10
1387.4738432829752
 20
815.68727941776649
 11
1387.4143941486466
 21
816.31105600467163
  0
LINE
  8
_0-0_
  6
CONTINUOUS
 62
    1
 10
1387.4143941486466
 20
816.31105600467163
 11
1387.3772456715094
 21
816.6082438217685
  0
LINE
  8
_0-0_
  6
DASHED1
 62
    1
 10
1386.9985062774631
 20
816.09364085230141
 11
1326.8110062774631
 21
816.09364085230141
  0
LINE
  8
_0-0_
  6
DASHED1
 62
    1
 10
1386.9985062774631
 20
810.46864085230141
 11
1326.8110062774631
 21
810.46864085230141
  0
LINE
  8
_0-0_
  6
CONTINUOUS
 62
    1
 10
1344.2485062774631
 20
818.90614085230141
 11
1382.4985062774631
 21
818.90614085230141
  0
LINE
  8
_0-0_
  6
CONTINUOUS
 62
    1
 10
1344.2485062774631
 20
818.90614085230141
 11
1324.3479583897997
 21
819.94908437360777
  0
LINE
  8
_0-0_
  6
CONTINUOUS
 62
    1
 10
1344.2485062774631
 20
813.84364085230141
 11
1324.0833707171532
 21
814.90045082595884
  0
LINE
  8
_0-0_
  6
CONTINUOUS
 62
    1
 10
1344.2485062774631
 20
807.65614085230141
 11
1382.4985062774631
 21
807.65614085230141
  0
LINE
  8
_0-0_
  6
CONTINUOUS
 62
    1
 10
1344.2485062774631
 20
812.71864085230141
 11
1324.0833707171532
 21
811.66183087864397
  0
LINE
  8
_0-0_
  6
CONTINUOUS
 62
    1
 10
1344.2485062774631
 20
812.71864085230141
 11
1344.2485062774631
 21
813.84364085230141
  0
LINE
  8
_0-0_
  6
CONTINUOUS
 62
    7
 10
1384.7485062774631
 20
780.46312136763868
 11
1384.7485062774631
 21
795.84427428659023
  0
LINE
  8
_0-0_
  6
CONTINUOUS
 62
    7
 10
1384.7485062774631
 20
830.71800741800803
 11
1384.7485062774631
 21
848.3491603369614
  0
LINE
  8
_0-0_
  6
CONTINUOUS
 62
    7
 10
1384.7485062774631
 20
795.84427428659228
 11
1384.7485062774631
 21
795.84427428659228
  0
LINE
  8
_0-0_
  6
CONTINUOUS
 62
    7
 10
1384.7485062774631
 20
795.84427428659228
 11
1388.0883850782648
 21
803.6022433341451
  0
LINE
  8
_0-0_
  6
CONTINUOUS
 62
    7
 10
1388.0883850782648
 20
803.6022433341451
 11
1389.4809253427477
 21
811.65430078502868
  0
LINE
  8
_0-0_
  6
CONTINUOUS
 62
    7
 10
1389.4809253427477
 20
811.65430078502868
 11
1388.8838154396349
 21
819.75578894813555
  0
LINE
  8
_0-0_
  6
CONTINUOUS
 62
    7
 10
1388.8838154396349
 20
819.75578894813555
 11
1386.3151982511802
 21
827.66054820518048
  0
LINE
  8
_0-0_
  6
CONTINUOUS
 62
    7
 10
1386.3151982511802
 20
827.66054820518048
 11
1384.7485062774631
 21
830.71800741801053
  0
LINE
  8
_0-0_
  6
CENTER2
 62
    1
 10
1399.351518748731
 20
813.28114085230141
 11
1314.3531512707323
 21
813.28114085230141
  0
LINE
  8
_0-0_
  6
CONTINUOUS
 62
    4
 10
1395.9985062774631
 20
786.05500445967687
 11
1395.9985062774631
 21
793.22325587495493
  0
LINE
  8
_0-0_
  6
CONTINUOUS
 62
    4
 10
1395.9985062774631
 20
793.2232558749572
 11
1395.9985062774631
 21
793.2232558749572
  0
LINE
  8
_0-0_
  6
CONTINUOUS
 62
    4
 10
1395.9985062774631
 20
793.2232558749572
 11
1399.5316986299031
 21
802.93940529991426
  0
LINE
  8
_0-0_
  6
CONTINUOUS
 62
    4
 10
1399.5316986299031
 20
802.93940529991426
 11
1400.7698531543535
 21
812.9697831264599
  0
LINE
  8
_0-0_
  6
CONTINUOUS
 62
    4
 10
1400.7698531543535
 20
812.9697831264599
 11
1399.6753491521256
 21
823.00962139995056
  0
LINE
  8
_0-0_
  6
CONTINUOUS
 62
    4
 10
1399.6753491521256
 20
823.00962139995056
 11
1396.2814425734814
 21
832.75386471484967
  0
LINE
  8
_0-0_
  6
CONTINUOUS
 62
    4
 10
1396.2814425734814
 20
832.75386471484967
 11
1395.9985062774631
 21
833.33902582964549
  0
LINE
  8
_0-0_
  6
CONTINUOUS
 62
    4
 10
1395.9985062774631
 20
833.33902582964333
 11
1395.9985062774631
 21
851.7241603369614
  0
LINE
  8
_0-0_
  6
CONTINUOUS
 62
    4
 10
1395.9985062774631
 20
851.7241603369614
 11
1391.4985062774631
 21
856.2241603369614
  0
LINE
  8
_0-0_
  6
CONTINUOUS
 62
    7
 10
1511.3881165842522
 20
717.20955003017139
 11
1511.3881165842522
 21
721.70955003017139
  0
LINE
  8
_0-0_
  6
CONTINUOUS
 62
    7
 10
1443.5020776149304
 20
721.70955003017139
 11
1458.8832305338819
 21
721.70955003017139
  0
LINE
  8
_0-0_
  6
CONTINUOUS
 62
    7
 10
1493.7569636653016
 20
721.70955003017139
 11
1511.3881165842522
 21
721.70955003017139
  0
LINE
  8
_0-0_
  6
CONTINUOUS
 62
    7
 10
1493.7569636652995
 20
721.70955003017139
 11
1493.7569636652995
 21
721.70955003017139
  0
LINE
  8
_0-0_
  6
CONTINUOUS
 62
    7
 10
1493.7569636652995
 20
721.70955003017139
 11
1485.9989946177466
 21
725.04942883097317
  0
LINE
  8
_0-0_
  6
CONTINUOUS
 62
    7
 10
1485.9989946177466
 20
725.04942883097317
 11
1477.9469371668631
 21
726.4419690954561
  0
LINE
  8
_0-0_
  6
CONTINUOUS
 62
    7
 10
1477.9469371668631
 20
726.4419690954561
 11
1469.8454490037564
 21
725.84485919234316
  0
LINE
  8
_0-0_
  6
CONTINUOUS
 62
    7
 10
1469.8454490037564
 20
725.84485919234316
 11
1461.9406897467113
 21
723.27624200388834
  0
LINE
  8
_0-0_
  6
CONTINUOUS
 62
    7
 10
1461.9406897467113
 20
723.27624200388834
 11
1458.8832305338813
 21
721.70955003017139
  0
LINE
  8
_0-0_
  6
CONTINUOUS
 62
    4
 10
1395.9985062774631
 20
786.05500445967687
 11
1442.3439607069686
 21
739.70955003017139
  0
LINE
  8
_0-0_
  6
CONTINUOUS
 62
    4
 10
1442.3439607069686
 20
739.70955003017139
 11
1454.815854400942
 21
739.70955003017139
  0
LINE
  8
_0-0_
  6
CONTINUOUS
 62
    4
 10
1497.8243397982403
 20
739.70955003017139
 11
1497.8243397982403
 21
739.70955003017139
  0
LINE
  8
_0-0_
  6
CONTINUOUS
 62
    4
 10
1497.8243397982403
 20
739.70955003017139
 11
1486.9306511137511
 21
743.3455713235619
  0
LINE
  8
_0-0_
  6
CONTINUOUS
 62
    4
 10
1486.9306511137511
 20
743.3455713235619
 11
1475.7145661147408
 21
744.47833504929099
  0
LINE
  8
_0-0_
  6
CONTINUOUS
 62
    4
 10
1475.7145661147408
 20
744.47833504929099
 11
1464.5168798682919
 21
743.07342275475867
  0
LINE
  8
_0-0_
  6
CONTINUOUS
 62
    4
 10
1464.5168798682919
 20
743.07342275475867
 11
1454.8158544009405
 21
739.70955003017139
  0
LINE
  8
_0-0_
  6
CONTINUOUS
 62
    4
 10
1514.7631165842522
 20
739.70955003017139
 11
1519.2631165842522
 21
735.20955003017139
  0
LINE
  8
_0-0_
  6
CONTINUOUS
 62
  136
 10
1377.9985062774631
 20
778.5991603369614
 11
1441.6381165842522
 21
714.95955003017139
  0
LINE
  8
_0-0_
  6
CONTINUOUS
 62
  136
 10
1441.6381165842522
 20
714.95955003017139
 11
1509.1381165842522
 21
714.95955003017139
  0
LINE
  8
_0-0_
  6
CONTINUOUS
 62
  136
 10
1509.1381165842522
 20
714.95955003017139
 11
1509.1381165842522
 21
719.45955003017139
  0
LINE
  8
_0-0_
  6
CONTINUOUS
 62
  136
 10
1377.9985062774631
 20
846.0991603369614
 11
1377.9985062774631
 21
778.5991603369614
  0
LINE
  8
_0-0_
  6
CONTINUOUS
 62
  136
 10
1377.9985062774631
 20
846.0991603369614
 11
1382.4985062774631
 21
846.0991603369614
  0
LINE
  8
_0-0_
  6
CONTINUOUS
 62
  136
 10
1382.4985062774631
 20
846.0991603369614
 11
1382.4985062774631
 21
780.46312136763868
  0
LINE
  8
_0-0_
  6
CONTINUOUS
 62
  136
 10
1443.5020776149304
 20
719.45955003017139
 11
1509.1381165842522
 21
719.45955003017139
  0
LINE
  8
_0-0_
  6
DASHED1
 62
    1
 10
1473.5075970995904
 20
723.95955003017139
 11
1473.5075970995904
 21
564.77205003017139
  0
LINE
  8
_0-0_
  6
CONTINUOUS
 62
    1
 10
1472.2142323916396
 20
723.95955003017139
 11
1480.4259618075421
 21
723.95955003017139
  0
LINE
  8
_0-0_
  6
CONTINUOUS
 62
    1
 10
1472.2142323916389
 20
723.95955003017139
 11
1472.2142323916389
 21
723.95955003017139
  0
LINE
  8
_0-0_
  6
CONTINUOUS
 62
    1
 10
1472.2142323916389
 20
723.95955003017139
 11
1464.618725067269
 21
721.9839014352508
  0
LINE
  8
_0-0_
  6
CONTINUOUS
 62
    1
 10
1464.618725067269
 20
721.9839014352508
 11
1459.4450970995904
 21
719.45955003017139
  0
LINE
  8
_0-0_
  6
CONTINUOUS
 62
    1
 10
1479.6472000690574
 20
724.33828942421769
 11
1479.6472000690574
 21
724.33828942421769
  0
LINE
  8
_0-0_
  6
CONTINUOUS
 62
    1
 10
1479.6472000690574
 20
724.33828942421769
 11
1479.1325970995904
 21
723.95955003017139
  0
LINE
  8
_0-0_
  6
CONTINUOUS
 62
    1
 10
1473.5075970995904
 20
723.95955003017139
 11
1473.5075970995904
 21
723.95955003017139
  0
LINE
  8
_0-0_
  6
CONTINUOUS
 62
    1
 10
1473.5075970995904
 20
723.95955003017139
 11
1472.9929941301234
 21
724.33828942421769
  0
LINE
  8
_0-0_
  6
CONTINUOUS
 62
    1
 10
1479.6472000690576
 20
724.33828942421769
 11
1479.6472000690576
 21
724.33828942421769
  0
LINE
  8
_0-0_
  6
CONTINUOUS
 62
    1
 10
1479.6472000690576
 20
724.33828942421769
 11
1479.0705146542971
 21
724.40475369274407
  0
LINE
  8
_0-0_
  6
CONTINUOUS
 62
    1
 10
1479.0705146542971
 20
724.40475369274407
 11
1478.4102591939154
 21
724.45769067326717
  0
LINE
  8
_0-0_
  6
CONTINUOUS
 62
    1
 10
1478.4102591939154
 20
724.45769067326717
 11
1477.6864952159706
 21
724.49549190242112
  0
LINE
  8
_0-0_
  6
CONTINUOUS
 62
    1
 10
1477.6864952159706
 20
724.49549190242112
 11
1476.9212139226904
 21
724.51700880898636
  0
LINE
  8
_0-0_
  6
CONTINUOUS
 62
    1
 10
1476.9212139226904
 20
724.51700880898636
 11
1476.1376679989201
 21
724.52158761264513
  0
LINE
  8
_0-0_
  6
CONTINUOUS
 62
    1
 10
1476.1376679989201
 20
724.52158761264513
 11
1475.3596650910599
 21
724.50908918876519
  0
LINE
  8
_0-0_
  6
CONTINUOUS
 62
    1
 10
1475.3596650910599
 20
724.50908918876519
 11
1474.6108444237771
 21
724.47989329563154
  0
LINE
  8
_0-0_
  6
CONTINUOUS
 62
    1
 10
1474.6108444237771
 20
724.47989329563154
 11
1473.9139585341252
 21
724.43488703568335
  0
LINE
  8
_0-0_
  6
CONTINUOUS
 62
    1
 10
1473.9139585341252
 20
724.43488703568335
 11
1473.2901819472202
 21
724.37543790135476
  0
LINE
  8
_0-0_
  6
CONTINUOUS
 62
    1
 10
1473.2901819472202
 20
724.37543790135476
 11
1472.9929941301234
 21
724.33828942421769
  0
LINE
  8
_0-0_
  6
CONTINUOUS
 62
    1
 10
1470.6950970995904
 20
719.39848453922627
 11
1470.6950970995904
 21
719.45955003017139
  0
LINE
  8
_0-0_
  6
CONTINUOUS
 62
    1
 10
1493.1950970995904
 20
719.45955003017139
 11
1493.1950970995904
 21
719.45955003017139
  0
LINE
  8
_0-0_
  6
CONTINUOUS
 62
    1
 10
1493.1950970995904
 20
719.45955003017139
 11
1492.8989480933208
 21
719.6321077557086
  0
LINE
  8
_0-0_
  6
CONTINUOUS
 62
    1
 10
1492.8989480933208
 20
719.6321077557086
 11
1492.8989480933208
 21
719.6321077557086
  0
LINE
  8
_0-0_
  6
CONTINUOUS
 62
    1
 10
1492.8989480933208
 20
719.6321077557086
 11
1485.515210184582
 21
722.8534358571552
  0
LINE
  8
_0-0_
  6
CONTINUOUS
 62
    1
 10
1485.515210184582
 20
722.8534358571552
 11
1480.4259618075419
 21
723.95955003017139
  0
LINE
  8
_0-0_
  6
CONTINUOUS
 62
    1
 10
1493.1950970995904
 20
719.45955003017139
 11
1459.4450970995904
 21
719.45955003017139
  0
LINE
  8
_0-0_
  6
CONTINUOUS
 62
    1
 10
1481.9450970995904
 20
582.20955003017139
 11
1482.9880406208995
 21
562.30900214250801
  0
LINE
  8
_0-0_
  6
CONTINUOUS
 62
    1
 10
1476.3200970995904
 20
561.95955003017139
 11
1474.7771994106479
 21
563.50244771911389
  0
LINE
  8
_0-0_
  6
CONTINUOUS
 62
    1
 10
1476.3200970995904
 20
561.95955003017139
 11
1477.8629947885329
 21
563.50244771911389
  0
LINE
  8
_0-0_
  6
DASHED1
 62
    1
 10
1474.7771994106479
 20
563.50244771911389
 11
1473.5075970995904
 21
564.77205003017139
  0
LINE
  8
_0-0_
  6
CONTINUOUS
 62
    1
 10
1470.6950970995904
 20
582.20955003017139
 11
1469.6521535782831
 21
562.30900214250801
  0
LINE
  8
_0-0_
  6
CONTINUOUS
 62
    1
 10
1475.7575970995904
 20
582.20955003017139
 11
1474.7007871259329
 21
562.04441446986152
  0
LINE
  8
_0-0_
  6
CONTINUOUS
 62
    1
 10
1476.8825970995904
 20
582.20955003017139
 11
1477.9394070732478
 21
562.04441446986152
  0
LINE
  8
_0-0_
  6
DASHED1
 62
    1
 10
1477.8629947885329
 20
563.50244771911389
 11
1479.1325970995904
 21
564.77205003017139
  0
LINE
  8
_0-0_
  6
CONTINUOUS
 62
    1
 10
1482.9880406208995
 20
562.30900214250801
 11
1477.9394070732478
 21
562.04441446986152
  0
LINE
  8
_0-0_
  6
CONTINUOUS
 62
    1
 10
1474.7007871259329
 20
562.04441446986152
 11
1469.6521535782831
 21
562.30900214250801
  0
LINE
  8
_0-0_
  6
CONTINUOUS
 62
    1
 10
1476.8825970995904
 20
582.20955003017139
 11
1475.7575970995904
 21
582.20955003017139
  0
LINE
  8
_0-0_
  6
DASHED1
 62
    1
 10
1479.1325970995904
 20
723.95955003017139
 11
1479.1325970995904
 21
564.77205003017139
  0
LINE
  8
_0-0_
  6
CENTER2
 62
    1
 10
1476.3200970995904
 20
743.20850345603799
 11
1476.3200970995904
 21
551.76625525512122
  0
LINE
  8
_0-0_
  6
CONTINUOUS
 62
    1
 10
1481.9450970995904
 20
582.20955003017139
 11
1481.9450970995904
 21
719.45955003017139
  0
LINE
  8
_0-0_
  6
CONTINUOUS
 62
    1
 10
1470.6950970995904
 20
582.20955003017139
 11
1470.6950970995904
 21
719.45955003017139
  0
LINE
  8
_0-0_
  6
CONTINUOUS
 62
    1
 10
1487.5700970995904
 20
622.70955003017139
 11
1465.0700970995904
 21
622.70955003017139
  0
LINE
  8
_0-0_
  6
CONTINUOUS
 62
    1
 10
1465.0700970995904
 20
622.70955003017139
 11
1465.0700970995904
 21
701.45955003017139
  0
LINE
  8
_0-0_
  6
CONTINUOUS
 62
    1
 10
1465.0700970995904
 20
701.45955003017139
 11
1487.5700970995904
 21
701.45955003017139
  0
LINE
  8
_0-0_
  6
CONTINUOUS
 62
    1
 10
1487.5700970995904
 20
701.45955003017139
 11
1487.5700970995904
 21
622.70955003017139
  0
LINE
  8
_0-0_
  6
CONTINUOUS
 62
    1
 10
1467.3200970995904
 20
622.70955003017139
 11
1467.3200970995904
 21
701.45955003017139
  0
LINE
  8
_0-0_
  6
CONTINUOUS
 62
    1
 10
1485.3200970995904
 20
701.45955003017139
 11
1485.3200970995904
 21
622.70955003017139
  0
LINE
  8
_0-0_
  6
CONTINUOUS
 62
    7
 10
896.48085523347447
 20
717.20955003017139
 11
811.36689420279629
 21
717.20955003017139
  0
LINE
  8
_0-0_
  6
CONTINUOUS
 62
  136
 10
1025.3704655402635
 20
780.46312136763868
 11
964.36689420279629
 21
719.45955003017139
  0
LINE
  8
_0-0_
  6
CONTINUOUS
 62
    6
 10
1029.8704655402653
 20
684.52449597415875
 11
1012.9354114842509
 21
701.4595500301732
  0
LINE
  8
_0-0_
  6
CONTINUOUS
 62
    6
 10
1029.8704655402653
 20
652.70469082076238
 11
981.11560633085548
 21
701.4595500301732
  0
LINE
  8
_0-0_
  6
CONTINUOUS
 62
    6
 10
1028.0458011774654
 20
622.70955003016957
 11
949.29580117746548
 21
701.45955003016957
  0
LINE
  8
_0-0_
  6
CONTINUOUS
 62
    6
 10
996.22599602406547
 20
622.7095500301732
 11
917.47599602406547
 21
701.4595500301732
  0
LINE
  8
_0-0_
  6
CONTINUOUS
 62
    6
 10
964.40619087067182
 20
622.7095500301732
 11
885.65619087067182
 21
701.4595500301732
  0
LINE
  8
_0-0_
  6
CONTINUOUS
 62
    6
 10
932.58638571727909
 20
622.70955003017139
 11
853.83638571728181
 21
701.45955003016957
  0
LINE
  8
_0-0_
  6
CONTINUOUS
 62
    6
 10
900.7665805638818
 20
622.7095500301732
 11
822.0165805638818
 21
701.4595500301732
  0
LINE
  8
_0-0_
  6
CONTINUOUS
 62
    6
 10
868.94677541048816
 20
622.7095500301732
 11
790.19677541048816
 21
701.4595500301732
  0
LINE
  8
_0-0_
  6
CONTINUOUS
 62
    6
 10
852.58868323946456
 20
701.4595500301732
 11
773.83868323946456
 21
622.7095500301732
  0
LINE
  8
_0-0_
  6
CONTINUOUS
 62
    6
 10
884.40848839285547
 20
701.45955003016957
 11
805.65848839285547
 21
622.70955003016957
  0
LINE
  8
_0-0_
  6
CONTINUOUS
 62
    6
 10
916.22829354625003
 20
701.45955003016957
 11
837.47829354625003
 21
622.7095500301732
  0
LINE
  8
_0-0_
  6
CONTINUOUS
 62
    6
 10
948.04809869964822
 20
701.4595500301732
 11
869.29809869964822
 21
622.7095500301732
  0
LINE
  8
_0-0_
  6
CONTINUOUS
 62
    6
 10
979.86790385303914
 20
701.45955003016957
 11
901.11790385303914
 21
622.70955003016957
  0
LINE
  8
_0-0_
  6
CONTINUOUS
 62
    6
 10
1011.6877090064337
 20
701.45955003016957
 11
932.93770900643369
 21
622.70955003016957
  0
LINE
  8
_0-0_
  6
CONTINUOUS
 62
    6
 10
1029.8704655402635
 20
687.82250141060399
 11
964.75751415983189
 21
622.7095500301732
  0
LINE
  8
_0-0_
  6
CONTINUOUS
 62
    6
 10
1029.8704655402653
 20
656.00269625721216
 11
996.57731931322553
 21
622.70955003016957
  0
LINE
  8
_0-0_
  6
CONTINUOUS
 62
    6
 10
1029.8704655402635
 20
624.18289110381397
 11
1028.3971244666209
 21
622.70955003017139
  0
LINE
  8
_0-0_
  6
CONTINUOUS
 62
    6
 10
1029.8704655402635
 20
701.45955003017139
 11
1029.8704655402635
 21
622.70955003017139
  0
LINE
  8
_0-0_
  6
CONTINUOUS
 62
    1
 10
1083.8704655402635
 20
813.28114085230141
 11
1082.327567851321
 21
814.82403854124391
  0
LINE
  8
_0-0_
  6
CONTINUOUS
 62
    1
 10
1083.8704655402635
 20
813.28114085230141
 11
1082.327567851321
 21
811.73824316335617
  0
LINE
  8
_0-0_
  6
DASHED1
 62
    1
 10
1082.327567851321
 20
814.82403854124391
 11
1081.0579655402635
 21
816.09364085230141
  0
LINE
  8
_0-0_
  6
DASHED1
 62
    1
 10
1082.327567851321
 20
811.73824316335617
 11
1081.0579655402635
 21
810.46864085230141
  0
LINE
  8
_0-0_
  6
CONTINUOUS
 62
    1
 10
1083.5210134279268
 20
806.61319733099231
 11
1083.7856011005733
 21
811.66183087864397
  0
LINE
  8
_0-0_
  6
CONTINUOUS
 62
    1
 10
1083.7856011005733
 20
814.90045082595884
 11
1083.5210134279268
 21
819.94908437360777
  0
LINE
  8
_0-0_
  6
CONTINUOUS
 62
    4
 10
910.04463201948613
 20
739.70955003017139
 11
893.10585523347447
 21
739.70955003017139
  0
LINE
  8
_0-0_
  6
CONTINUOUS
 62
    7
 10
811.36689420279629
 20
717.20955003017139
 11
811.36689420279629
 21
714.95955003017139
  0
LINE
  8
_0-0_
  6
CONTINUOUS
 62
    7
 10
964.36689420279629
 20
719.45955003017139
 11
964.36689420279629
 21
721.70955003017139
  0
LINE
  8
_0-0_
  6
CONTINUOUS
 62
    7
 10
1027.6204655402635
 20
848.3491603369614
 11
1023.1204655402636
 21
848.3491603369614
  0
LINE
  8
_0-0_
  6
CONTINUOUS
 62
    7
 10
1025.3704655402635
 20
780.46312136763868
 11
1023.1204655402636
 21
780.46312136763868
  0
LINE
  8
_0-0_
  6
CONTINUOUS
 62
    1
 10
1063.6204655402635
 20
807.65614085230141
 11
1083.5210134279268
 21
806.61319733099231
  0
LINE
  8
_0-0_
  6
CONTINUOUS
 62
    1
 10
1025.3704655402635
 20
807.65614085230141
 11
1025.3704655402635
 21
796.40614085230141
  0
LINE
  8
_0-0_
  6
CONTINUOUS
 62
    1
 10
1025.3704655402635
 20
818.90614085230141
 11
1025.3704655402635
 21
830.15614085230141
  0
LINE
  8
_0-0_
  6
CONTINUOUS
 62
    1
 10
1020.8704655402636
 20
817.38700556025037
 11
1020.8704655402636
 21
809.17527614434789
  0
LINE
  8
_0-0_
  6
CONTINUOUS
 62
    1
 10
1025.3704655402635
 20
830.15614085230141
 11
1025.3704655402635
 21
830.15614085230141
  0
LINE
  8
_0-0_
  6
CONTINUOUS
 62
    1
 10
1025.3704655402635
 20
830.15614085230141
 11
1022.0730505631501
 21
822.7888788089216
  0
LINE
  8
_0-0_
  6
CONTINUOUS
 62
    1
 10
1022.0730505631501
 20
822.7888788089216
 11
1020.8704655402635
 21
817.38700556025287
  0
LINE
  8
_0-0_
  6
CONTINUOUS
 62
    1
 10
1020.8704655402635
 20
809.17527614434994
 11
1020.8704655402635
 21
809.17527614434994
  0
LINE
  8
_0-0_
  6
CONTINUOUS
 62
    1
 10
1020.8704655402635
 20
809.17527614434994
 11
1022.8461141351841
 21
801.57976881998002
  0
LINE
  8
_0-0_
  6
CONTINUOUS
 62
    1
 10
1022.8461141351841
 20
801.57976881998002
 11
1025.3704655402635
 21
796.40614085230141
  0
LINE
  8
_0-0_
  6
CONTINUOUS
 62
    1
 10
1020.8704655402635
 20
810.46864085230141
 11
1020.8704655402635
 21
810.46864085230141
  0
LINE
  8
_0-0_
  6
CONTINUOUS
 62
    1
 10
1020.8704655402635
 20
810.46864085230141
 11
1020.4917261462172
 21
809.95403788283443
  0
LINE
  8
_0-0_
  6
CONTINUOUS
 62
    1
 10
1020.4917261462172
 20
816.60824382176838
 11
1020.4917261462172
 21
816.60824382176838
  0
LINE
  8
_0-0_
  6
CONTINUOUS
 62
    1
 10
1020.4917261462172
 20
816.60824382176838
 11
1020.8704655402635
 21
816.09364085230141
  0
LINE
  8
_0-0_
  6
CONTINUOUS
 62
    1
 10
1020.4917261462173
 20
816.6082438217685
 11
1020.4917261462173
 21
816.6082438217685
  0
LINE
  8
_0-0_
  6
CONTINUOUS
 62
    1
 10
1020.4917261462173
 20
816.6082438217685
 11
1020.4252618776909
 21
816.03155840700799
  0
LINE
  8
_0-0_
  6
CONTINUOUS
 62
    1
 10
1020.4252618776909
 20
816.03155840700799
 11
1020.3723248971678
 21
815.37130294662609
  0
LINE
  8
_0-0_
  6
CONTINUOUS
 62
    1
 10
1020.3723248971678
 20
815.37130294662609
 11
1020.3345236680138
 21
814.64753896868137
  0
LINE
  8
_0-0_
  6
CONTINUOUS
 62
    1
 10
1020.3345236680138
 20
814.64753896868137
 11
1020.3130067614486
 21
813.88225767540109
  0
LINE
  8
_0-0_
  6
CONTINUOUS
 62
    1
 10
1020.3130067614486
 20
813.88225767540109
 11
1020.3084279577898
 21
813.09871175163084
  0
LINE
  8
_0-0_
  6
CONTINUOUS
 62
    1
 10
1020.3084279577898
 20
813.09871175163084
 11
1020.3209263816698
 21
812.32070884377083
  0
LINE
  8
_0-0_
  6
CONTINUOUS
 62
    1
 10
1020.3209263816698
 20
812.32070884377083
 11
1020.3501222748034
 21
811.57188817648796
  0
LINE
  8
_0-0_
  6
CONTINUOUS
 62
    1
 10
1020.3501222748034
 20
811.57188817648796
 11
1020.3951285347516
 21
810.87500228683609
  0
LINE
  8
_0-0_
  6
CONTINUOUS
 62
    1
 10
1020.3951285347516
 20
810.87500228683609
 11
1020.4545776690802
 21
810.25122569993107
  0
LINE
  8
_0-0_
  6
CONTINUOUS
 62
    1
 10
1020.4545776690802
 20
810.25122569993107
 11
1020.4917261462173
 21
809.9540378828342
  0
LINE
  8
_0-0_
  6
DASHED1
 62
    1
 10
1020.8704655402636
 20
816.09364085230141
 11
1081.0579655402635
 21
816.09364085230141
  0
LINE
  8
_0-0_
  6
DASHED1
 62
    1
 10
1020.8704655402636
 20
810.46864085230141
 11
1081.0579655402635
 21
810.46864085230141
  0
LINE
  8
_0-0_
  6
CONTINUOUS
 62
    1
 10
1063.6204655402635
 20
818.90614085230141
 11
1025.3704655402635
 21
818.90614085230141
  0
LINE
  8
_0-0_
  6
CONTINUOUS
 62
    1
 10
1063.6204655402635
 20
818.90614085230141
 11
1083.5210134279268
 21
819.94908437360777
  0
LINE
  8
_0-0_
  6
CONTINUOUS
 62
    1
 10
1063.6204655402635
 20
813.84364085230141
 11
1083.7856011005733
 21
814.90045082595884
  0
LINE
  8
_0-0_
  6
CONTINUOUS
 62
    1
 10
1063.6204655402635
 20
807.65614085230141
 11
1025.3704655402635
 21
807.65614085230141
  0
LINE
  8
_0-0_
  6
CONTINUOUS
 62
    1
 10
1063.6204655402635
 20
812.71864085230141
 11
1083.7856011005733
 21
811.66183087864397
  0
LINE
  8
_0-0_
  6
CONTINUOUS
 62
    1
 10
1063.6204655402635
 20
812.71864085230141
 11
1063.6204655402635
 21
813.84364085230141
  0
LINE
  8
_0-0_
  6
CONTINUOUS
 62
    7
 10
1023.1204655402636
 20
780.46312136763868
 11
1023.1204655402636
 21
795.84427428659023
  0
LINE
  8
_0-0_
  6
CONTINUOUS
 62
    7
 10
1023.1204655402636
 20
830.71800741800803
 11
1023.1204655402636
 21
848.3491603369614
  0
LINE
  8
_0-0_
  6
CONTINUOUS
 62
    7
 10
1023.1204655402635
 20
830.71800741801053
 11
1023.1204655402635
 21
830.71800741801053
  0
LINE
  8
_0-0_
  6
CONTINUOUS
 62
    7
 10
1023.1204655402635
 20
830.71800741801053
 11
1019.7805867394617
 21
822.96003837045771
  0
LINE
  8
_0-0_
  6
CONTINUOUS
 62
    7
 10
1019.7805867394617
 20
822.96003837045771
 11
1018.3880464749788
 21
814.90798091957413
  0
LINE
  8
_0-0_
  6
CONTINUOUS
 62
    7
 10
1018.3880464749788
 20
814.90798091957413
 11
1018.9851563780917
 21
806.80649275646726
  0
LINE
  8
_0-0_
  6
CONTINUOUS
 62
    7
 10
1018.9851563780917
 20
806.80649275646726
 11
1021.5537735665465
 21
798.90173349942233
  0
LINE
  8
_0-0_
  6
CONTINUOUS
 62
    7
 10
1021.5537735665465
 20
798.90173349942233
 11
1023.1204655402635
 21
795.84427428659228
  0
LINE
  8
_0-0_
  6
CENTER2
 62
    1
 10
1008.5174530689957
 20
813.28114085230141
 11
1093.5158205469943
 21
813.28114085230141
  0
LINE
  8
_0-0_
  6
CONTINUOUS
 62
    4
 10
1011.8704655402636
 20
786.05500445967687
 11
1011.8704655402636
 21
793.22325587495493
  0
LINE
  8
_0-0_
  6
CONTINUOUS
 62
    4
 10
1011.8704655402635
 20
833.33902582964561
 11
1011.8704655402635
 21
833.33902582964561
  0
LINE
  8
_0-0_
  6
CONTINUOUS
 62
    4
 10
1011.8704655402635
 20
833.33902582964561
 11
1008.3372731878236
 21
823.62287640468855
  0
LINE
  8
_0-0_
  6
CONTINUOUS
 62
    4
 10
1008.3372731878236
 20
823.62287640468855
 11
1007.099118663373
 21
813.59249857814291
  0
LINE
  8
_0-0_
  6
CONTINUOUS
 62
    4
 10
1007.099118663373
 20
813.59249857814291
 11
1008.1936226656009
 21
803.55266030465225
  0
LINE
  8
_0-0_
  6
CONTINUOUS
 62
    4
 10
1008.1936226656009
 20
803.55266030465225
 11
1011.587529244245
 21
793.80841698975314
  0
LINE
  8
_0-0_
  6
CONTINUOUS
 62
    4
 10
1011.587529244245
 20
793.80841698975314
 11
1011.8704655402635
 21
793.2232558749572
  0
LINE
  8
_0-0_
  6
CONTINUOUS
 62
    4
 10
1011.8704655402636
 20
833.33902582964333
 11
1011.8704655402636
 21
851.7241603369614
  0
LINE
  8
_0-0_
  6
CONTINUOUS
 62
    4
 10
1011.8704655402636
 20
851.7241603369614
 11
1016.3704655402636
 21
856.2241603369614
  0
LINE
  8
_0-0_
  6
CONTINUOUS
 62
    7
 10
896.48085523347447
 20
717.20955003017139
 11
896.48085523347447
 21
721.70955003017139
  0
LINE
  8
_0-0_
  6
CONTINUOUS
 62
    7
 10
964.36689420279629
 20
721.70955003017139
 11
948.98574128384473
 21
721.70955003017139
  0
LINE
  8
_0-0_
  6
CONTINUOUS
 62
    7
 10
914.11200815242512
 20
721.70955003017139
 11
896.48085523347447
 21
721.70955003017139
  0
LINE
  8
_0-0_
  6
CONTINUOUS
 62
    7
 10
948.98574128384541
 20
721.70955003017139
 11
948.98574128384541
 21
721.70955003017139
  0
LINE
  8
_0-0_
  6
CONTINUOUS
 62
    7
 10
948.98574128384541
 20
721.70955003017139
 11
941.22777223629259
 21
725.04942883097317
  0
LINE
  8
_0-0_
  6
CONTINUOUS
 62
    7
 10
941.22777223629259
 20
725.04942883097317
 11
933.17571478540901
 21
726.4419690954561
  0
LINE
  8
_0-0_
  6
CONTINUOUS
 62
    7
 10
933.17571478540901
 20
726.4419690954561
 11
925.07422662230215
 21
725.84485919234316
  0
LINE
  8
_0-0_
  6
CONTINUOUS
 62
    7
 10
925.07422662230215
 20
725.84485919234316
 11
917.16946736525722
 21
723.27624200388834
  0
LINE
  8
_0-0_
  6
CONTINUOUS
 62
    7
 10
917.16946736525722
 20
723.27624200388834
 11
914.11200815242717
 21
721.70955003017139
  0
LINE
  8
_0-0_
  6
CONTINUOUS
 62
    4
 10
1011.8704655402636
 20
786.05500445967687
 11
965.5250111107581
 21
739.70955003017139
  0
LINE
  8
_0-0_
  6
CONTINUOUS
 62
    4
 10
965.5250111107581
 20
739.70955003017139
 11
953.05311741678463
 21
739.70955003017139
  0
LINE
  8
_0-0_
  6
CONTINUOUS
 62
    4
 10
953.05311741678622
 20
739.70955003017139
 11
953.05311741678622
 21
739.70955003017139
  0
LINE
  8
_0-0_
  6
CONTINUOUS
 62
    4
 10
953.05311741678622
 20
739.70955003017139
 11
942.15942873229687
 21
743.3455713235619
  0
LINE
  8
_0-0_
  6
CONTINUOUS
 62
    4
 10
942.15942873229687
 20
743.3455713235619
 11
930.94334373328672
 21
744.47833504929099
  0
LINE
  8
_0-0_
  6
CONTINUOUS
 62
    4
 10
930.94334373328672
 20
744.47833504929099
 11
919.74565748683779
 21
743.07342275475867
  0
LINE
  8
_0-0_
  6
CONTINUOUS
 62
    4
 10
919.74565748683779
 20
743.07342275475867
 11
910.04463201948636
 21
739.70955003017139
  0
LINE
  8
_0-0_
  6
CONTINUOUS
 62
    4
 10
893.10585523347447
 20
739.70955003017139
 11
888.60585523347447
 21
735.20955003017139
  0
LINE
  8
_0-0_
  6
CONTINUOUS
 62
  136
 10
1029.8704655402635
 20
778.5991603369614
 11
966.23085523347447
 21
714.95955003017139
  0
LINE
  8
_0-0_
  6
CONTINUOUS
 62
  136
 10
966.23085523347447
 20
714.95955003017139
 11
898.73085523347447
 21
714.95955003017139
  0
LINE
  8
_0-0_
  6
CONTINUOUS
 62
  136
 10
898.73085523347447
 20
714.95955003017139
 11
898.73085523347447
 21
719.45955003017139
  0
LINE
  8
_0-0_
  6
CONTINUOUS
 62
  136
 10
1029.8704655402635
 20
846.0991603369614
 11
1029.8704655402635
 21
778.5991603369614
  0
LINE
  8
_0-0_
  6
CONTINUOUS
 62
  136
 10
1029.8704655402635
 20
846.0991603369614
 11
1025.3704655402635
 21
846.0991603369614
  0
LINE
  8
_0-0_
  6
CONTINUOUS
 62
  136
 10
1025.3704655402635
 20
846.0991603369614
 11
1025.3704655402635
 21
780.46312136763868
  0
LINE
  8
_0-0_
  6
CONTINUOUS
 62
  136
 10
964.36689420279629
 20
719.45955003017139
 11
898.73085523347447
 21
719.45955003017139
  0
LINE
  8
_0-0_
  6
DASHED1
 62
    1
 10
934.36137471813629
 20
723.95955003017139
 11
934.36137471813629
 21
564.77205003017139
  0
LINE
  8
_0-0_
  6
CONTINUOUS
 62
    1
 10
935.65473942608708
 20
723.95955003017139
 11
927.44301001018459
 21
723.95955003017139
  0
LINE
  8
_0-0_
  6
CONTINUOUS
 62
    1
 10
948.42387471813629
 20
719.45955003017139
 11
948.42387471813629
 21
719.45955003017139
  0
LINE
  8
_0-0_
  6
CONTINUOUS
 62
    1
 10
948.42387471813629
 20
719.45955003017139
 11
941.05661267475648
 21
722.75696500728475
  0
LINE
  8
_0-0_
  6
CONTINUOUS
 62
    1
 10
941.05661267475648
 20
722.75696500728475
 11
935.65473942608776
 21
723.95955003017139
  0
LINE
  8
_0-0_
  6
CONTINUOUS
 62
    1
 10
928.73637471813629
 20
723.95955003017139
 11
928.73637471813629
 21
723.95955003017139
  0
LINE
  8
_0-0_
  6
CONTINUOUS
 62
    1
 10
928.73637471813629
 20
723.95955003017139
 11
928.22177174866931
 21
724.33828942421769
  0
LINE
  8
_0-0_
  6
CONTINUOUS
 62
    1
 10
934.87597768760327
 20
724.33828942421769
 11
934.87597768760327
 21
724.33828942421769
  0
LINE
  8
_0-0_
  6
CONTINUOUS
 62
    1
 10
934.87597768760327
 20
724.33828942421769
 11
934.36137471813629
 21
723.95955003017139
  0
LINE
  8
_0-0_
  6
CONTINUOUS
 62
    1
 10
934.87597768760338
 20
724.33828942421769
 11
934.87597768760338
 21
724.33828942421769
  0
LINE
  8
_0-0_
  6
CONTINUOUS
 62
    1
 10
934.87597768760338
 20
724.33828942421769
 11
934.29929227284288
 21
724.40475369274407
  0
LINE
  8
_0-0_
  6
CONTINUOUS
 62
    1
 10
934.29929227284288
 20
724.40475369274407
 11
933.63903681246097
 21
724.45769067326717
  0
LINE
  8
_0-0_
  6
CONTINUOUS
 62
    1
 10
933.63903681246097
 20
724.45769067326717
 11
932.91527283451626
 21
724.49549190242112
  0
LINE
  8
_0-0_
  6
CONTINUOUS
 62
    1
 10
932.91527283451626
 20
724.49549190242112
 11
932.14999154123598
 21
724.51700880898636
  0
LINE
  8
_0-0_
  6
CONTINUOUS
 62
    1
 10
932.14999154123598
 20
724.51700880898636
 11
931.36644561746573
 21
724.52158761264513
  0
LINE
  8
_0-0_
  6
CONTINUOUS
 62
    1
 10
931.36644561746573
 20
724.52158761264513
 11
930.58844270960572
 21
724.50908918876519
  0
LINE
  8
_0-0_
  6
CONTINUOUS
 62
    1
 10
930.58844270960572
 20
724.50908918876519
 11
929.83962204232284
 21
724.47989329563154
  0
LINE
  8
_0-0_
  6
CONTINUOUS
 62
    1
 10
929.83962204232284
 20
724.47989329563154
 11
929.14273615267098
 21
724.43488703568335
  0
LINE
  8
_0-0_
  6
CONTINUOUS
 62
    1
 10
929.14273615267098
 20
724.43488703568335
 11
928.51895956576595
 21
724.37543790135476
  0
LINE
  8
_0-0_
  6
CONTINUOUS
 62
    1
 10
928.51895956576595
 20
724.37543790135476
 11
928.22177174866908
 21
724.33828942421769
  0
LINE
  8
_0-0_
  6
CONTINUOUS
 62
    1
 10
937.17387471813629
 20
719.39848453922627
 11
937.17387471813629
 21
719.45955003017139
  0
LINE
  8
_0-0_
  6
CONTINUOUS
 62
    1
 10
914.97002372440591
 20
719.6321077557086
 11
914.97002372440591
 21
719.6321077557086
  0
LINE
  8
_0-0_
  6
CONTINUOUS
 62
    1
 10
914.97002372440591
 20
719.6321077557086
 11
914.67387471813629
 21
719.45955003017139
  0
LINE
  8
_0-0_
  6
CONTINUOUS
 62
    1
 10
927.44301001018482
 20
723.95955003017139
 11
927.44301001018482
 21
723.95955003017139
  0
LINE
  8
_0-0_
  6
CONTINUOUS
 62
    1
 10
927.44301001018482
 20
723.95955003017139
 11
919.8475026858149
 21
721.9839014352508
  0
LINE
  8
_0-0_
  6
CONTINUOUS
 62
    1
 10
919.8475026858149
 20
721.9839014352508
 11
914.97002372440591
 21
719.6321077557086
  0
LINE
  8
_0-0_
  6
CONTINUOUS
 62
    1
 10
914.67387471813629
 20
719.45955003017139
 11
948.42387471813629
 21
719.45955003017139
  0
LINE
  8
_0-0_
  6
CONTINUOUS
 62
    1
 10
925.92387471813629
 20
582.20955003017139
 11
924.88093119682719
 21
562.30900214250801
  0
LINE
  8
_0-0_
  6
CONTINUOUS
 62
    1
 10
931.54887471813629
 20
561.95955003017139
 11
933.09177240707879
 21
563.50244771911389
  0
LINE
  8
_0-0_
  6
CONTINUOUS
 62
    1
 10
931.54887471813629
 20
561.95955003017139
 11
930.00597702919379
 21
563.50244771911389
  0
LINE
  8
_0-0_
  6
DASHED1
 62
    1
 10
933.09177240707879
 20
563.50244771911389
 11
934.36137471813629
 21
564.77205003017139
  0
LINE
  8
_0-0_
  6
CONTINUOUS
 62
    1
 10
937.17387471813629
 20
582.20955003017139
 11
938.21681823944357
 21
562.30900214250801
  0
LINE
  8
_0-0_
  6
CONTINUOUS
 62
    1
 10
932.11137471813629
 20
582.20955003017139
 11
933.16818469179373
 21
562.04441446986152
  0
LINE
  8
_0-0_
  6
CONTINUOUS
 62
    1
 10
930.98637471813629
 20
582.20955003017139
 11
929.92956474447885
 21
562.04441446986152
  0
LINE
  8
_0-0_
  6
DASHED1
 62
    1
 10
930.00597702919379
 20
563.50244771911389
 11
928.73637471813629
 21
564.77205003017139
  0
LINE
  8
_0-0_
  6
CONTINUOUS
 62
    1
 10
924.88093119682719
 20
562.30900214250801
 11
929.92956474447885
 21
562.04441446986152
  0
LINE
  8
_0-0_
  6
CONTINUOUS
 62
    1
 10
933.16818469179373
 20
562.04441446986152
 11
938.21681823944357
 21
562.30900214250801
  0
LINE
  8
_0-0_
  6
CONTINUOUS
 62
    1
 10
930.98637471813629
 20
582.20955003017139
 11
932.11137471813629
 21
582.20955003017139
  0
LINE
  8
_0-0_
  6
DASHED1
 62
    1
 10
928.73637471813629
 20
723.95955003017139
 11
928.73637471813629
 21
564.77205003017139
  0
LINE
  8
_0-0_
  6
CENTER2
 62
    1
 10
931.54887471813629
 20
743.20850345603799
 11
931.54887471813629
 21
551.76625525512122
  0
LINE
  8
_0-0_
  6
CONTINUOUS
 62
    1
 10
925.92387471813629
 20
582.20955003017139
 11
925.92387471813629
 21
719.45955003017139
  0
LINE
  8
_0-0_
  6
CONTINUOUS
 62
    1
 10
937.17387471813629
 20
582.20955003017139
 11
937.17387471813629
 21
719.45955003017139
  0
LINE
  8
_0-0_
  6
CONTINUOUS
 62
    1
 10
920.29887471813629
 20
622.70955003017139
 11
942.79887471813629
 21
622.70955003017139
  0
LINE
  8
_0-0_
  6
CONTINUOUS
 62
    1
 10
942.79887471813629
 20
622.70955003017139
 11
942.79887471813629
 21
701.45955003017139
  0
LINE
  8
_0-0_
  6
CONTINUOUS
 62
    1
 10
942.79887471813629
 20
701.45955003017139
 11
920.29887471813629
 21
701.45955003017139
  0
LINE
  8
_0-0_
  6
CONTINUOUS
 62
    1
 10
920.29887471813629
 20
701.45955003017139
 11
920.29887471813629
 21
622.70955003017139
  0
LINE
  8
_0-0_
  6
CONTINUOUS
 62
    1
 10
940.54887471813629
 20
622.70955003017139
 11
940.54887471813629
 21
701.45955003017139
  0
LINE
  8
_0-0_
  6
CONTINUOUS
 62
    1
 10
922.54887471813629
 20
701.45955003017139
 11
922.54887471813629
 21
622.70955003017139
  0
LINE
  8
_0-0_
  6
CONTINUOUS
 62
    7
 10
1377.9985062774631
 20
622.70955003017139
 11
1029.8704655402635
 21
622.70955003017139
  0
LINE
  8
_0-0_
  6
CONTINUOUS
 62
    4
 10
888.60585523347447
 20
735.20955003017139
 11
761.36689420279629
 21
735.20955003017139
  0
LINE
  8
_0-0_
  6
CONTINUOUS
 62
    3
 10
1029.8704655402635
 20
714.95955003017139
 11
761.36689420279629
 21
714.95955003017139
  0
LINE
  8
_0-0_
  6
CONTINUOUS
 62
    6
 10
761.36689420279629
 20
701.45955003017139
 11
1029.8704655402635
 21
701.45955003017139
  0
LINE
  8
_0-0_
  6
CONTINUOUS
 62
    6
 10
1029.8704655402635
 20
622.70955003017139
 11
761.36689420279629
 21
622.70955003017139
  0
LINE
  8
_0-0_
  6
CONTINUOUS
 62
    6
 10
820.76887808606637
 20
701.45955003016957
 11
761.36689420279629
 21
642.05756614689949
  0
LINE
  8
_0-0_
  6
CONTINUOUS
 62
    6
 10
773.48735995030449
 20
622.7095500301732
 11
761.36689420279629
 21
634.83001577768141
  0
LINE
  8
_0-0_
  6
CONTINUOUS
 62
    6
 10
837.12697025709542
 20
622.70955003016957
 11
761.36689420279629
 21
698.46962608447052
  0
LINE
  8
_0-0_
  6
CONTINUOUS
 62
    6
 10
788.94907293267181
 20
701.45955003016957
 11
761.36689420279629
 21
673.87737130029404
  0
LINE
  8
_0-0_
  6
CONTINUOUS
 62
    6
 10
805.30716510369996
 20
622.70955003017139
 11
761.36689420279629
 21
666.64982093107506
  0
LINE
  8
_0-0_
  6
CONTINUOUS
 62
    6
 10
1646.5020776149304
 20
701.45955003017139
 11
1377.9985062774631
 21
701.45955003017139
  0
LINE
  8
_0-0_
  6
CONTINUOUS
 62
    3
 10
1377.9985062774631
 20
714.95955003017139
 11
1646.5020776149304
 21
714.95955003017139
  0
LINE
  8
_0-0_
  6
CONTINUOUS
 62
    4
 10
1519.2631165842522
 20
735.20955003017139
 11
1646.5020776149304
 21
735.20955003017139
  0
LINE
  8
_0-0_
  6
CONTINUOUS
 62
    6
 10
1602.5618067140267
 20
622.70955003017139
 11
1646.5020776149304
 21
666.64982093107506
  0
LINE
  8
_0-0_
  6
CONTINUOUS
 62
    6
 10
1618.9198988850549
 20
701.45955003016957
 11
1646.5020776149304
 21
673.87737130029404
  0
LINE
  8
_0-0_
  6
CONTINUOUS
 62
    6
 10
1634.3816118674222
 20
622.7095500301732
 11
1646.5020776149304
 21
634.83001577768141
  0
LINE
  8
_0-0_
  6
CONTINUOUS
 62
    6
 10
1587.1000937316603
 20
701.45955003016957
 11
1646.5020776149304
 21
642.05756614689949
  0
LINE
  8
_0-0_
  6
CONTINUOUS
 62
    6
 10
1377.9985062774631
 20
622.70955003017139
 11
1646.5020776149304
 21
622.70955003017139
  0
LINE
  8
_0-0_
  6
CONTINUOUS
 62
    7
 10
761.36689420279629
 20
425.76114604256986
 11
958.31529819040145
 21
622.70955003017139
  0
LINE
  8
_0-0_
  6
CONTINUOUS
 62
    7
 10
761.36689420279629
 20
441.6710486192635
 11
942.40539561370417
 21
622.70955003017139
  0
LINE
  8
_0-0_
  6
CONTINUOUS
 62
    7
 10
761.36689420279629
 20
457.58095119595896
 11
926.49549303700871
 21
622.70955003017139
  0
LINE
  8
_0-0_
  6
CONTINUOUS
 62
    7
 10
1208.3044439156956
 20
622.70955003017139
 11
1377.9985062774631
 21
792.40361239193885
  0
LINE
  8
_0-0_
  6
CONTINUOUS
 62
    7
 10
1377.9985062774631
 20
988.64816356892629
 11
1377.9985062774631
 21
622.70955003017139
  0
LINE
  8
_0-0_
  6
CONTINUOUS
 62
    7
 10
1029.8704655402635
 20
988.64816356892629
 11
1029.8704655402635
 21
622.70955003017139
  0
LINE
  8
_0-0_
  6
CONTINUOUS
 62
    7
 10
1192.3945413389984
 20
622.70955003017139
 11
1377.9985062774631
 21
808.31351496863613
  0
TEXT
  8
_0-0_
 62
    7
 10
1457.8044909321616
 20
1142.5051465933941
 40
30
 41
1
 50
0
  1
防水層
  0
LINE
  8
_0-0_
  6
CONTINUOUS
 62
    7
 10
885.99815652856535
 20
689.33092274618707
 11
825.65472987068563
 21
793.84880362044191
  0
POINT
  8
_0-0_
 62
    7
 10
885.99815652856535
 20
689.33092274618707
  0
TEXT
  8
_0-0_
 62
    7
 10
731.82008000207054
 20
783.69853855119732
 40
30
 41
1
 50
0
  1
断熱材
  0
LINE
  8
_0-0_
  6
CONTINUOUS
 62
    4
 10
1016.3704655402636
 20
994.24004666096175
 11
1016.3704655402636
 21
856.2241603369614
  0
LINE
  8
_0-0_
  6
CONTINUOUS
 62
    4
 10
1391.4985062774631
 20
994.24004666096266
 11
1391.4985062774631
 21
856.2241603369614
  0
LINE
  8
_0-0_
  6
CONTINUOUS
 62
    7
 10
1027.6204655402635
 20
848.3491603369614
 11
1027.6204655402635
 21
896.0991603369614
  0
LINE
  8
_0-0_
  6
CONTINUOUS
 62
    7
 10
1029.8704655402635
 20
896.0991603369614
 11
1027.6204655402635
 21
896.0991603369614
  0
LINE
  8
_0-0_
  6
CONTINUOUS
 62
    7
 10
1380.2485062774631
 20
848.3491603369614
 11
1380.2485062774631
 21
896.0991603369614
  0
LINE
  8
_0-0_
  6
CONTINUOUS
 62
    7
 10
1377.9985062774631
 20
896.0991603369614
 11
1380.2485062774631
 21
896.0991603369614
  0
LINE
  8
_0-0_
  6
CONTINUOUS
 62
    7
 10
1161.7074071739462
 20
992.51301743397221
 11
1181.7074071739462
 21
992.51301743397221
  0
LINE
  8
_0-0_
  6
CONTINUOUS
 62
    7
 10
1226.1615646437822
 20
992.51301743397221
 11
1246.1615646437822
 21
992.51301743397221
  0
LINE
  8
_0-0_
  6
CONTINUOUS
 62
    7
 10
1246.1615646437822
 20
992.51301743397221
 11
1246.1615646437822
 21
1012.5130174339722
  0
LINE
  8
_0-0_
  6
CONTINUOUS
 62
    7
 10
1161.7074071739462
 20
1012.5130174339722
 11
1161.7074071739462
 21
992.51301743397221
  0
LINE
  8
_0-0_
  6
CONTINUOUS
 62
    2
 10
1181.7074071739462
 20
1008.2843811051193
 11
1165.9360435027993
 21
992.51301743397221
  0
LINE
  8
_0-0_
  6
CONTINUOUS
 62
    2
 10
1181.7074071739462
 20
1003.829608383644
 11
1170.3908162242744
 21
992.51301743397221
  0
LINE
  8
_0-0_
  6
CONTINUOUS
 62
    2
 10
1181.7074071739462
 20
999.37483566216883
 11
1174.8455889457498
 21
992.51301743397221
  0
LINE
  8
_0-0_
  6
CONTINUOUS
 62
    2
 10
1181.7074071739462
 20
994.92006294069347
 11
1179.3003616672249
 21
992.51301743397221
  0
LINE
  8
_0-0_
  6
CONTINUOUS
 62
    2
 10
1246.1615646437822
 20
993.95980259568273
 11
1244.7147794820717
 21
992.51301743397221
  0
LINE
  8
_0-0_
  6
CONTINUOUS
 62
    2
 10
1246.1615646437822
 20
998.41457531715787
 11
1240.2600067605965
 21
992.51301743397221
  0
LINE
  8
_0-0_
  6
CONTINUOUS
 62
    2
 10
1246.1615646437822
 20
1002.8693480386332
 11
1235.8052340391212
 21
992.51301743397221
  0
LINE
  8
_0-0_
  6
CONTINUOUS
 62
    2
 10
1246.1615646437822
 20
1007.3241207601084
 11
1231.350461317646
 21
992.51301743397221
  0
LINE
  8
_0-0_
  6
CONTINUOUS
 62
    2
 10
1246.1615646437822
 20
1011.7788934815837
 11
1226.8956885961707
 21
992.51301743397221
  0
ARC
  8
_0-0_
  6
CONTINUOUS
 62
    4
 10
1180.2074071739462
 20
1050.5130174339722
 40
12
 50
90
 51
180
  0
ARC
  8
_0-0_
  6
CONTINUOUS
 62
    4
 10
1227.6615646437822
 20
1050.5130174339722
 40
12
 50
0
 51
90
  0
LINE
  8
_0-0_
  6
CONTINUOUS
 62
    4
 10
1227.6615646437822
 20
1062.5130174339722
 11
1226.1615646437822
 21
1062.5130174339722
  0
LINE
  8
_0-0_
  6
CONTINUOUS
 62
    4
 10
1181.7074071739462
 20
1062.5130174339722
 11
1180.2074071739462
 21
1062.5130174339722
  0
LINE
  8
_0-0_
  6
CONTINUOUS
 62
    2
 10
1161.7074071739462
 20
1012.5130174339723
 11
1161.7074071739462
 21
1012.5130174339723
  0
LINE
  8
_0-0_
  6
CONTINUOUS
 62
    2
 10
1161.7074071739462
 20
1012.5130174339723
 11
1168.6884265458789
 21
1011.7157081830386
  0
LINE
  8
_0-0_
  6
CONTINUOUS
 62
    2
 10
1168.6884265458789
 20
1011.7157081830386
 11
1175.7611761165174
 21
1011.7790807557063
  0
LINE
  8
_0-0_
  6
CONTINUOUS
 62
    2
 10
1175.7611761165174
 20
1011.7790807557063
 11
1181.7074071739462
 21
1012.5130174339723
  0
LINE
  8
_0-0_
  6
CONTINUOUS
 62
    2
 10
1163.3893353160779
 20
1012.2401728546279
 11
1161.7074071739462
 21
1010.5582447124964
  0
LINE
  8
_0-0_
  6
CONTINUOUS
 62
    2
 10
1167.4013077957914
 20
1011.7973726128661
 11
1161.7074071739464
 21
1006.103471991021
  0
LINE
  8
_0-0_
  6
CONTINUOUS
 62
    2
 10
1171.6956958247815
 20
1011.6369879203808
 11
1161.7074071739462
 21
1001.6486992695457
  0
LINE
  8
_0-0_
  6
CONTINUOUS
 62
    2
 10
1176.3358455523548
 20
1011.8223649264783
 11
1161.7074071739464
 21
997.19392654806984
  0
LINE
  8
_0-0_
  6
CONTINUOUS
 62
    2
 10
1181.4331694983323
 20
1012.4649161509806
 11
1161.7074071739462
 21
992.73915382659447
  0
LINE
  8
_0-0_
  6
CONTINUOUS
 62
    2
 10
1228.6866541690397
 20
1012.1230738927436
 11
1226.1615646437824
 21
1009.5979843674861
  0
LINE
  8
_0-0_
  6
CONTINUOUS
 62
    2
 10
1232.7555757069233
 20
1011.7372227091513
 11
1226.1615646437824
 21
1005.1432116460103
  0
LINE
  8
_0-0_
  6
CONTINUOUS
 62
    2
 10
1237.1180036942562
 20
1011.6448779750085
 11
1226.1615646437822
 21
1000.6884389245345
  0
LINE
  8
_0-0_
  6
CONTINUOUS
 62
    2
 10
1241.8448580391189
 20
1011.9169595983961
 11
1226.1615646437822
 21
996.23366620305956
  0
LINE
  8
_0-0_
  6
CONTINUOUS
 62
    2
 10
1226.1615646437822
 20
1012.5130174339723
 11
1226.1615646437822
 21
1012.5130174339723
  0
LINE
  8
_0-0_
  6
CONTINUOUS
 62
    2
 10
1226.1615646437822
 20
1012.5130174339723
 11
1233.1425840157149
 21
1011.7157081830386
  0
LINE
  8
_0-0_
  6
CONTINUOUS
 62
    2
 10
1233.1425840157149
 20
1011.7157081830386
 11
1240.2153335863534
 21
1011.7790807557063
  0
LINE
  8
_0-0_
  6
CONTINUOUS
 62
    2
 10
1240.2153335863534
 20
1011.7790807557063
 11
1246.1615646437822
 21
1012.5130174339723
  0
POINT
  8
_0-0_
 62
    7
 10
1170.8182090066323
 20
1004.1414505328216
  0
LINE
  8
_0-0_
  6
CONTINUOUS
 62
    7
 10
1053.7353194053103
 20
1012.5130174339722
 11
1161.7074071739462
 21
1012.5130174339722
  0
LINE
  8
_0-0_
  6
CONTINUOUS
 62
    7
 10
1246.1615646437822
 20
1012.5130174339722
 11
1354.1336524124181
 21
1012.5130174339722
  0
LINE
  8
_0-0_
  6
CONTINUOUS
 62
    4
 10
1168.2074071739462
 20
1050.5130174339722
 11
1168.2074071739462
 21
1026.0130174339722
  0
LINE
  8
_0-0_
  6
CONTINUOUS
 62
    4
 10
1048.1434363132739
 20
1026.0130174339722
 11
1168.2074071739462
 21
1026.0130174339722
  0
LINE
  8
_0-0_
  6
CONTINUOUS
 62
    4
 10
1239.6615646437822
 20
1050.5130174339722
 11
1239.6615646437822
 21
1026.0130174339722
  0
LINE
  8
_0-0_
  6
CONTINUOUS
 62
    4
 10
1239.6615646437822
 20
1026.0130174339722
 11
1359.7255355044545
 21
1026.0130174339722
  0
LINE
  8
_0-0_
  6
CONTINUOUS
 62
    7
 10
1170.8182090066323
 20
1004.1414505328216
 11
1094.1554050286263
 21
1136.9253220734213
  0
TEXT
  8
_0-0_
 62
    7
 10
1001.999086861144
 20
1121.0371048148297
 40
30
 41
1
 50
0
  1
ｼｰﾘﾝｸﾞ
  0
LINE
  8
_0-0_
  6
CONTINUOUS
 62
    7
 10
672.13606690525205
 20
1633.3565543671132
 11
1706.8525777203686
 21
1633.3565543671132
  0
LINE
  8
_0-0_
  6
CONTINUOUS
 62
    7
 10
672.13606690525205
 20
1553.3565543671132
 11
1706.8525777203686
 21
1553.3565543671132
  0
LINE
  8
_0-0_
  6
CONTINUOUS
 62
    7
 10
672.13606690525205
 20
1473.3565543671132
 11
1706.8525777203686
 21
1473.3565543671132
  0
LINE
  8
_0-0_
  6
CONTINUOUS
 62
    7
 10
1189.4943223128103
 20
1633.3565543671132
 11
1189.4943223128103
 21
1473.3565543671132
  0
TEXT
  8
_0-0_
 62
    7
 10
1213.4943223128103
 20
1577.3565543671132
 40
20
 41
1
 50
0
  1
構造：ＲＣ造
  0
TEXT
  8
_0-0_
 62
    7
 10
1213.4943223128103
 20
1497.3565543671132
 40
20
 41
1
 50
0
  1
下地：コンクリートスラブ
  0
TEXT
  8
_0-0_
 62
    7
 10
696.13606690525205
 20
1577.3565543671132
 40
20
 41
1
 50
0
  1
図面番号：dan-kikai-SP-kiso-03
  0
LINE
  8
_0-0_
  6
CONTINUOUS
 62
    7
 10
1224.2143464923929
 20
622.70955003017139
 11
1283.8404212927785
 21
682.33562483055698
  0
LINE
  8
_0-0_
  6
CONTINUOUS
 62
    7
 10
1314.2052491777088
 20
712.70045271548702
 11
1377.9985062774631
 21
776.49370981524157
  0
TEXT
  8
_0-0_
 62
    7
 10
696.13606690525205
 20
1497.3565543671132
 40
20
 41
1
 50
0
  1
施工部位：基礎・架台(フェンス)
  0
ENDSEC
  0
EOF
