  0
SECTION
  2
HEADER
  9
$ACADVER
  1
AC1009
  9
$INSBASE
 10
0
 20
0
 30
0
  9
$EXTMIN
 10
0
 20
0
  9
$EXTMAX
 10
2378
 20
1682
  9
$LIMMIN
 10
0
 20
0
  9
$LIMMAX
 10
2378
 20
1682
  9
$LTSCALE
 40
1
  0
ENDSEC
  0
SECTION
  2
TABLES
  0
TABLE
  2
LTYPE
 70
     9
  0
LTYPE
  2
CONTINUOUS
 70
    64
  3
実線
 72
    65
 73
     0
 40
0.0
  0
LTYPE
  2
DASHED1
 70
    64
  3
--  --  --  --  --  --  --  --  
 72
    65
 73
     2
 40
2.5
 49
1.25
 49
-1.25
  0
LTYPE
  2
DASHED2
 70
    64
  3
----    ----    ----    ----    
 72
    65
 73
     2
 40
5.0
 49
2.5
 49
-2.5
  0
LTYPE
  2
DASHED3
 70
    64
  3
------  ------  ------  ------  
 72
    65
 73
     2
 40
5.0
 49
3.75
 49
-1.25
  0
LTYPE
  2
CENTER1
 70
    64
  3
----- - ----- - ----- - ----- - 
 72
    65
 73
     4
 40
10.0
 49
6.25
 49
-1.25
 49
1.25
 49
-1.25
  0
LTYPE
  2
CENTER2
 70
    64
  3
----------  --  ----------  --  
 72
    65
 73
     4
 40
20.0
 49
12.5
 49
-2.5
 49
2.5
 49
-2.5
  0
LTYPE
  2
PHANTOM1
 70
    64
  3
--- - - --- - - --- - - --- - - 
 72
    65
 73
     6
 40
10.0
 49
3.25
 49
-1.25
 49
1.25
 49
-1.25
 49
1.25
 49
-1.25
  0
LTYPE
  2
PHANTOM2
 70
    64
  3
--------  -  -  --------  -  -  
 72
    65
 73
     6
 40
20.0
 49
10.0
 49
-2.5
 49
1.25
 49
-2.5
 49
1.25
 49
-2.5
  0
LTYPE
  2
DOT
 70
    64
  3
-   -   -   -   -   -   -   -   
 72
    65
 73
     2
 40
2.5
 49
0.625
 49
-1.875
  0
LTYPE
  2
DUMMY
 70
    64
  3
ダミー
 72
    65
 73
     0
 40
0.0
  0
LTYPE
  2
RAND1
 70
    64
  3
ランダム線1
 72
    65
 73
     4
 40
10.0
 49
1.0
 49
-2.0
 49
3.0
 49
-4.0
  0
LTYPE
  2
RAND2
 70
    64
  3
ランダム線2
 72
    65
 73
     4
 40
14.0
 49
2.0
 49
-3.0
 49
4.0
 49
-5.0
  0
LTYPE
  2
RAND3
 70
    64
  3
ランダム線3
 72
    65
 73
     4
 40
18.0
 49
3.0
 49
-4.0
 49
5.0
 49
-6.0
  0
LTYPE
  2
RAND4
 70
    64
  3
ランダム線4
 72
    65
 73
     4
 40
22.0
 49
4.0
 49
-5.0
 49
6.0
 49
-7.0
  0
LTYPE
  2
RAND5
 70
    64
  3
ランダム線5
 72
    65
 73
     4
 40
26.0
 49
5.0
 49
-6.0
 49
7.0
 49
-8.0
  0
LTYPE
  2
LONG1
 70
    64
  3
----------  --  ----------  --  
 72
    65
 73
     4
 40
40.0
 49
32.5
 49
-2.5
 49
2.5
 49
-2.5
  0
LTYPE
  2
LONG2
 70
    64
  3
--------  -  -  --------  -  -  
 72
    65
 73
     6
 40
40.0
 49
30.0
 49
-2.5
 49
1.25
 49
-2.5
 49
1.25
 49
-2.5
  0
LTYPE
  2
LONG3
 70
    64
  3
+++++++++++++++..+++++++++++++++
 72
    65
 73
     2
 40
40.0
 49
37.5
 49
-2.5
  0
LTYPE
  2
LONG4
 70
    64
  3
+++++++++++++++..+++++++++++++++
 72
    65
 73
     2
 40
80.0
 49
75.0
 49
-5.0
  0
LTYPE
  2
LONG5
 70
    64
  3
----------  --  ----------  --  
 72
    65
 73
     4
 40
60.0
 49
37.5
 49
-7.5
 49
7.5
 49
-7.5
  0
LTYPE
  2
dashed
 70
   64
  3
-------   -------------   ------
 72
   65
 73
    2
 40
7.5
 49
6
 49
-1.5
  0
LTYPE
  2
dashed_spaced
 70
   64
  3
----        --------        ----
 72
   65
 73
    2
 40
12
 49
6
 49
-6
  0
LTYPE
  2
long_dashed_dotted
 70
   64
  3
------------- --- --------------
 72
   65
 73
    4
 40
15.25
 49
12
 49
-1.5
 49
0.25
 49
-1.5
  0
LTYPE
  2
long_dashed_double-dotted
 70
   64
  3
----------- --- --- ------------
 72
   65
 73
    6
 40
17
 49
12
 49
-1.5
 49
0.25
 49
-1.5
 49
0.25
 49
-1.5
  0
LTYPE
  2
long_dashed_triplicate-dotted
 70
   64
  3
--------- --- --- --- ----------
 72
   65
 73
    8
 40
18.75
 49
12
 49
-1.5
 49
0.25
 49
-1.5
 49
0.25
 49
-1.5
 49
0.25
 49
-1.5
  0
LTYPE
  2
dotted
 70
   64
  3
   -       -       -       -    
 72
   65
 73
    2
 40
1.75
 49
0.25
 49
-1.5
  0
LTYPE
  2
chain
 70
   64
  3
-------------- -- --------------
 72
   65
 73
    4
 40
18.5
 49
12
 49
-1.5
 49
3.5
 49
-1.5
  0
LTYPE
  2
chain_double_dash
 70
   64
  3
------------ -- -- -------------
 72
   65
 73
    6
 40
23.5
 49
12
 49
-1.5
 49
3.5
 49
-1.5
 49
3.5
 49
-1.5
  0
LTYPE
  2
dashed_dotted
 70
   64
  3
-----------     -     ----------
 72
   65
 73
    4
 40
9.25
 49
6
 49
-1.5
 49
0.25
 49
-1.5
  0
LTYPE
  2
double-dashed_dotted
 70
   64
  3
------   -----------   -   -----
 72
   65
 73
    6
 40
16.75
 49
6
 49
-1.5
 49
6
 49
-1.5
 49
0.25
 49
-1.5
  0
LTYPE
  2
dashed_double-dotted
 70
   64
  3
---------    -    -    ---------
 72
   65
 73
    6
 40
11
 49
6
 49
-1.5
 49
0.25
 49
-1.5
 49
0.25
 49
-1.5
  0
LTYPE
  2
double-dashed_double-dotted
 70
   64
  3
-----   ---------   -   -   ----
 72
   65
 73
    8
 40
18.5
 49
6
 49
-1.5
 49
6
 49
-1.5
 49
0.25
 49
-1.5
 49
0.25
 49
-1.5
  0
LTYPE
  2
dashed_triplicate-dotted
 70
   64
  3
-------    -    -    -    ------
 72
   65
 73
    8
 40
12.75
 49
6
 49
-1.5
 49
0.25
 49
-1.5
 49
0.25
 49
-1.5
 49
0.25
 49
-1.5
  0
LTYPE
  2
double-dashed_triplicate-dotted
 70
   64
  3
-----  ---------  -  -  -  -----
 72
   65
 73
   10
 40
20.25
 49
6
 49
-1.5
 49
6
 49
-1.5
 49
0.25
 49
-1.5
 49
0.25
 49
-1.5
 49
0.25
 49
-1.5
  0
LTYPE
  2
undefined
 70
   64
  3
--------------------------------
 72
   65
 73
    0
 40
0
  0
ENDTAB
  0
TABLE
  2
STYLE
  5
3
100
AcDbSymbolTable
 70
     1
  0
STYLE
  5
10
100
AcDbSymbolTableRecord
100
AcDbTextStyleTableRecord
  2
STANDARD
 70
     0
 40
0.0
 41
1.0
 50
0.0
 71
     0
 42
0.2
  3
txt
  4
bigfont.shx
  0
STYLE
  5
26
100
AcDbSymbolTableRecord
100
AcDbTextStyleTableRecord
  2
TATEGAKI
 70
    68
 40
0.0
 41
1.0
 50
0.0
 71
     0
 42
1.0
  3
txt
  4
bigfont.shx
  0
ENDTAB
  0
TABLE
  2
LAYER
 70
    2
  0
LAYER
  2
_0-0_
 70
   64
 62
    7
  6
CONTINUOUS
  0
LAYER
  2
ADD_LINE
 70
   64
 62
    7
  6
CONTINUOUS
  0
ENDTAB
  0
ENDSEC
  0
SECTION
  2
BLOCKS
  0
ENDSEC
  0
SECTION
  2
ENTITIES
  0
LINE
  8
_0-0_
  6
CONTINUOUS
 62
    7
 10
672.13606690525205
 20
167.53106997205509
 11
1706.8525777203677
 21
167.53106997205509
  0
LINE
  8
_0-0_
  6
CONTINUOUS
 62
    7
 10
672.13606690525205
 20
1633.3565543671132
 11
672.13606690525205
 21
167.53106997205509
  0
LINE
  8
_0-0_
  6
CONTINUOUS
 62
    7
 10
1706.8525777203677
 20
1633.3565543671132
 11
1706.8525777203677
 21
167.53106997205509
  0
LINE
  8
_0-0_
  6
CONTINUOUS
 62
    3
 10
1542.3947849653341
 20
850.13326191877331
 11
839.6547899653342
 21
850.13326191877331
  0
LINE
  8
_0-0_
  6
CONTINUOUS
 62
    4
 10
1542.3947849653341
 20
859.13326191877331
 11
839.6547899653342
 21
859.13326191877331
  0
LINE
  8
_0-0_
  6
CONTINUOUS
 62
    7
 10
1437.759974680579
 20
852.94827346283364
 11
1497.5179196711579
 21
956.4520703424223
  0
POINT
  8
_0-0_
 62
    7
 10
1437.759974680579
 20
852.94827346283364
  0
LINE
  8
_0-0_
  6
CONTINUOUS
 62
    7
 10
1177.4569669653356
 20
1103.9794569187734
 11
1177.4569669653356
 21
1037.8435519187733
  0
LINE
  8
_0-0_
  6
CONTINUOUS
 62
    7
 10
1211.4921499653356
 20
1037.8435519187733
 11
1211.4921499653356
 21
1103.9794569187734
  0
LINE
  8
_0-0_
  6
CONTINUOUS
 62
    7
 10
1070.6661669653349
 20
1037.8396149187729
 11
1327.9476069653338
 21
1037.8396149187729
  0
LINE
  8
_0-0_
  6
CONTINUOUS
 62
    7
 10
989.6547899653342
 20
874.37778491877361
 11
1392.3947849653341
 21
874.37778491877361
  0
LINE
  8
_0-0_
  6
CONTINUOUS
 62
    7
 10
1392.3947849653341
 20
874.37778491877361
 11
1392.3947849653341
 21
859.13326191877331
  0
LINE
  8
_0-0_
  6
CONTINUOUS
 62
    7
 10
989.6547899653342
 20
874.37778491877361
 11
989.6547899653342
 21
859.13326191877331
  0
POINT
  8
_0-0_
 62
    7
 10
1337.6789021586774
 20
865.82177241793215
  0
LINE
  8
_0-0_
  6
CONTINUOUS
 62
    7
 10
1337.6789021586774
 20
865.82177241793215
 11
1397.4368471492562
 21
969.32556929752081
  0
LINE
  8
_0-0_
  6
CONTINUOUS
 62
    7
 10
1070.6661669653349
 20
1037.8396149187729
 11
1070.6661669653349
 21
874.37778491877361
  0
LINE
  8
_0-0_
  6
CONTINUOUS
 62
    7
 10
1327.9476069653338
 20
1037.8396149187729
 11
1327.9476069653338
 21
874.37778491877361
  0
LINE
  8
_0-0_
  6
CONTINUOUS
 62
    7
 10
1267.0982920976294
 20
874.37778491877179
 11
1327.9476069653356
 21
935.22709978647708
  0
LINE
  8
_0-0_
  6
CONTINUOUS
 62
    7
 10
1260.0272242857654
 20
874.3777849187727
 11
1327.9476069653338
 21
942.29816759834102
  0
LINE
  8
_0-0_
  6
CONTINUOUS
 62
    7
 10
1252.9561564739015
 20
874.37778491877361
 11
1327.9476069653329
 21
949.36923541020496
  0
LINE
  8
_0-0_
  6
CONTINUOUS
 62
    7
 10
1070.666166965334
 20
904.21982976617073
 11
1204.2859521179353
 21
1037.8396149187729
  0
LINE
  8
_0-0_
  6
CONTINUOUS
 62
    7
 10
1070.666166965334
 20
911.29089757803649
 11
1197.2148843060704
 21
1037.8396149187729
  0
LINE
  8
_0-0_
  6
CONTINUOUS
 62
    7
 10
1070.6661669653367
 20
918.36196538990407
 11
1190.1438164942037
 21
1037.8396149187711
  0
CIRCLE
  8
_0-0_
  6
CONTINUOUS
 62
    7
 10
1194.4745584653356
 20
1122.8430635493814
 40
7.3062537407017327
  0
LINE
  8
_0-0_
  6
CONTINUOUS
 62
    7
 10
1166.4745584653356
 20
1103.9794569187734
 11
1222.4745584653356
 21
1103.9794569187734
  0
LINE
  8
_0-0_
  6
CONTINUOUS
 62
    7
 10
1166.4745584653356
 20
1103.9794569187734
 11
1166.4745584653356
 21
1222.9476469187739
  0
TEXT
  8
_0-0_
 62
    7
 10
1400.9501490355551
 20
959.36479529914232
 40
30
 41
1
 50
0
  1
ﾊﾟｯｷﾝ
  0
TEXT
  8
_0-0_
 62
    7
 10
1504.6957629000499
 20
940.61256787658658
 40
30
 41
1
 50
0
  1
防水層
  0
LINE
  8
_0-0_
  6
CONTINUOUS
 62
    7
 10
1222.4745584653356
 20
1222.9477869187758
 11
1221.2965284653365
 21
1221.1986199187759
  0
LINE
  8
_0-0_
  6
CONTINUOUS
 62
    7
 10
1219.8989434653358
 20
1219.6152129187758
 11
1218.3074864653354
 21
1218.2270429187756
  0
LINE
  8
_0-0_
  6
CONTINUOUS
 62
    7
 10
1216.549240465336
 20
1217.0577979187747
 11
1214.6536544653354
 21
1216.1270639187751
  0
LINE
  8
_0-0_
  6
CONTINUOUS
 62
    7
 10
1212.6531174653364
 20
1215.4507729187753
 11
1210.5818524653359
 21
1215.0404119187751
  0
LINE
  8
_0-0_
  6
CONTINUOUS
 62
    7
 10
1208.4745584653356
 20
1214.9028269187747
 11
1206.3672714653358
 21
1215.0404119187751
  0
LINE
  8
_0-0_
  6
CONTINUOUS
 62
    7
 10
1204.2960064653362
 20
1215.4507729187753
 11
1202.2954694653354
 21
1216.1270639187751
  0
LINE
  8
_0-0_
  6
CONTINUOUS
 62
    7
 10
1200.3998834653357
 20
1217.0577979187747
 11
1198.6416374653354
 21
1218.2270429187756
  0
LINE
  8
_0-0_
  6
CONTINUOUS
 62
    7
 10
1197.0501804653359
 20
1219.6152129187758
 11
1195.6525954653362
 21
1221.1986199187759
  0
LINE
  8
_0-0_
  6
CONTINUOUS
 62
    7
 10
1194.4745584653365
 20
1222.9477869187758
 11
1193.2965284653355
 21
1224.6968069187751
  0
LINE
  8
_0-0_
  6
CONTINUOUS
 62
    7
 10
1191.8989434653358
 20
1226.2802139187752
 11
1190.3074864653363
 21
1227.6683839187754
  0
LINE
  8
_0-0_
  6
CONTINUOUS
 62
    7
 10
1188.549240465336
 20
1228.8376289187763
 11
1186.6536544653363
 21
1229.7683629187741
  0
LINE
  8
_0-0_
  6
CONTINUOUS
 62
    7
 10
1184.6531174653355
 20
1230.4446539187757
 11
1182.5818524653359
 21
1230.855014918774
  0
LINE
  8
_0-0_
  6
CONTINUOUS
 62
    7
 10
1180.4745584653356
 20
1230.992606918775
 11
1178.3672714653358
 21
1230.855014918774
  0
LINE
  8
_0-0_
  6
CONTINUOUS
 62
    7
 10
1176.2960064653362
 20
1230.4446539187757
 11
1174.2954694653354
 21
1229.7683629187741
  0
LINE
  8
_0-0_
  6
CONTINUOUS
 62
    7
 10
1172.3998834653357
 20
1228.8376289187763
 11
1170.6416374653354
 21
1227.6683839187754
  0
LINE
  8
_0-0_
  6
CONTINUOUS
 62
    7
 10
1169.0501804653359
 20
1226.2802139187752
 11
1167.6525954653362
 21
1224.6968069187751
  0
LINE
  8
_0-0_
  6
CONTINUOUS
 62
    7
 10
1166.4745584653356
 20
1222.9476469187739
 11
1167.6525954653362
 21
1224.6968069187751
  0
LINE
  8
_0-0_
  6
CONTINUOUS
 62
    7
 10
1169.0501804653359
 20
1226.2802139187752
 11
1170.6416374653354
 21
1227.6683839187754
  0
LINE
  8
_0-0_
  6
CONTINUOUS
 62
    7
 10
1172.3998834653357
 20
1228.8376289187763
 11
1174.2954694653354
 21
1229.7683629187741
  0
LINE
  8
_0-0_
  6
CONTINUOUS
 62
    7
 10
1176.2960064653362
 20
1230.4446539187757
 11
1178.3672714653358
 21
1230.855014918774
  0
LINE
  8
_0-0_
  6
CONTINUOUS
 62
    7
 10
1180.4745584653356
 20
1230.992606918775
 11
1182.5818524653359
 21
1230.855014918774
  0
LINE
  8
_0-0_
  6
CONTINUOUS
 62
    7
 10
1184.6531174653355
 20
1230.4446539187757
 11
1186.6536544653363
 21
1229.7683629187741
  0
LINE
  8
_0-0_
  6
CONTINUOUS
 62
    7
 10
1188.549240465336
 20
1228.8376289187763
 11
1190.3074864653363
 21
1227.6683839187754
  0
LINE
  8
_0-0_
  6
CONTINUOUS
 62
    7
 10
1191.8989434653358
 20
1226.2802139187752
 11
1193.2965284653355
 21
1224.6968069187751
  0
LINE
  8
_0-0_
  6
CONTINUOUS
 62
    7
 10
1194.4745584653365
 20
1222.9477869187758
 11
1195.6525954653362
 21
1221.1986199187759
  0
LINE
  8
_0-0_
  6
CONTINUOUS
 62
    7
 10
1194.4745584653365
 20
1222.9477869187758
 11
1195.6525954653362
 21
1224.6968069187751
  0
LINE
  8
_0-0_
  6
CONTINUOUS
 62
    7
 10
1197.0501804653359
 20
1226.2802139187752
 11
1198.6416374653354
 21
1227.6683839187754
  0
LINE
  8
_0-0_
  6
CONTINUOUS
 62
    7
 10
1200.3998834653357
 20
1228.8376289187763
 11
1202.2954694653354
 21
1229.7683629187741
  0
LINE
  8
_0-0_
  6
CONTINUOUS
 62
    7
 10
1197.0501804653359
 20
1219.6152129187758
 11
1198.6416374653354
 21
1218.2270429187756
  0
LINE
  8
_0-0_
  6
CONTINUOUS
 62
    7
 10
1200.3998834653357
 20
1217.0577979187747
 11
1202.2954694653354
 21
1216.1270639187751
  0
LINE
  8
_0-0_
  6
CONTINUOUS
 62
    7
 10
1204.2960064653362
 20
1215.4507729187753
 11
1206.3672714653358
 21
1215.0404119187751
  0
LINE
  8
_0-0_
  6
CONTINUOUS
 62
    7
 10
1208.4745584653356
 20
1214.9028269187747
 11
1210.5818524653359
 21
1215.0404119187751
  0
LINE
  8
_0-0_
  6
CONTINUOUS
 62
    7
 10
1212.6531174653364
 20
1215.4507729187753
 11
1214.6536544653354
 21
1216.1270639187751
  0
LINE
  8
_0-0_
  6
CONTINUOUS
 62
    7
 10
1216.549240465336
 20
1217.0577979187747
 11
1218.3074864653354
 21
1218.2270429187756
  0
LINE
  8
_0-0_
  6
CONTINUOUS
 62
    7
 10
1219.8989434653358
 20
1219.6152129187758
 11
1221.2965284653365
 21
1221.1986199187759
  0
LINE
  8
_0-0_
  6
CONTINUOUS
 62
    7
 10
1221.2965284653365
 20
1224.6968069187751
 11
1219.8989434653358
 21
1226.2802139187752
  0
LINE
  8
_0-0_
  6
CONTINUOUS
 62
    7
 10
1218.3074864653354
 20
1227.6683839187754
 11
1216.549240465336
 21
1228.8376289187763
  0
LINE
  8
_0-0_
  6
CONTINUOUS
 62
    7
 10
1214.6536544653354
 20
1229.7683629187741
 11
1212.6531174653364
 21
1230.4446539187757
  0
LINE
  8
_0-0_
  6
CONTINUOUS
 62
    7
 10
1210.5818524653359
 20
1230.855014918774
 11
1208.4745584653356
 21
1230.992606918775
  0
LINE
  8
_0-0_
  6
CONTINUOUS
 62
    7
 10
1206.3672714653358
 20
1230.855014918774
 11
1204.2960064653362
 21
1230.4446539187757
  0
LINE
  8
_0-0_
  6
CONTINUOUS
 62
    7
 10
1222.4745584653356
 20
1222.9476469187739
 11
1221.2965284653365
 21
1224.6968069187751
  0
LINE
  8
_0-0_
  6
CONTINUOUS
 62
    7
 10
1195.6525954653362
 20
1224.6968069187751
 11
1197.0501804653359
 21
1226.2802139187752
  0
LINE
  8
_0-0_
  6
CONTINUOUS
 62
    7
 10
1198.6416374653354
 20
1227.6683839187754
 11
1200.3998834653357
 21
1228.8376289187763
  0
LINE
  8
_0-0_
  6
CONTINUOUS
 62
    7
 10
1202.2954694653354
 20
1229.7683629187741
 11
1204.2960064653362
 21
1230.4446539187757
  0
LINE
  8
_0-0_
  6
CONTINUOUS
 62
    7
 10
1206.3672714653358
 20
1230.855014918774
 11
1208.4745584653356
 21
1230.992606918775
  0
LINE
  8
_0-0_
  6
CONTINUOUS
 62
    7
 10
1210.5818524653359
 20
1230.855014918774
 11
1212.6531174653364
 21
1230.4446539187757
  0
LINE
  8
_0-0_
  6
CONTINUOUS
 62
    7
 10
1214.6536544653354
 20
1229.7683629187741
 11
1216.549240465336
 21
1228.8376289187763
  0
LINE
  8
_0-0_
  6
CONTINUOUS
 62
    7
 10
1218.3074864653354
 20
1227.6683839187754
 11
1219.8989434653358
 21
1226.2802139187752
  0
LINE
  8
_0-0_
  6
CONTINUOUS
 62
    7
 10
1222.4745584653356
 20
1103.9794569187734
 11
1222.4745584653356
 21
1222.9477869187758
  0
LINE
  8
_0-0_
  6
CONTINUOUS
 62
    6
 10
839.65478996533443
 20
836.54566072962643
 11
847.18148065689661
 21
844.07235142118861
  0
LINE
  8
_0-0_
  6
CONTINUOUS
 62
    6
 10
839.65478996533443
 20
822.40352510589491
 11
861.32361628062768
 21
844.07235142118861
  0
LINE
  8
_0-0_
  6
CONTINUOUS
 62
    6
 10
840.46575190435692
 20
809.0723514211877
 11
875.46575190435692
 21
844.0723514211877
  0
LINE
  8
_0-0_
  6
CONTINUOUS
 62
    6
 10
854.6078875280898
 20
809.07235142118861
 11
889.6078875280898
 21
844.07235142118861
  0
LINE
  8
_0-0_
  6
CONTINUOUS
 62
    6
 10
868.75002315182041
 20
809.07235142118861
 11
903.75002315182041
 21
844.07235142118861
  0
LINE
  8
_0-0_
  6
CONTINUOUS
 62
    6
 10
882.89215877555012
 20
809.07235142118861
 11
917.89215877554966
 21
844.0723514211877
  0
LINE
  8
_0-0_
  6
CONTINUOUS
 62
    6
 10
897.03429439928254
 20
809.07235142118861
 11
932.03429439928254
 21
844.07235142118861
  0
LINE
  8
_0-0_
  6
CONTINUOUS
 62
    6
 10
911.17643002301315
 20
809.07235142118861
 11
946.17643002301315
 21
844.07235142118861
  0
LINE
  8
_0-0_
  6
CONTINUOUS
 62
    6
 10
925.31856564674285
 20
809.0723514211877
 11
960.31856564674285
 21
844.07235142118861
  0
LINE
  8
_0-0_
  6
CONTINUOUS
 62
    6
 10
939.46070127047483
 20
809.07235142118861
 11
974.46070127047528
 21
844.07235142118861
  0
LINE
  8
_0-0_
  6
CONTINUOUS
 62
    6
 10
953.60283689420589
 20
809.07235142118861
 11
988.60283689420635
 21
844.07235142118861
  0
LINE
  8
_0-0_
  6
CONTINUOUS
 62
    6
 10
967.74497251793559
 20
809.07235142118861
 11
1002.7449725179356
 21
844.0723514211877
  0
LINE
  8
_0-0_
  6
CONTINUOUS
 62
    6
 10
981.88710814166757
 20
809.07235142118861
 11
1016.8871081416676
 21
844.07235142118861
  0
LINE
  8
_0-0_
  6
CONTINUOUS
 62
    6
 10
996.02924376539909
 20
809.07235142118861
 11
1031.0292437653991
 21
844.07235142118861
  0
LINE
  8
_0-0_
  6
CONTINUOUS
 62
    6
 10
1010.1713793891283
 20
809.07235142118861
 11
1045.1713793891283
 21
844.07235142118861
  0
LINE
  8
_0-0_
  6
CONTINUOUS
 62
    6
 10
1024.3135150128603
 20
809.07235142118861
 11
1059.3135150128603
 21
844.07235142118861
  0
LINE
  8
_0-0_
  6
CONTINUOUS
 62
    6
 10
1038.4556506365914
 20
809.07235142118861
 11
1073.4556506365914
 21
844.07235142118861
  0
LINE
  8
_0-0_
  6
CONTINUOUS
 62
    6
 10
1052.5977862603211
 20
809.0723514211877
 11
1087.5977862603211
 21
844.0723514211877
  0
LINE
  8
_0-0_
  6
CONTINUOUS
 62
    6
 10
1066.739921884053
 20
809.07235142118861
 11
1101.739921884053
 21
844.07235142118861
  0
LINE
  8
_0-0_
  6
CONTINUOUS
 62
    6
 10
1080.8820575077837
 20
809.07235142118861
 11
1115.8820575077841
 21
844.07235142118861
  0
LINE
  8
_0-0_
  6
CONTINUOUS
 62
    6
 10
1095.0241931315143
 20
809.07235142118861
 11
1130.024193131514
 21
844.0723514211877
  0
LINE
  8
_0-0_
  6
CONTINUOUS
 62
    6
 10
1109.1663287552467
 20
809.07235142118861
 11
1144.1663287552469
 21
844.07235142118861
  0
LINE
  8
_0-0_
  6
CONTINUOUS
 62
    6
 10
1123.3084643789764
 20
809.07235142118861
 11
1158.3084643789766
 21
844.07235142118861
  0
LINE
  8
_0-0_
  6
CONTINUOUS
 62
    6
 10
1137.4506000027086
 20
809.07235142118861
 11
1172.4506000027086
 21
844.07235142118861
  0
LINE
  8
_0-0_
  6
CONTINUOUS
 62
    6
 10
1151.5927356264397
 20
809.07235142118861
 11
1186.5927356264397
 21
844.07235142118861
  0
LINE
  8
_0-0_
  6
CONTINUOUS
 62
    6
 10
1165.7348712501694
 20
809.07235142118861
 11
1200.7348712501694
 21
844.07235142118861
  0
LINE
  8
_0-0_
  6
CONTINUOUS
 62
    6
 10
1179.8770068739013
 20
809.07235142118861
 11
1214.8770068739013
 21
844.07235142118861
  0
LINE
  8
_0-0_
  6
CONTINUOUS
 62
    6
 10
1194.0191424976324
 20
809.07235142118861
 11
1229.0191424976324
 21
844.07235142118861
  0
LINE
  8
_0-0_
  6
CONTINUOUS
 62
    6
 10
1208.1612781213626
 20
809.07235142118861
 11
1243.1612781213621
 21
844.07235142118861
  0
LINE
  8
_0-0_
  6
CONTINUOUS
 62
    6
 10
1222.3034137450945
 20
809.07235142118861
 11
1257.3034137450945
 21
844.07235142118861
  0
LINE
  8
_0-0_
  6
CONTINUOUS
 62
    6
 10
1236.4455493688256
 20
809.07235142118861
 11
1271.4455493688251
 21
844.07235142118861
  0
LINE
  8
_0-0_
  6
CONTINUOUS
 62
    6
 10
1250.5876849925548
 20
809.0723514211877
 11
1285.5876849925548
 21
844.0723514211877
  0
LINE
  8
_0-0_
  6
CONTINUOUS
 62
    6
 10
1264.7298206162873
 20
809.07235142118861
 11
1299.7298206162873
 21
844.07235142118861
  0
LINE
  8
_0-0_
  6
CONTINUOUS
 62
    6
 10
1278.8719562400183
 20
809.07235142118861
 11
1313.8719562400183
 21
844.07235142118861
  0
LINE
  8
_0-0_
  6
CONTINUOUS
 62
    6
 10
1272.0000838034098
 20
844.07235142118861
 11
1307.0000838034098
 21
809.07235142118861
  0
LINE
  8
_0-0_
  6
CONTINUOUS
 62
    6
 10
1257.8579481796778
 20
844.07235142118861
 11
1292.8579481796774
 21
809.07235142118861
  0
LINE
  8
_0-0_
  6
CONTINUOUS
 62
    6
 10
1243.7158125559477
 20
844.07235142118861
 11
1278.7158125559477
 21
809.07235142118861
  0
LINE
  8
_0-0_
  6
CONTINUOUS
 62
    6
 10
1229.573676932217
 20
844.0723514211877
 11
1264.573676932217
 21
809.07235142118861
  0
LINE
  8
_0-0_
  6
CONTINUOUS
 62
    6
 10
1215.4315413084851
 20
844.07235142118861
 11
1250.4315413084846
 21
809.07235142118861
  0
LINE
  8
_0-0_
  6
CONTINUOUS
 62
    6
 10
1201.2894056847545
 20
844.07235142118861
 11
1236.2894056847549
 21
809.07235142118861
  0
LINE
  8
_0-0_
  6
CONTINUOUS
 62
    6
 10
1187.1472700610243
 20
844.07235142118861
 11
1222.1472700610243
 21
809.07235142118861
  0
LINE
  8
_0-0_
  6
CONTINUOUS
 62
    6
 10
1173.0051344372923
 20
844.07235142118861
 11
1208.0051344372919
 21
809.07235142118861
  0
LINE
  8
_0-0_
  6
CONTINUOUS
 62
    6
 10
1158.8629988135617
 20
844.07235142118861
 11
1193.8629988135617
 21
809.07235142118861
  0
LINE
  8
_0-0_
  6
CONTINUOUS
 62
    6
 10
1144.7208631898311
 20
844.07235142118861
 11
1179.7208631898316
 21
809.07235142118861
  0
LINE
  8
_0-0_
  6
CONTINUOUS
 62
    6
 10
1130.5787275660996
 20
844.07235142118861
 11
1165.5787275660996
 21
809.07235142118861
  0
LINE
  8
_0-0_
  6
CONTINUOUS
 62
    6
 10
1116.4365919423688
 20
844.07235142118861
 11
1151.436591942369
 21
809.07235142118861
  0
LINE
  8
_0-0_
  6
CONTINUOUS
 62
    6
 10
1102.2944563186381
 20
844.07235142118861
 11
1137.2944563186388
 21
809.07235142118861
  0
LINE
  8
_0-0_
  6
CONTINUOUS
 62
    6
 10
1088.1523206949062
 20
844.07235142118861
 11
1123.1523206949066
 21
809.07235142118861
  0
LINE
  8
_0-0_
  6
CONTINUOUS
 62
    6
 10
1074.0101850711756
 20
844.07235142118861
 11
1109.010185071176
 21
809.07235142118861
  0
LINE
  8
_0-0_
  6
CONTINUOUS
 62
    6
 10
1059.8680494474459
 20
844.07235142118861
 11
1094.8680494474454
 21
809.07235142118861
  0
LINE
  8
_0-0_
  6
CONTINUOUS
 62
    6
 10
1045.7259138237134
 20
844.07235142118861
 11
1080.7259138237134
 21
809.07235142118861
  0
LINE
  8
_0-0_
  6
CONTINUOUS
 62
    6
 10
1031.5837781999833
 20
844.07235142118861
 11
1066.5837781999837
 21
809.07235142118861
  0
LINE
  8
_0-0_
  6
CONTINUOUS
 62
    6
 10
1017.4416425762531
 20
844.0723514211877
 11
1052.4416425762527
 21
809.07235142118861
  0
LINE
  8
_0-0_
  6
CONTINUOUS
 62
    6
 10
1003.2995069525207
 20
844.07235142118861
 11
1038.2995069525207
 21
809.07235142118861
  0
LINE
  8
_0-0_
  6
CONTINUOUS
 62
    6
 10
989.15737132879099
 20
844.07235142118861
 11
1024.157371328791
 21
809.07235142118861
  0
LINE
  8
_0-0_
  6
CONTINUOUS
 62
    6
 10
975.01523570506038
 20
844.0723514211877
 11
1010.0152357050599
 21
809.07235142118861
  0
LINE
  8
_0-0_
  6
CONTINUOUS
 62
    6
 10
960.87310008132795
 20
844.07235142118861
 11
995.87310008132795
 21
809.07235142118861
  0
LINE
  8
_0-0_
  6
CONTINUOUS
 62
    6
 10
946.73096445759825
 20
844.0723514211868
 11
981.73096445759779
 21
809.0723514211868
  0
LINE
  8
_0-0_
  6
CONTINUOUS
 62
    6
 10
932.58882883386764
 20
844.0723514211877
 11
967.58882883386764
 21
809.0723514211877
  0
LINE
  8
_0-0_
  6
CONTINUOUS
 62
    6
 10
918.44669321013521
 20
844.07235142118861
 11
953.44669321013521
 21
809.07235142118861
  0
LINE
  8
_0-0_
  6
CONTINUOUS
 62
    6
 10
904.30455758640551
 20
844.0723514211868
 11
939.30455758640505
 21
809.0723514211868
  0
LINE
  8
_0-0_
  6
CONTINUOUS
 62
    6
 10
890.1624219626749
 20
844.0723514211877
 11
925.16242196267444
 21
809.07235142118861
  0
LINE
  8
_0-0_
  6
CONTINUOUS
 62
    6
 10
876.02028633894247
 20
844.07235142118861
 11
911.02028633894247
 21
809.07235142118861
  0
LINE
  8
_0-0_
  6
CONTINUOUS
 62
    6
 10
861.87815071521277
 20
844.0723514211868
 11
896.87815071521277
 21
809.0723514211868
  0
LINE
  8
_0-0_
  6
CONTINUOUS
 62
    6
 10
847.73601509148216
 20
844.0723514211877
 11
882.73601509148216
 21
809.0723514211877
  0
LINE
  8
_0-0_
  6
CONTINUOUS
 62
    6
 10
839.65478996533534
 20
838.011440923603
 11
868.59387946774973
 21
809.07235142118861
  0
LINE
  8
_0-0_
  6
CONTINUOUS
 62
    6
 10
839.65478996533443
 20
823.86930529987239
 11
854.45174384401912
 21
809.0723514211877
  0
LINE
  8
_0-0_
  6
CONTINUOUS
 62
    6
 10
839.65478996533488
 20
809.72716967614087
 11
840.30960822028715
 21
809.07235142118861
  0
LINE
  8
_0-0_
  6
CONTINUOUS
 62
    6
 10
1349.582634358673
 20
809.07235142118861
 11
1384.582634358673
 21
844.07235142118861
  0
LINE
  8
_0-0_
  6
CONTINUOUS
 62
    6
 10
1363.7247699824027
 20
809.07235142118861
 11
1398.7247699824022
 21
844.0723514211868
  0
LINE
  8
_0-0_
  6
CONTINUOUS
 62
    6
 10
1377.8669056061351
 20
809.07235142118861
 11
1412.8669056061351
 21
844.07235142118861
  0
LINE
  8
_0-0_
  6
CONTINUOUS
 62
    6
 10
1392.0090412298657
 20
809.07235142118861
 11
1427.0090412298657
 21
844.07235142118861
  0
LINE
  8
_0-0_
  6
CONTINUOUS
 62
    6
 10
1406.1511768535954
 20
809.0723514211868
 11
1441.1511768535954
 21
844.07235142118861
  0
LINE
  8
_0-0_
  6
CONTINUOUS
 62
    6
 10
1420.2933124773274
 20
809.07235142118861
 11
1455.2933124773278
 21
844.07235142118861
  0
LINE
  8
_0-0_
  6
CONTINUOUS
 62
    6
 10
1434.4354481010585
 20
809.07235142118861
 11
1469.4354481010589
 21
844.07235142118861
  0
LINE
  8
_0-0_
  6
CONTINUOUS
 62
    6
 10
1448.5775837247882
 20
809.07235142118861
 11
1483.5775837247882
 21
844.0723514211868
  0
LINE
  8
_0-0_
  6
CONTINUOUS
 62
    6
 10
1462.7197193485201
 20
809.07235142118861
 11
1497.7197193485201
 21
844.07235142118861
  0
LINE
  8
_0-0_
  6
CONTINUOUS
 62
    6
 10
1476.8618549722516
 20
809.07235142118861
 11
1511.8618549722516
 21
844.07235142118861
  0
LINE
  8
_0-0_
  6
CONTINUOUS
 62
    6
 10
1491.0039905959809
 20
809.07235142118861
 11
1526.0039905959809
 21
844.07235142118861
  0
LINE
  8
_0-0_
  6
CONTINUOUS
 62
    6
 10
1505.1461262197129
 20
809.07235142118861
 11
1540.1461262197129
 21
844.07235142118861
  0
LINE
  8
_0-0_
  6
CONTINUOUS
 62
    6
 10
1498.2742537831057
 20
844.0723514211868
 11
1533.2742537831052
 21
809.07235142118861
  0
LINE
  8
_0-0_
  6
CONTINUOUS
 62
    6
 10
1484.1321181593732
 20
844.07235142118861
 11
1519.1321181593732
 21
809.07235142118861
  0
LINE
  8
_0-0_
  6
CONTINUOUS
 62
    6
 10
1469.9899825356435
 20
844.07235142118861
 11
1504.9899825356435
 21
809.07235142118861
  0
LINE
  8
_0-0_
  6
CONTINUOUS
 62
    6
 10
1455.8478469119129
 20
844.0723514211868
 11
1490.8478469119125
 21
809.07235142118861
  0
LINE
  8
_0-0_
  6
CONTINUOUS
 62
    6
 10
1441.7057112881805
 20
844.07235142118861
 11
1476.7057112881805
 21
809.07235142118861
  0
LINE
  8
_0-0_
  6
CONTINUOUS
 62
    6
 10
1427.5635756644508
 20
844.0723514211868
 11
1462.5635756644504
 21
809.0723514211868
  0
LINE
  8
_0-0_
  6
CONTINUOUS
 62
    6
 10
1413.4214400407202
 20
844.0723514211868
 11
1448.4214400407202
 21
809.0723514211868
  0
LINE
  8
_0-0_
  6
CONTINUOUS
 62
    6
 10
1399.2793044169878
 20
844.07235142118861
 11
1434.2793044169878
 21
809.07235142118861
  0
LINE
  8
_0-0_
  6
CONTINUOUS
 62
    6
 10
1385.1371687932581
 20
844.0723514211868
 11
1420.1371687932576
 21
809.0723514211868
  0
LINE
  8
_0-0_
  6
CONTINUOUS
 62
    6
 10
1370.9950331695275
 20
844.0723514211868
 11
1405.995033169527
 21
809.07235142118861
  0
LINE
  8
_0-0_
  6
CONTINUOUS
 62
    6
 10
1356.852897545795
 20
844.07235142118861
 11
1391.852897545795
 21
809.07235142118861
  0
LINE
  8
_0-0_
  6
CONTINUOUS
 62
    6
 10
1300.2843550508728
 20
844.07235142118861
 11
1335.2843550508717
 21
809.0723514211868
  0
LINE
  8
_0-0_
  6
CONTINUOUS
 62
    6
 10
1286.1422194271395
 20
844.07235142118861
 11
1321.1422194271397
 21
809.07235142118861
  0
LINE
  8
_0-0_
  6
CONTINUOUS
 62
    6
 10
1293.0140918637494
 20
809.07235142118861
 11
1328.0140918637492
 21
844.07235142118861
  0
LINE
  8
_0-0_
  6
CONTINUOUS
 62
    6
 10
1307.1562274874802
 20
809.07235142118861
 11
1342.15622748748
 21
844.07235142118861
  0
LINE
  8
_0-0_
  6
CONTINUOUS
 62
    6
 10
1314.4264906746034
 20
844.07235142118861
 11
1349.4264906746012
 21
809.07235142118861
  0
LINE
  8
_0-0_
  6
CONTINUOUS
 62
    6
 10
1328.5686262983331
 20
844.07235142118861
 11
1363.5686262983327
 21
809.07235142118861
  0
LINE
  8
_0-0_
  6
CONTINUOUS
 62
    6
 10
1342.7107619220646
 20
844.07235142118861
 11
1377.7107619220633
 21
809.07235142118861
  0
LINE
  8
_0-0_
  6
CONTINUOUS
 62
    6
 10
1335.4404987349403
 20
809.0723514211877
 11
1370.4404987349446
 21
844.07235142118861
  0
LINE
  8
_0-0_
  6
CONTINUOUS
 62
    6
 10
1321.2983631112111
 20
809.07235142118861
 11
1356.2983631112108
 21
844.07235142118861
  0
LINE
  8
_0-0_
  6
CONTINUOUS
 62
    6
 10
1533.4303974671736
 20
809.0723514211868
 11
1542.3947849653346
 21
818.03673891934795
  0
LINE
  8
_0-0_
  6
CONTINUOUS
 62
    6
 10
1526.558525030566
 20
844.07235142118861
 11
1542.3947849653343
 21
828.23609148642117
  0
LINE
  8
_0-0_
  6
CONTINUOUS
 62
    6
 10
1512.4163894068358
 20
844.07235142118861
 11
1542.3947849653346
 21
814.09395586268965
  0
LINE
  8
_0-0_
  6
CONTINUOUS
 62
    6
 10
1519.2882618434439
 20
809.07235142118861
 11
1542.3947849653343
 21
832.17887454307856
  0
LINE
  8
_0-0_
  6
CONTINUOUS
 62
    6
 10
1540.7006606542984
 20
844.07235142118861
 11
1542.3947849653346
 21
842.37822711015178
  0
LINE
  8
_0-0_
  6
CONTINUOUS
 62
    7
 10
1542.3947849653341
 20
844.13326191877331
 11
839.6547899653342
 21
844.13326191877331
  0
LINE
  8
_0-0_
  6
CONTINUOUS
 62
    7
 10
839.6547899653342
 20
687.35058838990153
 11
961.37655299662083
 21
809.07235142118861
  0
LINE
  8
_0-0_
  6
CONTINUOUS
 62
    7
 10
839.6547899653342
 20
680.27952057803668
 11
968.44762080848568
 21
809.07235142118861
  0
LINE
  8
_0-0_
  6
CONTINUOUS
 62
    7
 10
839.6547899653342
 20
673.20845276617183
 11
975.51868862035053
 21
809.07235142118861
  0
LINE
  8
_0-0_
  6
CONTINUOUS
 62
    7
 10
1005.7116334739001
 20
627.1332619187724
 11
1187.6507229763158
 21
809.07235142118861
  0
LINE
  8
_0-0_
  6
CONTINUOUS
 62
    7
 10
1012.7827012857651
 20
627.1332619187724
 11
1194.7217907881811
 21
809.07235142118861
  0
LINE
  8
_0-0_
  6
CONTINUOUS
 62
    7
 10
1019.85376909763
 20
627.1332619187724
 11
1201.792858600046
 21
809.07235142118861
  0
LINE
  8
_0-0_
  6
CONTINUOUS
 62
    7
 10
1231.9858034535966
 20
627.1332619187724
 11
1413.9248929560113
 21
809.07235142118861
  0
LINE
  8
_0-0_
  6
CONTINUOUS
 62
    7
 10
1239.0568712654606
 20
627.1332619187724
 11
1420.9959607678759
 21
809.07235142118861
  0
LINE
  8
_0-0_
  6
CONTINUOUS
 62
    7
 10
1246.127939077325
 20
627.1332619187724
 11
1428.067028579741
 21
809.07235142118861
  0
LINE
  8
_0-0_
  6
CONTINUOUS
 62
    7
 10
1458.259973433293
 20
627.1332619187724
 11
1542.3947849653341
 21
711.2680734508167
  0
LINE
  8
_0-0_
  6
CONTINUOUS
 62
    7
 10
1465.3310412451553
 20
627.1332619187724
 11
1542.3947849653341
 21
704.19700563895094
  0
LINE
  8
_0-0_
  6
CONTINUOUS
 62
    7
 10
1472.4021090570207
 20
627.1332619187724
 11
1542.3947849653341
 21
697.12593782708609
  0
LINE
  8
_0-0_
  6
CONTINUOUS
 62
    6
 10
1542.3947849653341
 20
844.07235142118861
 11
839.65478996533488
 21
844.07235142118861
  0
LINE
  8
_0-0_
  6
CONTINUOUS
 62
    6
 10
839.65478996533488
 20
809.07235142118861
 11
1542.3947849653346
 21
809.07235142118861
  0
LINE
  8
_0-0_
  6
CONTINUOUS
 62
    1
 10
879.6078875280889
 20
850.07235142118861
 11
909.60788752808912
 21
850.07235142118861
  0
LINE
  8
_0-0_
  6
CONTINUOUS
 62
    1
 10
909.60788752808912
 20
850.32235142118861
 11
879.6078875280889
 21
850.32235142118861
  0
LINE
  8
_0-0_
  6
CENTER2
 62
    1
 10
894.60788752808912
 20
856.48727067243908
 11
894.60788752808912
 21
774.14735814435608
  0
LINE
  8
_0-0_
  6
CONTINUOUS
 62
    1
 10
895.71090199746686
 20
782.07235142118861
 11
898.69948609174253
 21
782.33381864943112
  0
LINE
  8
_0-0_
  6
CONTINUOUS
 62
    1
 10
895.57966900217798
 20
783.57235142118861
 11
898.56825309645365
 21
783.83381864943112
  0
LINE
  8
_0-0_
  6
CONTINUOUS
 62
    1
 10
895.4484360068891
 20
785.07235142118861
 11
898.43702010116476
 21
785.33381864943112
  0
LINE
  8
_0-0_
  6
CONTINUOUS
 62
    1
 10
895.31720301160021
 20
786.57235142118861
 11
898.30578710587588
 21
786.83381864943112
  0
LINE
  8
_0-0_
  6
CONTINUOUS
 62
    1
 10
895.18597001631133
 20
788.07235142118861
 11
898.174554110587
 21
788.33381864943112
  0
LINE
  8
_0-0_
  6
CONTINUOUS
 62
    1
 10
895.05473702102245
 20
789.57235142118861
 11
898.04332111529766
 21
789.83381864943112
  0
LINE
  8
_0-0_
  6
CONTINUOUS
 62
    1
 10
894.92350402573356
 20
791.07235142118861
 11
897.91208812000878
 21
791.33381864943112
  0
LINE
  8
_0-0_
  6
CONTINUOUS
 62
    1
 10
894.79227103044468
 20
792.57235142118861
 11
897.78085512471989
 21
792.83381864943112
  0
LINE
  8
_0-0_
  6
CONTINUOUS
 62
    1
 10
894.85788752808912
 20
791.82235142118861
 11
895.81660069831378
 21
780.8642097421789
  0
LINE
  8
_0-0_
  6
CONTINUOUS
 62
    1
 10
894.79227103044468
 20
792.57235142118861
 11
894.42350402573334
 21
792.57235142118861
  0
LINE
  8
_0-0_
  6
CONTINUOUS
 62
    1
 10
894.85788752808912
 20
791.82235142118861
 11
894.3578875280889
 21
791.82235142118861
  0
LINE
  8
_0-0_
  6
CONTINUOUS
 62
    1
 10
893.50487305871115
 20
782.07235142118861
 11
890.51628896443594
 21
782.33381864943112
  0
LINE
  8
_0-0_
  6
CONTINUOUS
 62
    1
 10
893.63610605400004
 20
783.57235142118861
 11
890.64752195972483
 21
783.83381864943112
  0
LINE
  8
_0-0_
  6
CONTINUOUS
 62
    1
 10
893.76733904928892
 20
785.07235142118861
 11
890.77875495501371
 21
785.33381864943112
  0
LINE
  8
_0-0_
  6
CONTINUOUS
 62
    1
 10
893.8985720445778
 20
786.57235142118861
 11
890.90998795030259
 21
786.83381864943112
  0
LINE
  8
_0-0_
  6
CONTINUOUS
 62
    1
 10
894.02980503986669
 20
788.07235142118861
 11
891.04122094559148
 21
788.33381864943112
  0
LINE
  8
_0-0_
  6
CONTINUOUS
 62
    1
 10
894.16103803515557
 20
789.57235142118861
 11
891.17245394088036
 21
789.83381864943112
  0
LINE
  8
_0-0_
  6
CONTINUOUS
 62
    1
 10
894.29227103044445
 20
791.07235142118861
 11
891.30368693616924
 21
791.33381864943112
  0
LINE
  8
_0-0_
  6
CONTINUOUS
 62
    1
 10
894.42350402573334
 20
792.57235142118861
 11
891.43491993145813
 21
792.83381864943112
  0
LINE
  8
_0-0_
  6
CONTINUOUS
 62
    1
 10
894.3578875280889
 20
791.82235142118861
 11
893.39917435786515
 21
780.8642097421789
  0
LINE
  8
_0-0_
  6
CONTINUOUS
 62
    1
 10
891.6078875280889
 20
818.67771137771251
 11
891.6078875280889
 21
794.8108473256043
  0
LINE
  8
_0-0_
  6
CONTINUOUS
 62
    1
 10
891.6078875280889
 20
794.8108473256043
 11
890.41059026358994
 21
781.12567697042232
  0
LINE
  8
_0-0_
  6
CONTINUOUS
 62
    1
 10
897.60788752808912
 20
794.8108473256043
 11
898.80518479258899
 21
781.12567697042232
  0
LINE
  8
_0-0_
  6
CONTINUOUS
 62
    1
 10
893.39917435786515
 20
780.8642097421789
 11
890.41059026358994
 21
781.12567697042232
  0
LINE
  8
_0-0_
  6
CONTINUOUS
 62
    1
 10
895.81660069831378
 20
780.8642097421789
 11
898.80518479258899
 21
781.12567697042232
  0
LINE
  8
_0-0_
  6
CONTINUOUS
 62
    1
 10
894.60788752808912
 20
780.57235142118861
 11
893.1078875280889
 21
783.17042763254085
  0
LINE
  8
_0-0_
  6
CONTINUOUS
 62
    1
 10
894.60788752808912
 20
780.57235142118861
 11
896.10788752808912
 21
783.17042763254085
  0
LINE
  8
_0-0_
  6
CONTINUOUS
 62
    1
 10
891.6078875280889
 20
818.67771137771251
 11
891.6078875280889
 21
848.67771137771251
  0
LINE
  8
_0-0_
  6
CONTINUOUS
 62
    1
 10
879.6078875280889
 20
850.32235142118861
 11
879.6078875280889
 21
850.07235142118861
  0
LINE
  8
_0-0_
  6
CONTINUOUS
 62
    1
 10
908.60788752808912
 20
850.07235142118861
 11
908.35788752808912
 21
849.82235142118861
  0
LINE
  8
_0-0_
  6
CONTINUOUS
 62
    1
 10
908.35788752808912
 20
849.82235142118861
 11
880.8578875280889
 21
849.82235142118861
  0
LINE
  8
_0-0_
  6
CONTINUOUS
 62
    1
 10
880.6078875280889
 20
850.07235142118861
 11
880.8578875280889
 21
849.82235142118861
  0
LINE
  8
_0-0_
  6
CONTINUOUS
 62
    1
 10
909.60788752808912
 20
850.32235142118861
 11
909.60788752808912
 21
850.07235142118861
  0
LINE
  8
_0-0_
  6
CONTINUOUS
 62
    1
 10
897.60788752808912
 20
848.67771137771251
 11
891.6078875280889
 21
848.67771137771251
  0
LINE
  8
_0-0_
  6
CONTINUOUS
 62
    1
 10
888.6078875280889
 20
850.32235142118861
 11
888.8578875280889
 21
850.57235142118861
  0
LINE
  8
_0-0_
  6
CONTINUOUS
 62
    1
 10
888.8578875280889
 20
850.57235142118861
 11
900.35788752808912
 21
850.57235142118861
  0
LINE
  8
_0-0_
  6
CONTINUOUS
 62
    1
 10
900.60788752808912
 20
850.32235142118861
 11
900.35788752808912
 21
850.57235142118861
  0
LINE
  8
_0-0_
  6
CONTINUOUS
 62
    1
 10
891.6078875280889
 20
848.67771137771251
 11
890.4632474846137
 21
849.82235142118861
  0
LINE
  8
_0-0_
  6
CONTINUOUS
 62
    1
 10
897.60788752808912
 20
848.67771137771251
 11
898.75252757156522
 21
849.82235142118861
  0
LINE
  8
_0-0_
  6
CONTINUOUS
 62
    1
 10
893.1078875280889
 20
850.57235142118816
 11
893.1078875280889
 21
850.57235142118816
  0
LINE
  8
_0-0_
  6
CONTINUOUS
 62
    1
 10
893.1078875280889
 20
850.57235142118816
 11
892.59899020013484
 21
850.90289514636856
  0
LINE
  8
_0-0_
  6
CONTINUOUS
 62
    1
 10
896.6167848560433
 20
850.90289514636856
 11
896.6167848560433
 21
850.90289514636856
  0
LINE
  8
_0-0_
  6
CONTINUOUS
 62
    1
 10
896.6167848560433
 20
850.90289514636856
 11
896.10788752808912
 21
850.57235142118816
  0
LINE
  8
_0-0_
  6
CONTINUOUS
 62
    1
 10
896.61678485604318
 20
850.90289514636856
 11
896.61678485604318
 21
850.90289514636856
  0
LINE
  8
_0-0_
  6
CONTINUOUS
 62
    1
 10
896.61678485604318
 20
850.90289514636856
 11
896.4103028118609
 21
850.97699440118618
  0
LINE
  8
_0-0_
  6
CONTINUOUS
 62
    1
 10
896.4103028118609
 20
850.97699440118618
 11
896.14905529134739
 21
851.04200009278009
  0
LINE
  8
_0-0_
  6
CONTINUOUS
 62
    1
 10
896.14905529134739
 20
851.04200009278009
 11
895.84098016821588
 21
851.09593705610564
  0
LINE
  8
_0-0_
  6
CONTINUOUS
 62
    1
 10
895.84098016821588
 20
851.09593705610564
 11
895.495438149189
 21
851.13716644382566
  0
LINE
  8
_0-0_
  6
CONTINUOUS
 62
    1
 10
895.495438149189
 20
851.13716644382566
 11
895.12292835366236
 21
851.16443552185729
  0
LINE
  8
_0-0_
  6
CONTINUOUS
 62
    1
 10
895.12292835366236
 20
851.16443552185729
 11
894.73476930327388
 21
851.17691573306342
  0
LINE
  8
_0-0_
  6
CONTINUOUS
 62
    1
 10
894.73476930327388
 20
851.17691573306342
 11
894.34275501435172
 21
851.17422787254168
  0
LINE
  8
_0-0_
  6
CONTINUOUS
 62
    1
 10
894.34275501435172
 20
851.17422787254168
 11
893.95879664269592
 21
851.15645360957421
  0
LINE
  8
_0-0_
  6
CONTINUOUS
 62
    1
 10
893.95879664269592
 20
851.15645360957421
 11
893.594560569137
 21
851.12413300614674
  0
LINE
  8
_0-0_
  6
CONTINUOUS
 62
    1
 10
893.594560569137
 20
851.12413300614674
 11
893.26111392245753
 21
851.07824810743955
  0
LINE
  8
_0-0_
  6
CONTINUOUS
 62
    1
 10
893.26111392245753
 20
851.07824810743955
 11
892.96858831028499
 21
851.02019310288108
  0
LINE
  8
_0-0_
  6
CONTINUOUS
 62
    1
 10
892.96858831028499
 20
851.02019310288108
 11
892.72587197531993
 21
850.95173196440737
  0
LINE
  8
_0-0_
  6
CONTINUOUS
 62
    1
 10
892.72587197531993
 20
850.95173196440737
 11
892.59899020013518
 21
850.90289514636856
  0
LINE
  8
_0-0_
  6
CONTINUOUS
 62
    1
 10
897.60788752808912
 20
848.67771137771251
 11
897.60788752808912
 21
794.8108473256043
  0
LINE
  8
_0-0_
  6
DASHED1
 62
    1
 10
893.1078875280889
 20
850.57235142118861
 11
893.1078875280889
 21
783.17042763254085
  0
LINE
  8
_0-0_
  6
DASHED1
 62
    1
 10
896.10788752808912
 20
850.57235142118861
 11
896.10788752808912
 21
783.17042763254085
  0
LINE
  8
_0-0_
  6
CONTINUOUS
 62
    1
 10
899.60788752808912
 20
809.07235142118861
 11
889.6078875280889
 21
809.07235142118861
  0
LINE
  8
_0-0_
  6
CONTINUOUS
 62
    1
 10
889.6078875280889
 20
809.07235142118861
 11
889.6078875280889
 21
844.07235142118861
  0
LINE
  8
_0-0_
  6
CONTINUOUS
 62
    1
 10
889.6078875280889
 20
844.07235142118861
 11
899.60788752808912
 21
844.07235142118861
  0
LINE
  8
_0-0_
  6
CONTINUOUS
 62
    1
 10
899.60788752808912
 20
844.07235142118861
 11
899.60788752808912
 21
809.07235142118861
  0
LINE
  8
_0-0_
  6
CONTINUOUS
 62
    1
 10
890.6078875280889
 20
809.07235142118861
 11
890.6078875280889
 21
844.07235142118861
  0
LINE
  8
_0-0_
  6
CONTINUOUS
 62
    1
 10
898.60788752808912
 20
844.07235142118861
 11
898.60788752808912
 21
809.07235142118861
  0
LINE
  8
_0-0_
  6
CONTINUOUS
 62
    1
 10
1487.7197193485201
 20
850.07235142118861
 11
1517.7197193485201
 21
850.07235142118861
  0
LINE
  8
_0-0_
  6
CONTINUOUS
 62
    1
 10
1517.7197193485201
 20
850.32235142118861
 11
1487.7197193485201
 21
850.32235142118861
  0
LINE
  8
_0-0_
  6
CENTER2
 62
    1
 10
1502.7197193485201
 20
856.48727067243908
 11
1502.7197193485201
 21
774.14735814435608
  0
LINE
  8
_0-0_
  6
CONTINUOUS
 62
    1
 10
1503.8227338178979
 20
782.07235142118861
 11
1506.8113179121735
 21
782.33381864943112
  0
LINE
  8
_0-0_
  6
CONTINUOUS
 62
    1
 10
1503.691500822609
 20
783.57235142118861
 11
1506.6800849168847
 21
783.83381864943112
  0
LINE
  8
_0-0_
  6
CONTINUOUS
 62
    1
 10
1503.5602678273201
 20
785.07235142118861
 11
1506.5488519215958
 21
785.33381864943112
  0
LINE
  8
_0-0_
  6
CONTINUOUS
 62
    1
 10
1503.4290348320312
 20
786.57235142118861
 11
1506.4176189263069
 21
786.83381864943112
  0
LINE
  8
_0-0_
  6
CONTINUOUS
 62
    1
 10
1503.2978018367423
 20
788.07235142118861
 11
1506.286385931018
 21
788.33381864943112
  0
LINE
  8
_0-0_
  6
CONTINUOUS
 62
    1
 10
1503.1665688414535
 20
789.57235142118861
 11
1506.1551529357287
 21
789.83381864943112
  0
LINE
  8
_0-0_
  6
CONTINUOUS
 62
    1
 10
1503.0353358461646
 20
791.07235142118861
 11
1506.0239199404398
 21
791.33381864943112
  0
LINE
  8
_0-0_
  6
CONTINUOUS
 62
    1
 10
1502.9041028508757
 20
792.57235142118861
 11
1505.8926869451509
 21
792.83381864943112
  0
LINE
  8
_0-0_
  6
CONTINUOUS
 62
    1
 10
1502.9697193485201
 20
791.82235142118861
 11
1503.9284325187448
 21
780.8642097421789
  0
LINE
  8
_0-0_
  6
CONTINUOUS
 62
    1
 10
1502.9041028508757
 20
792.57235142118861
 11
1502.5353358461646
 21
792.57235142118861
  0
LINE
  8
_0-0_
  6
CONTINUOUS
 62
    1
 10
1502.9697193485201
 20
791.82235142118861
 11
1502.4697193485201
 21
791.82235142118861
  0
LINE
  8
_0-0_
  6
CONTINUOUS
 62
    1
 10
1501.6167048791424
 20
782.07235142118861
 11
1498.6281207848672
 21
782.33381864943112
  0
LINE
  8
_0-0_
  6
CONTINUOUS
 62
    1
 10
1501.7479378744313
 20
783.57235142118861
 11
1498.7593537801561
 21
783.83381864943112
  0
LINE
  8
_0-0_
  6
CONTINUOUS
 62
    1
 10
1501.8791708697202
 20
785.07235142118861
 11
1498.8905867754449
 21
785.33381864943112
  0
LINE
  8
_0-0_
  6
CONTINUOUS
 62
    1
 10
1502.010403865009
 20
786.57235142118861
 11
1499.0218197707338
 21
786.83381864943112
  0
LINE
  8
_0-0_
  6
CONTINUOUS
 62
    1
 10
1502.1416368602979
 20
788.07235142118861
 11
1499.1530527660227
 21
788.33381864943112
  0
LINE
  8
_0-0_
  6
CONTINUOUS
 62
    1
 10
1502.2728698555868
 20
789.57235142118861
 11
1499.2842857613116
 21
789.83381864943112
  0
LINE
  8
_0-0_
  6
CONTINUOUS
 62
    1
 10
1502.4041028508757
 20
791.07235142118861
 11
1499.4155187566005
 21
791.33381864943112
  0
LINE
  8
_0-0_
  6
CONTINUOUS
 62
    1
 10
1502.5353358461646
 20
792.57235142118861
 11
1499.5467517518894
 21
792.83381864943112
  0
LINE
  8
_0-0_
  6
CONTINUOUS
 62
    1
 10
1502.4697193485201
 20
791.82235142118861
 11
1501.5110061782964
 21
780.8642097421789
  0
LINE
  8
_0-0_
  6
CONTINUOUS
 62
    1
 10
1499.7197193485201
 20
818.67771137771251
 11
1499.7197193485201
 21
794.8108473256043
  0
LINE
  8
_0-0_
  6
CONTINUOUS
 62
    1
 10
1499.7197193485201
 20
794.8108473256043
 11
1498.5224220840212
 21
781.12567697042232
  0
LINE
  8
_0-0_
  6
CONTINUOUS
 62
    1
 10
1505.7197193485201
 20
794.8108473256043
 11
1506.91701661302
 21
781.12567697042232
  0
LINE
  8
_0-0_
  6
CONTINUOUS
 62
    1
 10
1501.5110061782964
 20
780.8642097421789
 11
1498.5224220840212
 21
781.12567697042232
  0
LINE
  8
_0-0_
  6
CONTINUOUS
 62
    1
 10
1503.9284325187448
 20
780.8642097421789
 11
1506.91701661302
 21
781.12567697042232
  0
LINE
  8
_0-0_
  6
CONTINUOUS
 62
    1
 10
1502.7197193485201
 20
780.57235142118861
 11
1501.2197193485201
 21
783.17042763254085
  0
LINE
  8
_0-0_
  6
CONTINUOUS
 62
    1
 10
1502.7197193485201
 20
780.57235142118861
 11
1504.2197193485201
 21
783.17042763254085
  0
LINE
  8
_0-0_
  6
CONTINUOUS
 62
    1
 10
1499.7197193485201
 20
818.67771137771251
 11
1499.7197193485201
 21
848.67771137771251
  0
LINE
  8
_0-0_
  6
CONTINUOUS
 62
    1
 10
1487.7197193485201
 20
850.32235142118861
 11
1487.7197193485201
 21
850.07235142118861
  0
LINE
  8
_0-0_
  6
CONTINUOUS
 62
    1
 10
1516.7197193485201
 20
850.07235142118861
 11
1516.4697193485201
 21
849.82235142118861
  0
LINE
  8
_0-0_
  6
CONTINUOUS
 62
    1
 10
1516.4697193485201
 20
849.82235142118861
 11
1488.9697193485201
 21
849.82235142118861
  0
LINE
  8
_0-0_
  6
CONTINUOUS
 62
    1
 10
1488.7197193485201
 20
850.07235142118861
 11
1488.9697193485201
 21
849.82235142118861
  0
LINE
  8
_0-0_
  6
CONTINUOUS
 62
    1
 10
1517.7197193485201
 20
850.32235142118861
 11
1517.7197193485201
 21
850.07235142118861
  0
LINE
  8
_0-0_
  6
CONTINUOUS
 62
    1
 10
1505.7197193485201
 20
848.67771137771251
 11
1499.7197193485201
 21
848.67771137771251
  0
LINE
  8
_0-0_
  6
CONTINUOUS
 62
    1
 10
1496.7197193485201
 20
850.32235142118861
 11
1496.9697193485201
 21
850.57235142118861
  0
LINE
  8
_0-0_
  6
CONTINUOUS
 62
    1
 10
1496.9697193485201
 20
850.57235142118861
 11
1508.4697193485201
 21
850.57235142118861
  0
LINE
  8
_0-0_
  6
CONTINUOUS
 62
    1
 10
1508.7197193485201
 20
850.32235142118861
 11
1508.4697193485201
 21
850.57235142118861
  0
LINE
  8
_0-0_
  6
CONTINUOUS
 62
    1
 10
1499.7197193485201
 20
848.67771137771251
 11
1498.5750793050449
 21
849.82235142118861
  0
LINE
  8
_0-0_
  6
CONTINUOUS
 62
    1
 10
1505.7197193485201
 20
848.67771137771251
 11
1506.8643593919962
 21
849.82235142118861
  0
LINE
  8
_0-0_
  6
CONTINUOUS
 62
    1
 10
1501.2197193485201
 20
850.57235142118816
 11
1501.2197193485201
 21
850.57235142118816
  0
LINE
  8
_0-0_
  6
CONTINUOUS
 62
    1
 10
1501.2197193485201
 20
850.57235142118816
 11
1500.710822020566
 21
850.90289514636856
  0
LINE
  8
_0-0_
  6
CONTINUOUS
 62
    1
 10
1504.7286166764743
 20
850.90289514636856
 11
1504.7286166764743
 21
850.90289514636856
  0
LINE
  8
_0-0_
  6
CONTINUOUS
 62
    1
 10
1504.7286166764743
 20
850.90289514636856
 11
1504.2197193485201
 21
850.57235142118816
  0
LINE
  8
_0-0_
  6
CONTINUOUS
 62
    1
 10
1504.7286166764741
 20
850.90289514636856
 11
1504.7286166764741
 21
850.90289514636856
  0
LINE
  8
_0-0_
  6
CONTINUOUS
 62
    1
 10
1504.7286166764741
 20
850.90289514636856
 11
1504.5221346322919
 21
850.97699440118618
  0
LINE
  8
_0-0_
  6
CONTINUOUS
 62
    1
 10
1504.5221346322919
 20
850.97699440118618
 11
1504.2608871117784
 21
851.04200009278009
  0
LINE
  8
_0-0_
  6
CONTINUOUS
 62
    1
 10
1504.2608871117784
 20
851.04200009278009
 11
1503.952811988647
 21
851.09593705610564
  0
LINE
  8
_0-0_
  6
CONTINUOUS
 62
    1
 10
1503.952811988647
 20
851.09593705610564
 11
1503.6072699696201
 21
851.13716644382566
  0
LINE
  8
_0-0_
  6
CONTINUOUS
 62
    1
 10
1503.6072699696201
 20
851.13716644382566
 11
1503.2347601740935
 21
851.16443552185729
  0
LINE
  8
_0-0_
  6
CONTINUOUS
 62
    1
 10
1503.2347601740935
 20
851.16443552185729
 11
1502.8466011237049
 21
851.17691573306342
  0
LINE
  8
_0-0_
  6
CONTINUOUS
 62
    1
 10
1502.8466011237049
 20
851.17691573306342
 11
1502.4545868347827
 21
851.17422787254168
  0
LINE
  8
_0-0_
  6
CONTINUOUS
 62
    1
 10
1502.4545868347827
 20
851.17422787254168
 11
1502.0706284631269
 21
851.15645360957421
  0
LINE
  8
_0-0_
  6
CONTINUOUS
 62
    1
 10
1502.0706284631269
 20
851.15645360957421
 11
1501.706392389568
 21
851.12413300614674
  0
LINE
  8
_0-0_
  6
CONTINUOUS
 62
    1
 10
1501.706392389568
 20
851.12413300614674
 11
1501.3729457428885
 21
851.07824810743955
  0
LINE
  8
_0-0_
  6
CONTINUOUS
 62
    1
 10
1501.3729457428885
 20
851.07824810743955
 11
1501.080420130716
 21
851.02019310288108
  0
LINE
  8
_0-0_
  6
CONTINUOUS
 62
    1
 10
1501.080420130716
 20
851.02019310288108
 11
1500.8377037957509
 21
850.95173196440737
  0
LINE
  8
_0-0_
  6
CONTINUOUS
 62
    1
 10
1500.8377037957509
 20
850.95173196440737
 11
1500.7108220205662
 21
850.90289514636856
  0
LINE
  8
_0-0_
  6
CONTINUOUS
 62
    1
 10
1505.7197193485201
 20
848.67771137771251
 11
1505.7197193485201
 21
794.8108473256043
  0
LINE
  8
_0-0_
  6
DASHED1
 62
    1
 10
1501.2197193485201
 20
850.57235142118861
 11
1501.2197193485201
 21
783.17042763254085
  0
LINE
  8
_0-0_
  6
DASHED1
 62
    1
 10
1504.2197193485201
 20
850.57235142118861
 11
1504.2197193485201
 21
783.17042763254085
  0
LINE
  8
_0-0_
  6
CONTINUOUS
 62
    1
 10
1507.7197193485201
 20
809.07235142118861
 11
1497.7197193485201
 21
809.07235142118861
  0
LINE
  8
_0-0_
  6
CONTINUOUS
 62
    1
 10
1497.7197193485201
 20
809.07235142118861
 11
1497.7197193485201
 21
844.07235142118861
  0
LINE
  8
_0-0_
  6
CONTINUOUS
 62
    1
 10
1497.7197193485201
 20
844.07235142118861
 11
1507.7197193485201
 21
844.07235142118861
  0
LINE
  8
_0-0_
  6
CONTINUOUS
 62
    1
 10
1507.7197193485201
 20
844.07235142118861
 11
1507.7197193485201
 21
809.07235142118861
  0
LINE
  8
_0-0_
  6
CONTINUOUS
 62
    1
 10
1498.7197193485201
 20
809.07235142118861
 11
1498.7197193485201
 21
844.07235142118861
  0
LINE
  8
_0-0_
  6
CONTINUOUS
 62
    1
 10
1506.7197193485201
 20
844.07235142118861
 11
1506.7197193485201
 21
809.07235142118861
  0
LINE
  8
_0-0_
  6
CONTINUOUS
 62
    7
 10
672.13606690525205
 20
1633.3565543671132
 11
1706.8525777203677
 21
1633.3565543671132
  0
LINE
  8
_0-0_
  6
CONTINUOUS
 62
    7
 10
672.13606690525205
 20
1553.3565543671132
 11
1706.8525777203677
 21
1553.3565543671132
  0
LINE
  8
_0-0_
  6
CONTINUOUS
 62
    7
 10
672.13606690525205
 20
1473.3565543671132
 11
1706.8525777203677
 21
1473.3565543671132
  0
LINE
  8
_0-0_
  6
CONTINUOUS
 62
    7
 10
1189.4943223128093
 20
1633.3565543671132
 11
1189.4943223128093
 21
1473.3565543671132
  0
TEXT
  8
_0-0_
 62
    7
 10
1213.4943223128093
 20
1577.3565543671132
 40
20
 41
1
 50
0
  1
構造：ＲＣ造
  0
TEXT
  8
_0-0_
 62
    7
 10
1213.4943223128093
 20
1497.3565543671132
 40
20
 41
1
 50
0
  1
下地：コンクリートスラブ
  0
TEXT
  8
_0-0_
 62
    7
 10
696.13606690525205
 20
1577.3565543671132
 40
20
 41
1
 50
0
  1
図面番号：dan-kikai-SP-kiso-01
  0
TEXT
  8
_0-0_
 62
    7
 10
696.13606690525205
 20
1497.3565543671132
 40
20
 41
1
 50
0
  1
施工部位：基礎・架台(置き基礎)
  0
ENDSEC
  0
EOF
