  0
SECTION
  2
HEADER
  9
$ACADVER
  1
AC1009
  9
$INSBASE
 10
0
 20
0
 30
0
  9
$EXTMIN
 10
0
 20
0
  9
$EXTMAX
 10
2378
 20
1682
  9
$LIMMIN
 10
0
 20
0
  9
$LIMMAX
 10
2378
 20
1682
  9
$LTSCALE
 40
1
  0
ENDSEC
  0
SECTION
  2
TABLES
  0
TABLE
  2
LTYPE
 70
     9
  0
LTYPE
  2
CONTINUOUS
 70
    64
  3
実線
 72
    65
 73
     0
 40
0.0
  0
LTYPE
  2
DASHED1
 70
    64
  3
--  --  --  --  --  --  --  --  
 72
    65
 73
     2
 40
2.5
 49
1.25
 49
-1.25
  0
LTYPE
  2
DASHED2
 70
    64
  3
----    ----    ----    ----    
 72
    65
 73
     2
 40
5.0
 49
2.5
 49
-2.5
  0
LTYPE
  2
DASHED3
 70
    64
  3
------  ------  ------  ------  
 72
    65
 73
     2
 40
5.0
 49
3.75
 49
-1.25
  0
LTYPE
  2
CENTER1
 70
    64
  3
----- - ----- - ----- - ----- - 
 72
    65
 73
     4
 40
10.0
 49
6.25
 49
-1.25
 49
1.25
 49
-1.25
  0
LTYPE
  2
CENTER2
 70
    64
  3
----------  --  ----------  --  
 72
    65
 73
     4
 40
20.0
 49
12.5
 49
-2.5
 49
2.5
 49
-2.5
  0
LTYPE
  2
PHANTOM1
 70
    64
  3
--- - - --- - - --- - - --- - - 
 72
    65
 73
     6
 40
10.0
 49
3.25
 49
-1.25
 49
1.25
 49
-1.25
 49
1.25
 49
-1.25
  0
LTYPE
  2
PHANTOM2
 70
    64
  3
--------  -  -  --------  -  -  
 72
    65
 73
     6
 40
20.0
 49
10.0
 49
-2.5
 49
1.25
 49
-2.5
 49
1.25
 49
-2.5
  0
LTYPE
  2
DOT
 70
    64
  3
-   -   -   -   -   -   -   -   
 72
    65
 73
     2
 40
2.5
 49
0.625
 49
-1.875
  0
LTYPE
  2
DUMMY
 70
    64
  3
ダミー
 72
    65
 73
     0
 40
0.0
  0
LTYPE
  2
RAND1
 70
    64
  3
ランダム線1
 72
    65
 73
     4
 40
10.0
 49
1.0
 49
-2.0
 49
3.0
 49
-4.0
  0
LTYPE
  2
RAND2
 70
    64
  3
ランダム線2
 72
    65
 73
     4
 40
14.0
 49
2.0
 49
-3.0
 49
4.0
 49
-5.0
  0
LTYPE
  2
RAND3
 70
    64
  3
ランダム線3
 72
    65
 73
     4
 40
18.0
 49
3.0
 49
-4.0
 49
5.0
 49
-6.0
  0
LTYPE
  2
RAND4
 70
    64
  3
ランダム線4
 72
    65
 73
     4
 40
22.0
 49
4.0
 49
-5.0
 49
6.0
 49
-7.0
  0
LTYPE
  2
RAND5
 70
    64
  3
ランダム線5
 72
    65
 73
     4
 40
26.0
 49
5.0
 49
-6.0
 49
7.0
 49
-8.0
  0
LTYPE
  2
LONG1
 70
    64
  3
----------  --  ----------  --  
 72
    65
 73
     4
 40
40.0
 49
32.5
 49
-2.5
 49
2.5
 49
-2.5
  0
LTYPE
  2
LONG2
 70
    64
  3
--------  -  -  --------  -  -  
 72
    65
 73
     6
 40
40.0
 49
30.0
 49
-2.5
 49
1.25
 49
-2.5
 49
1.25
 49
-2.5
  0
LTYPE
  2
LONG3
 70
    64
  3
+++++++++++++++..+++++++++++++++
 72
    65
 73
     2
 40
40.0
 49
37.5
 49
-2.5
  0
LTYPE
  2
LONG4
 70
    64
  3
+++++++++++++++..+++++++++++++++
 72
    65
 73
     2
 40
80.0
 49
75.0
 49
-5.0
  0
LTYPE
  2
LONG5
 70
    64
  3
----------  --  ----------  --  
 72
    65
 73
     4
 40
60.0
 49
37.5
 49
-7.5
 49
7.5
 49
-7.5
  0
LTYPE
  2
dashed
 70
   64
  3
-------   -------------   ------
 72
   65
 73
    2
 40
7.5
 49
6
 49
-1.5
  0
LTYPE
  2
dashed_spaced
 70
   64
  3
----        --------        ----
 72
   65
 73
    2
 40
12
 49
6
 49
-6
  0
LTYPE
  2
long_dashed_dotted
 70
   64
  3
------------- --- --------------
 72
   65
 73
    4
 40
15.25
 49
12
 49
-1.5
 49
0.25
 49
-1.5
  0
LTYPE
  2
long_dashed_double-dotted
 70
   64
  3
----------- --- --- ------------
 72
   65
 73
    6
 40
17
 49
12
 49
-1.5
 49
0.25
 49
-1.5
 49
0.25
 49
-1.5
  0
LTYPE
  2
long_dashed_triplicate-dotted
 70
   64
  3
--------- --- --- --- ----------
 72
   65
 73
    8
 40
18.75
 49
12
 49
-1.5
 49
0.25
 49
-1.5
 49
0.25
 49
-1.5
 49
0.25
 49
-1.5
  0
LTYPE
  2
dotted
 70
   64
  3
   -       -       -       -    
 72
   65
 73
    2
 40
1.75
 49
0.25
 49
-1.5
  0
LTYPE
  2
chain
 70
   64
  3
-------------- -- --------------
 72
   65
 73
    4
 40
18.5
 49
12
 49
-1.5
 49
3.5
 49
-1.5
  0
LTYPE
  2
chain_double_dash
 70
   64
  3
------------ -- -- -------------
 72
   65
 73
    6
 40
23.5
 49
12
 49
-1.5
 49
3.5
 49
-1.5
 49
3.5
 49
-1.5
  0
LTYPE
  2
dashed_dotted
 70
   64
  3
-----------     -     ----------
 72
   65
 73
    4
 40
9.25
 49
6
 49
-1.5
 49
0.25
 49
-1.5
  0
LTYPE
  2
double-dashed_dotted
 70
   64
  3
------   -----------   -   -----
 72
   65
 73
    6
 40
16.75
 49
6
 49
-1.5
 49
6
 49
-1.5
 49
0.25
 49
-1.5
  0
LTYPE
  2
dashed_double-dotted
 70
   64
  3
---------    -    -    ---------
 72
   65
 73
    6
 40
11
 49
6
 49
-1.5
 49
0.25
 49
-1.5
 49
0.25
 49
-1.5
  0
LTYPE
  2
double-dashed_double-dotted
 70
   64
  3
-----   ---------   -   -   ----
 72
   65
 73
    8
 40
18.5
 49
6
 49
-1.5
 49
6
 49
-1.5
 49
0.25
 49
-1.5
 49
0.25
 49
-1.5
  0
LTYPE
  2
dashed_triplicate-dotted
 70
   64
  3
-------    -    -    -    ------
 72
   65
 73
    8
 40
12.75
 49
6
 49
-1.5
 49
0.25
 49
-1.5
 49
0.25
 49
-1.5
 49
0.25
 49
-1.5
  0
LTYPE
  2
double-dashed_triplicate-dotted
 70
   64
  3
-----  ---------  -  -  -  -----
 72
   65
 73
   10
 40
20.25
 49
6
 49
-1.5
 49
6
 49
-1.5
 49
0.25
 49
-1.5
 49
0.25
 49
-1.5
 49
0.25
 49
-1.5
  0
LTYPE
  2
undefined
 70
   64
  3
--------------------------------
 72
   65
 73
    0
 40
0
  0
ENDTAB
  0
TABLE
  2
STYLE
  5
3
100
AcDbSymbolTable
 70
     1
  0
STYLE
  5
10
100
AcDbSymbolTableRecord
100
AcDbTextStyleTableRecord
  2
STANDARD
 70
     0
 40
0.0
 41
1.0
 50
0.0
 71
     0
 42
0.2
  3
txt
  4
bigfont.shx
  0
STYLE
  5
26
100
AcDbSymbolTableRecord
100
AcDbTextStyleTableRecord
  2
TATEGAKI
 70
    68
 40
0.0
 41
1.0
 50
0.0
 71
     0
 42
1.0
  3
txt
  4
bigfont.shx
  0
ENDTAB
  0
TABLE
  2
LAYER
 70
    2
  0
LAYER
  2
_0-0_
 70
   64
 62
    7
  6
CONTINUOUS
  0
LAYER
  2
ADD_LINE
 70
   64
 62
    7
  6
CONTINUOUS
  0
ENDTAB
  0
ENDSEC
  0
SECTION
  2
BLOCKS
  0
ENDSEC
  0
SECTION
  2
ENTITIES
  0
LINE
  8
_0-0_
  6
CONTINUOUS
 62
    7
 10
1023.925499156113
 20
1204.9922480620155
 11
1023.925499156113
 21
1434.4326702173551
  0
LINE
  8
_0-0_
  6
CONTINUOUS
 62
    7
 10
1023.925499156113
 20
1015.9922480620155
 11
1523.9254991561129
 21
1015.9922480620155
  0
LINE
  8
_0-0_
  6
CONTINUOUS
 62
    7
 10
672.13606690525205
 20
567.53106997205509
 11
1706.8525777203677
 21
567.53106997205509
  0
LINE
  8
_0-0_
  6
CONTINUOUS
 62
    7
 10
672.13606690525205
 20
167.53106997205509
 11
1706.8525777203677
 21
167.53106997205509
  0
LINE
  8
_0-0_
  6
CONTINUOUS
 62
    7
 10
672.13606690525205
 20
627.53106997205509
 11
1706.8525777203677
 21
627.53106997205509
  0
LINE
  8
_0-0_
  6
CONTINUOUS
 62
    7
 10
1189.4943223128103
 20
627.53106997205509
 11
1189.4943223128103
 21
167.53106997205509
  0
LINE
  8
_0-0_
  6
CONTINUOUS
 62
    7
 10
672.13606690525205
 20
1633.3565543671132
 11
672.13606690525205
 21
167.53106997205509
  0
LINE
  8
_0-0_
  6
CONTINUOUS
 62
    7
 10
1706.8525777203677
 20
1633.3565543671132
 11
1706.8525777203677
 21
167.53106997205509
  0
TEXT
  8
_0-0_
 62
    7
 10
906.73245032900388
 20
575.67973412101151
 40
40
 41
1
 50
0
  1
Ａ
  0
TEXT
  8
_0-0_
 62
    7
 10
1429.6891920142098
 20
576.02721287347708
 40
40
 41
1
 50
0
  1
Ｂ
  0
LINE
  8
_0-0_
  6
CONTINUOUS
 62
    7
 10
939.50457202305108
 20
332.52048861090793
 11
905.75457202305108
 21
332.52048861090793
  0
LINE
  8
_0-0_
  6
CONTINUOUS
 62
    7
 10
905.75457202305108
 20
332.52048861090793
 11
905.75457202305108
 21
366.27048861090793
  0
LINE
  8
_0-0_
  6
CONTINUOUS
 62
    7
 10
905.75457202305108
 20
366.27048861090793
 11
939.50457202305108
 21
366.27048861090793
  0
LINE
  8
_0-0_
  6
CONTINUOUS
 62
    4
 10
953.00457202305108
 20
346.02048861090793
 11
905.75457202305108
 21
346.02048861090793
  0
LINE
  8
_0-0_
  6
CONTINUOUS
 62
    7
 10
934.38607072024126
 20
366.27048861090793
 11
939.50457202305108
 21
371.38898991371775
  0
ARC
  8
_0-0_
  6
CONTINUOUS
 62
    2
 10
993.09851076150892
 20
387.37478110321376
 40
57.599491587186634
 50
201.49359415795911
 51
225.88654089400154
  0
LINE
  8
_0-0_
  6
CONTINUOUS
 62
    2
 10
951.26796832288539
 20
346.02048861090793
 11
952.13209080748504
 21
346.88461109550758
  0
LINE
  8
_0-0_
  6
CONTINUOUS
 62
    2
 10
944.90400729220539
 20
346.02048861090793
 11
949.09326520920251
 21
350.20974652790596
  0
LINE
  8
_0-0_
  6
CONTINUOUS
 62
    2
 10
938.54004626152994
 20
346.02048861090793
 11
946.30608790975941
 21
353.78653025913832
  0
LINE
  8
_0-0_
  6
CONTINUOUS
 62
    2
 10
932.17608523084721
 20
346.02048861090611
 11
943.77809694140626
 21
357.62250032146517
  0
LINE
  8
_0-0_
  6
CONTINUOUS
 62
    2
 10
925.8121242001672
 20
346.02048861090611
 11
941.52246062093684
 21
361.73082503167757
  0
LINE
  8
_0-0_
  6
CONTINUOUS
 62
    2
 10
919.44816316949357
 20
346.02048861090793
 11
939.55941580511364
 21
366.13174124652983
  0
LINE
  8
_0-0_
  6
CONTINUOUS
 62
    2
 10
913.08420213881357
 20
346.02048861090793
 11
933.33420213881357
 21
366.27048861090975
  0
LINE
  8
_0-0_
  6
CONTINUOUS
 62
    2
 10
906.72024110813356
 20
346.02048861090975
 11
926.97024110813356
 21
366.27048861090793
  0
LINE
  8
_0-0_
  6
CONTINUOUS
 62
    2
 10
905.7545720230529
 20
351.41878055650727
 11
920.60628007745174
 21
366.27048861090793
  0
LINE
  8
_0-0_
  6
CONTINUOUS
 62
    2
 10
905.75457202305108
 20
357.78274158718182
 11
914.24231904677538
 21
366.27048861090611
  0
LINE
  8
_0-0_
  6
CONTINUOUS
 62
    2
 10
905.75457202305108
 20
364.14670261786182
 11
907.8783580160972
 21
366.27048861090793
  0
LINE
  8
_0-0_
  6
CONTINUOUS
 62
    7
 10
939.50457202305108
 20
366.27048861090793
 11
939.50457202305108
 21
511.18606721464153
  0
LINE
  8
_0-0_
  6
CONTINUOUS
 62
    7
 10
791.24028774411556
 20
223.12470563478223
 11
905.75457202305108
 21
337.63898991371775
  0
LINE
  8
_0-0_
  6
CONTINUOUS
 62
    7
 10
807.15019032081193
 20
223.12470563478223
 11
916.54597329693763
 21
332.52048861090793
  0
LINE
  8
_0-0_
  6
CONTINUOUS
 62
    7
 10
823.0600928975083
 20
223.12470563478223
 11
932.455875873634
 21
332.52048861090793
  0
LINE
  8
_0-0_
  6
CONTINUOUS
 62
    4
 10
953.00457202305108
 20
346.02048861090793
 11
953.00457202305108
 21
223.12470563478223
  0
LINE
  8
_0-0_
  6
CONTINUOUS
 62
    7
 10
939.50457202305108
 20
223.12470563478223
 11
939.50457202305108
 21
332.52048861090793
  0
LINE
  8
_0-0_
  6
CONTINUOUS
 62
    7
 10
953.51410748944602
 20
1440.9858702173553
 11
951.12900748944651
 21
1434.4326702173551
  0
LINE
  8
_0-0_
  6
CONTINUOUS
 62
    7
 10
953.51410748944602
 20
1440.9858702173553
 11
944.33690748944593
 21
1427.8794702173548
  0
LINE
  8
_0-0_
  6
CONTINUOUS
 62
    7
 10
944.33690748944548
 20
1427.8794702173539
 11
946.72200748944636
 21
1434.4326702173551
  0
LINE
  8
_0-0_
  6
CONTINUOUS
 62
    7
 10
860.86667720276557
 20
1434.4326702173551
 11
946.72200748944636
 21
1434.4326702173551
  0
LINE
  8
_0-0_
  6
CONTINUOUS
 62
    7
 10
951.12900748944651
 20
1434.4326702173551
 11
1037.5246414752928
 21
1434.4326702173551
  0
LINE
  8
_0-0_
  6
CONTINUOUS
 62
    7
 10
873.92549915611301
 20
1246.541307509626
 11
1023.925499156113
 21
1396.541307509626
  0
LINE
  8
_0-0_
  6
CONTINUOUS
 62
    7
 10
873.92549915611301
 20
1239.4702396977611
 11
1023.925499156113
 21
1389.4702396977611
  0
LINE
  8
_0-0_
  6
CONTINUOUS
 62
    7
 10
873.92549915611391
 20
1232.3991718858972
 11
1023.925499156113
 21
1382.3991718858981
  0
LINE
  8
_0-0_
  6
CONTINUOUS
 62
    7
 10
873.92549915611301
 20
1434.4326702173551
 11
873.92549915611301
 21
772.99224806201551
  0
LINE
  8
_0-0_
  6
CONTINUOUS
 62
    7
 10
929.3430728469026
 20
352.70888111874251
 11
985.75992633854787
 21
450.42573776944141
  0
POINT
  8
_0-0_
 62
    7
 10
929.3430728469026
 20
352.70888111874251
  0
TEXT
  8
_0-0_
 62
    7
 10
987.28360781870936
 20
442.52673463905217
 40
21.617968000000001
 41
1
 50
0
  1
ｼｰﾘﾝｸﾞ
  0
LINE
  8
_0-0_
  6
CONTINUOUS
 62
    7
 10
1223.9254991561129
 20
835.99224806201551
 11
1523.9254991561129
 21
835.99224806201551
  0
LINE
  8
_0-0_
  6
CONTINUOUS
 62
    7
 10
1008.925499156113
 20
1204.9922480620155
 11
1023.925499156113
 21
1204.9922480620155
  0
ARC
  8
_0-0_
  6
CONTINUOUS
 62
    2
 10
1047.7450274843166
 20
1214.3719336141514
 40
25.599774038749615
 50
201.49359415795911
 51
225.88654089400154
  0
LINE
  8
_0-0_
  6
CONTINUOUS
 62
    2
 10
1029.1536752893728
 20
1195.9922480620155
 11
1029.5377297269727
 21
1196.3763024996153
  0
LINE
  8
_0-0_
  6
CONTINUOUS
 62
    2
 10
1026.3252481646261
 20
1195.9922480620155
 11
1028.1871405721806
 21
1197.85414046957
  0
LINE
  8
_0-0_
  6
CONTINUOUS
 62
    2
 10
1023.4968210398813
 20
1195.9922480620155
 11
1026.9483951057612
 21
1199.4438221278954
  0
LINE
  8
_0-0_
  6
CONTINUOUS
 62
    2
 10
1020.6683939151337
 20
1195.9922480620146
 11
1025.8248435642711
 21
1201.148697711152
  0
LINE
  8
_0-0_
  6
CONTINUOUS
 62
    2
 10
1017.8399667903871
 20
1195.9922480620146
 11
1024.8223385329513
 21
1202.9746198045798
  0
LINE
  8
_0-0_
  6
CONTINUOUS
 62
    2
 10
1015.0115396656431
 20
1195.9922480620155
 11
1023.949874170363
 21
1204.9305825667363
  0
LINE
  8
_0-0_
  6
CONTINUOUS
 62
    2
 10
1012.1831125408964
 20
1195.9922480620155
 11
1021.1831125408964
 21
1204.9922480620164
  0
LINE
  8
_0-0_
  6
CONTINUOUS
 62
    2
 10
1009.3546854161498
 20
1195.9922480620164
 11
1018.3546854161498
 21
1204.9922480620155
  0
LINE
  8
_0-0_
  6
CONTINUOUS
 62
    2
 10
1008.925499156114
 20
1198.3914889267264
 11
1015.5262582914022
 21
1204.9922480620155
  0
LINE
  8
_0-0_
  6
CONTINUOUS
 62
    2
 10
1008.9254991561131
 20
1201.2199160514704
 11
1012.6978311666574
 21
1204.9922480620146
  0
LINE
  8
_0-0_
  6
CONTINUOUS
 62
    2
 10
1008.9254991561131
 20
1204.048343176217
 11
1009.8694040419116
 21
1204.9922480620155
  0
POINT
  8
_0-0_
 62
    7
 10
1022.6196214063486
 20
1200.4106373771494
  0
LINE
  8
_0-0_
  6
CONTINUOUS
 62
    4
 10
1029.9254991561129
 20
1195.9922480620155
 11
1008.9254991561131
 21
1195.9922480620155
  0
LINE
  8
_0-0_
  6
CONTINUOUS
 62
    7
 10
1008.925499156113
 20
1189.9922480620155
 11
1008.925499156113
 21
1204.9922480620155
  0
LINE
  8
_0-0_
  6
CONTINUOUS
 62
    7
 10
1022.6196214063486
 20
1200.4106373771494
 11
1067.4137957116916
 21
1277.9964231570996
  0
TEXT
  8
_0-0_
 62
    7
 10
1070.2508744713659
 20
1262.9445885105545
 40
30
 41
1
 50
0
  1
ｼｰﾘﾝｸﾞ
  0
LINE
  8
_0-0_
  6
CONTINUOUS
 62
    7
 10
1023.925499156113
 20
1189.9922480620155
 11
1008.925499156113
 21
1189.9922480620155
  0
LINE
  8
_0-0_
  6
CONTINUOUS
 62
    7
 10
873.92549915611391
 20
1006.125001906202
 11
1023.9254991561131
 21
1156.1250019062011
  0
LINE
  8
_0-0_
  6
CONTINUOUS
 62
    7
 10
873.92549915611301
 20
1013.1960697180659
 11
1023.9254991561132
 21
1163.1960697180659
  0
LINE
  8
_0-0_
  6
CONTINUOUS
 62
    7
 10
873.92549915611301
 20
1020.2671375299308
 11
1023.925499156113
 21
1170.2671375299308
  0
CIRCLE
  8
_0-0_
  6
DASHED2
 62
    1
 10
1023.925499156113
 20
1204.9922480620155
 40
40
  0
TEXT
  8
_0-0_
 62
    7
 10
1005.0163640042605
 20
1232.9465732106194
 40
24
 41
1
 50
0
  1
Ａ
  0
LINE
  8
_0-0_
  6
CONTINUOUS
 62
    7
 10
873.92549915611301
 20
793.99296755023647
 11
1095.9247796678937
 21
1015.9922480620155
  0
LINE
  8
_0-0_
  6
CONTINUOUS
 62
    7
 10
873.92549915611301
 20
786.92189973837071
 11
1102.9958474797577
 21
1015.9922480620155
  0
LINE
  8
_0-0_
  6
CONTINUOUS
 62
    7
 10
873.92549915611391
 20
779.85083192650677
 11
1110.0669152916234
 21
1015.9922480620155
  0
LINE
  8
_0-0_
  6
CONTINUOUS
 62
    7
 10
1223.9254991561129
 20
835.99224806201551
 11
1223.9254991561129
 21
772.99224806201551
  0
LINE
  8
_0-0_
  6
CONTINUOUS
 62
    7
 10
1079.1989496475881
 20
772.99224806201551
 11
1322.1989496475881
 21
1015.9922480620155
  0
LINE
  8
_0-0_
  6
CONTINUOUS
 62
    7
 10
1086.2700174594529
 20
772.99224806201551
 11
1329.2700174594538
 21
1015.9922480620155
  0
LINE
  8
_0-0_
  6
CONTINUOUS
 62
    7
 10
1093.3410852713168
 20
772.9922480620146
 11
1336.3410852713178
 21
1015.9922480620155
  0
LINE
  8
_0-0_
  6
CONTINUOUS
 62
    7
 10
1216.1733265094581
 20
1023.4922480620155
 11
1275.9312715000369
 21
1126.9960449416042
  0
POINT
  8
_0-0_
 62
    7
 10
1216.1733265094581
 20
1023.4922480620155
  0
LINE
  8
_0-0_
  6
CONTINUOUS
 62
    7
 10
1083.209770403575
 20
1057.9922480620155
 11
1121.0381975283208
 21
1057.9922480620155
  0
LINE
  8
_0-0_
  6
CONTINUOUS
 62
  136
 10
1025.9254991561129
 20
1086.1049464342234
 11
1053.0381975283208
 21
1058.9922480620155
  0
LINE
  8
_0-0_
  6
CONTINUOUS
 62
    6
 10
1023.9254991561126
 20
1043.4655573704542
 11
1031.4521898476746
 21
1050.9922480620164
  0
LINE
  8
_0-0_
  6
CONTINUOUS
 62
    6
 10
1023.9254991561126
 20
1029.3234217467227
 11
1045.5943254714057
 21
1050.9922480620164
  0
LINE
  8
_0-0_
  6
CONTINUOUS
 62
    6
 10
1024.7364610951349
 20
1015.9922480620146
 11
1059.7364610951349
 21
1050.9922480620146
  0
LINE
  8
_0-0_
  6
CONTINUOUS
 62
    6
 10
1038.8785967188678
 20
1015.9922480620164
 11
1073.8785967188678
 21
1050.9922480620164
  0
LINE
  8
_0-0_
  6
CONTINUOUS
 62
    6
 10
1053.0207323425984
 20
1015.9922480620164
 11
1088.0207323425984
 21
1050.9922480620164
  0
LINE
  8
_0-0_
  6
CONTINUOUS
 62
    6
 10
1067.1628679663281
 20
1015.9922480620155
 11
1102.1628679663277
 21
1050.9922480620146
  0
LINE
  8
_0-0_
  6
CONTINUOUS
 62
    6
 10
1081.3050035900606
 20
1015.9922480620164
 11
1116.3050035900606
 21
1050.9922480620164
  0
LINE
  8
_0-0_
  6
CONTINUOUS
 62
    6
 10
1095.4471392137912
 20
1015.9922480620164
 11
1130.4471392137912
 21
1050.9922480620164
  0
LINE
  8
_0-0_
  6
CONTINUOUS
 62
    6
 10
1109.5892748375209
 20
1015.9922480620146
 11
1144.5892748375209
 21
1050.9922480620155
  0
LINE
  8
_0-0_
  6
CONTINUOUS
 62
    6
 10
1123.7314104612528
 20
1015.9922480620155
 11
1158.7314104612533
 21
1050.9922480620164
  0
LINE
  8
_0-0_
  6
CONTINUOUS
 62
    6
 10
1137.8735460849839
 20
1015.9922480620164
 11
1172.8735460849844
 21
1050.9922480620164
  0
LINE
  8
_0-0_
  6
CONTINUOUS
 62
    6
 10
1152.0156817087136
 20
1015.9922480620155
 11
1187.0156817087136
 21
1050.9922480620146
  0
LINE
  8
_0-0_
  6
CONTINUOUS
 62
    6
 10
1166.1578173324456
 20
1015.9922480620164
 11
1201.1578173324456
 21
1050.9922480620155
  0
LINE
  8
_0-0_
  6
CONTINUOUS
 62
    6
 10
1180.2999529561771
 20
1015.9922480620164
 11
1215.2999529561771
 21
1050.9922480620164
  0
LINE
  8
_0-0_
  6
CONTINUOUS
 62
    6
 10
1194.4420885799063
 20
1015.9922480620155
 11
1229.4420885799063
 21
1050.9922480620155
  0
LINE
  8
_0-0_
  6
CONTINUOUS
 62
    6
 10
1208.5842242036383
 20
1015.9922480620155
 11
1243.5842242036383
 21
1050.9922480620155
  0
LINE
  8
_0-0_
  6
CONTINUOUS
 62
    6
 10
1222.7263598273694
 20
1015.9922480620164
 11
1257.7263598273694
 21
1050.9922480620164
  0
LINE
  8
_0-0_
  6
CONTINUOUS
 62
    6
 10
1236.8684954510991
 20
1015.9922480620146
 11
1271.8684954510991
 21
1050.9922480620146
  0
LINE
  8
_0-0_
  6
CONTINUOUS
 62
    6
 10
1251.0106310748311
 20
1015.9922480620155
 11
1286.0106310748311
 21
1050.9922480620155
  0
LINE
  8
_0-0_
  6
CONTINUOUS
 62
    6
 10
1265.1527666985617
 20
1015.9922480620164
 11
1300.1527666985621
 21
1050.9922480620164
  0
LINE
  8
_0-0_
  6
CONTINUOUS
 62
    6
 10
1279.2949023222923
 20
1015.9922480620155
 11
1314.2949023222923
 21
1050.9922480620146
  0
LINE
  8
_0-0_
  6
CONTINUOUS
 62
    6
 10
1293.4370379460247
 20
1015.9922480620164
 11
1328.4370379460247
 21
1050.9922480620164
  0
LINE
  8
_0-0_
  6
CONTINUOUS
 62
    6
 10
1307.5791735697544
 20
1015.9922480620155
 11
1342.5791735697544
 21
1050.9922480620164
  0
LINE
  8
_0-0_
  6
CONTINUOUS
 62
    6
 10
1321.7213091934868
 20
1015.9922480620164
 11
1356.7213091934868
 21
1050.9922480620164
  0
LINE
  8
_0-0_
  6
CONTINUOUS
 62
    6
 10
1335.8634448172174
 20
1015.9922480620164
 11
1370.8634448172174
 21
1050.9922480620164
  0
LINE
  8
_0-0_
  6
CONTINUOUS
 62
    6
 10
1350.0055804409471
 20
1015.9922480620164
 11
1385.0055804409471
 21
1050.9922480620164
  0
LINE
  8
_0-0_
  6
CONTINUOUS
 62
    6
 10
1364.1477160646796
 20
1015.9922480620164
 11
1399.1477160646796
 21
1050.9922480620164
  0
LINE
  8
_0-0_
  6
CONTINUOUS
 62
    6
 10
1378.2898516884102
 20
1015.9922480620164
 11
1413.2898516884102
 21
1050.9922480620164
  0
LINE
  8
_0-0_
  6
CONTINUOUS
 62
    6
 10
1392.4319873121408
 20
1015.9922480620164
 11
1427.4319873121399
 21
1050.9922480620164
  0
LINE
  8
_0-0_
  6
CONTINUOUS
 62
    6
 10
1406.5741229358723
 20
1015.9922480620164
 11
1441.5741229358723
 21
1050.9922480620164
  0
LINE
  8
_0-0_
  6
CONTINUOUS
 62
    6
 10
1420.7162585596038
 20
1015.9922480620164
 11
1455.7162585596029
 21
1050.9922480620164
  0
LINE
  8
_0-0_
  6
CONTINUOUS
 62
    6
 10
1434.8583941833326
 20
1015.9922480620146
 11
1469.8583941833326
 21
1050.9922480620146
  0
LINE
  8
_0-0_
  6
CONTINUOUS
 62
    6
 10
1449.000529807065
 20
1015.9922480620164
 11
1484.0005298070655
 21
1050.9922480620164
  0
LINE
  8
_0-0_
  6
CONTINUOUS
 62
    6
 10
1463.1426654307966
 20
1015.9922480620164
 11
1498.1426654307966
 21
1050.9922480620164
  0
LINE
  8
_0-0_
  6
CONTINUOUS
 62
    6
 10
1477.2848010545258
 20
1015.9922480620146
 11
1512.2848010545258
 21
1050.9922480620146
  0
LINE
  8
_0-0_
  6
CONTINUOUS
 62
    6
 10
1491.4269366782582
 20
1015.9922480620164
 11
1523.9254991561129
 21
1048.4908105398711
  0
LINE
  8
_0-0_
  6
CONTINUOUS
 62
    6
 10
1505.5690723019893
 20
1015.9922480620164
 11
1523.9254991561129
 21
1034.3486749161395
  0
LINE
  8
_0-0_
  6
CONTINUOUS
 62
    6
 10
1519.7112079257186
 20
1015.9922480620146
 11
1523.9254991561138
 21
1020.2065392924098
  0
LINE
  8
_0-0_
  6
CONTINUOUS
 62
    6
 10
1512.8393354891114
 20
1050.9922480620164
 11
1523.9254991561133
 21
1039.906084395014
  0
LINE
  8
_0-0_
  6
CONTINUOUS
 62
    6
 10
1498.6971998653808
 20
1050.9922480620155
 11
1523.9254991561124
 21
1025.7639487712834
  0
LINE
  8
_0-0_
  6
CONTINUOUS
 62
    6
 10
1484.5550642416497
 20
1050.9922480620164
 11
1519.5550642416497
 21
1015.9922480620164
  0
LINE
  8
_0-0_
  6
CONTINUOUS
 62
    6
 10
1470.4129286179182
 20
1050.9922480620164
 11
1505.4129286179186
 21
1015.9922480620164
  0
LINE
  8
_0-0_
  6
CONTINUOUS
 62
    6
 10
1456.2707929941876
 20
1050.9922480620155
 11
1491.270792994188
 21
1015.9922480620155
  0
LINE
  8
_0-0_
  6
CONTINUOUS
 62
    6
 10
1442.128657370456
 20
1050.9922480620164
 11
1477.1286573704556
 21
1015.9922480620164
  0
LINE
  8
_0-0_
  6
CONTINUOUS
 62
    6
 10
1427.9865217467254
 20
1050.9922480620164
 11
1462.9865217467254
 21
1015.9922480620164
  0
LINE
  8
_0-0_
  6
CONTINUOUS
 62
    6
 10
1413.8443861229948
 20
1050.9922480620146
 11
1448.8443861229948
 21
1015.9922480620155
  0
LINE
  8
_0-0_
  6
CONTINUOUS
 62
    6
 10
1399.7022504992633
 20
1050.9922480620164
 11
1434.7022504992624
 21
1015.9922480620164
  0
LINE
  8
_0-0_
  6
CONTINUOUS
 62
    6
 10
1385.5601148755327
 20
1050.9922480620164
 11
1420.5601148755327
 21
1015.9922480620164
  0
LINE
  8
_0-0_
  6
CONTINUOUS
 62
    6
 10
1371.4179792518021
 20
1050.9922480620155
 11
1406.4179792518021
 21
1015.9922480620155
  0
LINE
  8
_0-0_
  6
CONTINUOUS
 62
    6
 10
1357.2758436280706
 20
1050.9922480620164
 11
1392.2758436280697
 21
1015.9922480620164
  0
LINE
  8
_0-0_
  6
CONTINUOUS
 62
    6
 10
1343.13370800434
 20
1050.9922480620155
 11
1378.13370800434
 21
1015.9922480620164
  0
LINE
  8
_0-0_
  6
CONTINUOUS
 62
    6
 10
1328.9915723806093
 20
1050.9922480620155
 11
1363.9915723806093
 21
1015.9922480620155
  0
LINE
  8
_0-0_
  6
CONTINUOUS
 62
    6
 10
1314.8494367568778
 20
1050.9922480620164
 11
1349.8494367568778
 21
1015.9922480620164
  0
LINE
  8
_0-0_
  6
CONTINUOUS
 62
    6
 10
1300.7073011331468
 20
1050.9922480620164
 11
1335.7073011331472
 21
1015.9922480620164
  0
LINE
  8
_0-0_
  6
CONTINUOUS
 62
    6
 10
1286.5651655094161
 20
1050.9922480620155
 11
1321.5651655094166
 21
1015.9922480620155
  0
LINE
  8
_0-0_
  6
CONTINUOUS
 62
    6
 10
1272.4230298856842
 20
1050.9922480620164
 11
1307.4230298856846
 21
1015.9922480620164
  0
LINE
  8
_0-0_
  6
CONTINUOUS
 62
    6
 10
1258.2808942619536
 20
1050.9922480620164
 11
1293.280894261954
 21
1015.9922480620164
  0
LINE
  8
_0-0_
  6
CONTINUOUS
 62
    6
 10
1244.1387586382239
 20
1050.9922480620155
 11
1279.1387586382234
 21
1015.9922480620155
  0
LINE
  8
_0-0_
  6
CONTINUOUS
 62
    6
 10
1229.9966230144914
 20
1050.9922480620164
 11
1264.9966230144914
 21
1015.9922480620164
  0
LINE
  8
_0-0_
  6
CONTINUOUS
 62
    6
 10
1215.8544873907613
 20
1050.9922480620155
 11
1250.8544873907617
 21
1015.9922480620155
  0
LINE
  8
_0-0_
  6
CONTINUOUS
 62
    6
 10
1201.7123517670311
 20
1050.9922480620146
 11
1236.7123517670307
 21
1015.9922480620155
  0
LINE
  8
_0-0_
  6
CONTINUOUS
 62
    6
 10
1187.5702161432987
 20
1050.9922480620164
 11
1222.5702161432987
 21
1015.9922480620164
  0
LINE
  8
_0-0_
  6
CONTINUOUS
 62
    6
 10
1173.428080519569
 20
1050.9922480620155
 11
1208.428080519569
 21
1015.9922480620155
  0
LINE
  8
_0-0_
  6
CONTINUOUS
 62
    6
 10
1159.2859448958384
 20
1050.9922480620146
 11
1194.2859448958379
 21
1015.9922480620164
  0
LINE
  8
_0-0_
  6
CONTINUOUS
 62
    6
 10
1145.143809272106
 20
1050.9922480620164
 11
1180.143809272106
 21
1015.9922480620164
  0
LINE
  8
_0-0_
  6
CONTINUOUS
 62
    6
 10
1131.0016736483763
 20
1050.9922480620146
 11
1166.0016736483758
 21
1015.9922480620146
  0
LINE
  8
_0-0_
  6
CONTINUOUS
 62
    6
 10
1116.8595380246456
 20
1050.9922480620146
 11
1151.8595380246456
 21
1015.9922480620146
  0
LINE
  8
_0-0_
  6
CONTINUOUS
 62
    6
 10
1102.7174024009132
 20
1050.9922480620164
 11
1137.7174024009132
 21
1015.9922480620164
  0
LINE
  8
_0-0_
  6
CONTINUOUS
 62
    6
 10
1088.5752667771835
 20
1050.9922480620146
 11
1123.5752667771831
 21
1015.9922480620146
  0
LINE
  8
_0-0_
  6
CONTINUOUS
 62
    6
 10
1074.4331311534529
 20
1050.9922480620146
 11
1109.4331311534525
 21
1015.9922480620164
  0
LINE
  8
_0-0_
  6
CONTINUOUS
 62
    6
 10
1060.2909955297205
 20
1050.9922480620164
 11
1095.2909955297205
 21
1015.9922480620164
  0
LINE
  8
_0-0_
  6
CONTINUOUS
 62
    6
 10
1046.1488599059908
 20
1050.9922480620146
 11
1081.1488599059908
 21
1015.9922480620146
  0
LINE
  8
_0-0_
  6
CONTINUOUS
 62
    6
 10
1032.0067242822602
 20
1050.9922480620146
 11
1067.0067242822602
 21
1015.9922480620146
  0
LINE
  8
_0-0_
  6
CONTINUOUS
 62
    6
 10
1023.9254991561135
 20
1044.9313375644299
 11
1052.8645886585277
 21
1015.9922480620164
  0
LINE
  8
_0-0_
  6
CONTINUOUS
 62
    6
 10
1023.9254991561126
 20
1030.7892019407002
 11
1038.7224530347971
 21
1015.9922480620146
  0
LINE
  8
_0-0_
  6
CONTINUOUS
 62
    6
 10
1023.925499156113
 20
1016.6470663169678
 11
1024.5803174110652
 21
1015.9922480620155
  0
LINE
  8
_0-0_
  6
CONTINUOUS
 62
    6
 10
1023.925499156113
 20
1050.9922480620155
 11
1023.925499156113
 21
1015.9922480620155
  0
LINE
  8
_0-0_
  6
CONTINUOUS
 62
    6
 10
1523.9254991561133
 20
1050.9922480620155
 11
1023.925499156113
 21
1050.9922480620155
  0
LINE
  8
_0-0_
  6
CONTINUOUS
 62
    1
 10
1365.1989496475876
 20
1056.9922480620155
 11
1395.1989496475876
 21
1056.9922480620155
  0
LINE
  8
_0-0_
  6
CONTINUOUS
 62
    1
 10
1395.1989496475876
 20
1057.2422480620155
 11
1365.1989496475876
 21
1057.2422480620155
  0
LINE
  8
_0-0_
  6
CENTER2
 62
    1
 10
1380.1989496475876
 20
1063.4071673132669
 11
1380.1989496475876
 21
981.06725478518388
  0
LINE
  8
_0-0_
  6
CONTINUOUS
 62
    1
 10
999.92549915611301
 20
1100.690732871851
 11
1000.6112314623098
 21
1101.3764651780477
  0
LINE
  8
_0-0_
  6
CONTINUOUS
 62
    1
 10
999.92549915611301
 20
1100.690732871851
 11
1000.6112314623098
 21
1100.0050005656533
  0
LINE
  8
_0-0_
  6
DASHED1
 62
    1
 10
1000.6112314623098
 20
1101.3764651780477
 11
1001.175499156113
 21
1101.940732871851
  0
LINE
  8
_0-0_
  6
DASHED1
 62
    1
 10
1000.6112314623098
 20
1100.0050005656533
 11
1001.175499156113
 21
1099.440732871851
  0
LINE
  8
_0-0_
  6
CONTINUOUS
 62
    1
 10
1000.0808112060405
 20
1097.7272024179358
 11
999.96321668486428
 21
1099.9710395502254
  0
LINE
  8
_0-0_
  6
CONTINUOUS
 62
    1
 10
999.96321668486428
 20
1101.4104261934765
 11
1000.0808112060405
 21
1103.6542633257652
  0
LINE
  8
_0-0_
  6
CONTINUOUS
 62
    4
 10
1077.1814251653477
 20
1067.9922480620155
 11
1084.709770403575
 21
1067.9922480620155
  0
LINE
  8
_0-0_
  6
CONTINUOUS
 62
    7
 10
1121.0381975283208
 20
1057.9922480620155
 11
1121.0381975283208
 21
1056.9922480620155
  0
LINE
  8
_0-0_
  6
CONTINUOUS
 62
    7
 10
1053.0381975283208
 20
1058.9922480620155
 11
1053.0381975283208
 21
1059.9922480620155
  0
LINE
  8
_0-0_
  6
CONTINUOUS
 62
    7
 10
1024.9254991561129
 20
1116.2765193094776
 11
1026.9254991561129
 21
1116.2765193094776
  0
LINE
  8
_0-0_
  6
CONTINUOUS
 62
    7
 10
1025.9254991561129
 20
1086.1049464342234
 11
1026.9254991561129
 21
1086.1049464342234
  0
LINE
  8
_0-0_
  6
CONTINUOUS
 62
    1
 10
1008.925499156113
 20
1098.190732871851
 11
1000.0808112060405
 21
1097.7272024179358
  0
LINE
  8
_0-0_
  6
CONTINUOUS
 62
    1
 10
1025.9254991561129
 20
1098.190732871851
 11
1025.9254991561129
 21
1093.190732871851
  0
LINE
  8
_0-0_
  6
CONTINUOUS
 62
    1
 10
1025.9254991561129
 20
1103.190732871851
 11
1025.9254991561129
 21
1108.190732871851
  0
LINE
  8
_0-0_
  6
CONTINUOUS
 62
    1
 10
1027.9254991561129
 20
1102.5155616309396
 11
1027.9254991561129
 21
1098.8659041127605
  0
LINE
  8
_0-0_
  6
CONTINUOUS
 62
    1
 10
1027.9254991561129
 20
1102.5155616309405
 11
1027.9254991561129
 21
1102.5155616309405
  0
LINE
  8
_0-0_
  6
CONTINUOUS
 62
    1
 10
1027.9254991561129
 20
1102.5155616309405
 11
1027.047433113926
 21
1105.8913426639938
  0
LINE
  8
_0-0_
  6
CONTINUOUS
 62
    1
 10
1027.047433113926
 20
1105.8913426639938
 11
1025.9254991561129
 21
1108.190732871851
  0
LINE
  8
_0-0_
  6
CONTINUOUS
 62
    1
 10
1025.9254991561129
 20
1093.190732871851
 11
1025.9254991561129
 21
1093.190732871851
  0
LINE
  8
_0-0_
  6
CONTINUOUS
 62
    1
 10
1025.9254991561129
 20
1093.190732871851
 11
1027.391016923719
 21
1096.4650715577975
  0
LINE
  8
_0-0_
  6
CONTINUOUS
 62
    1
 10
1027.391016923719
 20
1096.4650715577975
 11
1027.9254991561129
 21
1098.8659041127614
  0
LINE
  8
_0-0_
  6
CONTINUOUS
 62
    1
 10
1028.0938277756891
 20
1099.2120204409766
 11
1028.0938277756891
 21
1099.2120204409766
  0
LINE
  8
_0-0_
  6
CONTINUOUS
 62
    1
 10
1028.0938277756891
 20
1099.2120204409766
 11
1027.9254991561129
 21
1099.440732871851
  0
LINE
  8
_0-0_
  6
CONTINUOUS
 62
    1
 10
1027.9254991561129
 20
1101.940732871851
 11
1027.9254991561129
 21
1101.940732871851
  0
LINE
  8
_0-0_
  6
CONTINUOUS
 62
    1
 10
1027.9254991561129
 20
1101.940732871851
 11
1028.0938277756891
 21
1102.1694453027253
  0
LINE
  8
_0-0_
  6
CONTINUOUS
 62
    1
 10
1028.0938277756891
 20
1099.2120204409766
 11
1028.0938277756891
 21
1099.2120204409766
  0
LINE
  8
_0-0_
  6
CONTINUOUS
 62
    1
 10
1028.0938277756891
 20
1099.2120204409766
 11
1028.1233674505897
 21
1099.468325069759
  0
LINE
  8
_0-0_
  6
CONTINUOUS
 62
    1
 10
1028.1233674505897
 20
1099.468325069759
 11
1028.1468949974887
 21
1099.7617719410398
  0
LINE
  8
_0-0_
  6
CONTINUOUS
 62
    1
 10
1028.1468949974887
 20
1099.7617719410398
 11
1028.1636955437793
 21
1100.0834448201265
  0
LINE
  8
_0-0_
  6
CONTINUOUS
 62
    1
 10
1028.1636955437793
 20
1100.0834448201265
 11
1028.1732586133639
 21
1100.423569839362
  0
LINE
  8
_0-0_
  6
CONTINUOUS
 62
    1
 10
1028.1732586133639
 20
1100.423569839362
 11
1028.1752936372122
 21
1100.7718124721489
  0
LINE
  8
_0-0_
  6
CONTINUOUS
 62
    1
 10
1028.1752936372122
 20
1100.7718124721489
 11
1028.1697387821546
 21
1101.1175915423089
  0
LINE
  8
_0-0_
  6
CONTINUOUS
 62
    1
 10
1028.1697387821546
 20
1101.1175915423089
 11
1028.1567628296507
 21
1101.4504007277681
  0
LINE
  8
_0-0_
  6
CONTINUOUS
 62
    1
 10
1028.1567628296507
 20
1101.4504007277681
 11
1028.1367600474516
 21
1101.7601277898355
  0
LINE
  8
_0-0_
  6
CONTINUOUS
 62
    1
 10
1028.1367600474516
 20
1101.7601277898355
 11
1028.1103382099723
 21
1102.03736182846
  0
LINE
  8
_0-0_
  6
CONTINUOUS
 62
    1
 10
1028.1103382099723
 20
1102.03736182846
 11
1028.0938277756891
 21
1102.1694453027253
  0
LINE
  8
_0-0_
  6
DASHED1
 62
    1
 10
1027.9254991561129
 20
1101.940732871851
 11
1001.175499156113
 21
1101.940732871851
  0
LINE
  8
_0-0_
  6
DASHED1
 62
    1
 10
1027.9254991561129
 20
1099.440732871851
 11
1001.175499156113
 21
1099.440732871851
  0
LINE
  8
_0-0_
  6
CONTINUOUS
 62
    1
 10
1008.925499156113
 20
1103.190732871851
 11
1025.9254991561129
 21
1103.190732871851
  0
LINE
  8
_0-0_
  6
CONTINUOUS
 62
    1
 10
1008.925499156113
 20
1103.190732871851
 11
1000.0808112060405
 21
1103.6542633257652
  0
LINE
  8
_0-0_
  6
CONTINUOUS
 62
    1
 10
1008.925499156113
 20
1100.940732871851
 11
999.96321668486428
 21
1101.4104261934765
  0
LINE
  8
_0-0_
  6
CONTINUOUS
 62
    1
 10
1008.925499156113
 20
1098.190732871851
 11
1025.9254991561129
 21
1098.190732871851
  0
LINE
  8
_0-0_
  6
CONTINUOUS
 62
    1
 10
1008.925499156113
 20
1100.440732871851
 11
999.96321668486428
 21
1099.9710395502254
  0
LINE
  8
_0-0_
  6
CONTINUOUS
 62
    1
 10
1008.925499156113
 20
1100.440732871851
 11
1008.925499156113
 21
1100.940732871851
  0
LINE
  8
_0-0_
  6
CONTINUOUS
 62
    7
 10
1026.9254991561129
 20
1086.1049464342234
 11
1026.9254991561129
 21
1092.9410143982016
  0
LINE
  8
_0-0_
  6
CONTINUOUS
 62
    7
 10
1026.9254991561129
 20
1108.4404513454986
 11
1026.9254991561129
 21
1116.2765193094776
  0
LINE
  8
_0-0_
  6
CONTINUOUS
 62
    7
 10
1026.9254991561131
 20
1092.9410143982025
 11
1026.9254991561131
 21
1092.9410143982025
  0
LINE
  8
_0-0_
  6
CONTINUOUS
 62
    7
 10
1026.9254991561131
 20
1092.9410143982025
 11
1028.4098897342471
 21
1096.3890006415593
  0
LINE
  8
_0-0_
  6
CONTINUOUS
 62
    7
 10
1028.4098897342471
 20
1096.3890006415593
 11
1029.0287965184618
 21
1099.9676928419519
  0
LINE
  8
_0-0_
  6
CONTINUOUS
 62
    7
 10
1029.0287965184618
 20
1099.9676928419519
 11
1028.7634143393004
 21
1103.5683542477773
  0
LINE
  8
_0-0_
  6
CONTINUOUS
 62
    7
 10
1028.7634143393004
 20
1103.5683542477773
 11
1027.6218066999872
 21
1107.0815805842417
  0
LINE
  8
_0-0_
  6
CONTINUOUS
 62
    7
 10
1027.6218066999872
 20
1107.0815805842417
 11
1026.9254991561131
 21
1108.4404513454995
  0
LINE
  8
_0-0_
  6
CENTER2
 62
    1
 10
1033.4157269211209
 20
1100.690732871851
 11
995.63867470867729
 21
1100.690732871851
  0
LINE
  8
_0-0_
  6
CONTINUOUS
 62
    4
 10
1031.9254991561129
 20
1088.5902278084625
 11
1031.9254991561129
 21
1091.7761173263636
  0
LINE
  8
_0-0_
  6
CONTINUOUS
 62
    4
 10
1031.9254991561131
 20
1091.7761173263648
 11
1031.9254991561131
 21
1091.7761173263648
  0
LINE
  8
_0-0_
  6
CONTINUOUS
 62
    4
 10
1031.9254991561131
 20
1091.7761173263648
 11
1033.4958068683086
 21
1096.0944059596789
  0
LINE
  8
_0-0_
  6
CONTINUOUS
 62
    4
 10
1033.4958068683086
 20
1096.0944059596789
 11
1034.0460977680643
 21
1100.5523516603657
  0
LINE
  8
_0-0_
  6
CONTINUOUS
 62
    4
 10
1034.0460977680643
 20
1100.5523516603657
 11
1033.5596515448519
 21
1105.0145020041396
  0
LINE
  8
_0-0_
  6
CONTINUOUS
 62
    4
 10
1033.5596515448519
 20
1105.0145020041396
 11
1032.05124862101
 21
1109.3452768107613
  0
LINE
  8
_0-0_
  6
CONTINUOUS
 62
    4
 10
1032.05124862101
 20
1109.3452768107613
 11
1031.9254991561131
 21
1109.6053484173372
  0
LINE
  8
_0-0_
  6
CONTINUOUS
 62
    4
 10
1031.9254991561129
 20
1109.6053484173365
 11
1031.9254991561129
 21
1117.7765193094776
  0
LINE
  8
_0-0_
  6
CONTINUOUS
 62
    4
 10
1031.9254991561129
 20
1117.7765193094776
 11
1029.9254991561129
 21
1119.7765193094776
  0
LINE
  8
_0-0_
  6
CONTINUOUS
 62
    7
 10
1083.209770403575
 20
1057.9922480620155
 11
1083.209770403575
 21
1059.9922480620155
  0
LINE
  8
_0-0_
  6
CONTINUOUS
 62
    7
 10
1053.0381975283208
 20
1059.9922480620155
 11
1059.8742654922989
 21
1059.9922480620155
  0
LINE
  8
_0-0_
  6
CONTINUOUS
 62
    7
 10
1075.3737024395969
 20
1059.9922480620155
 11
1083.209770403575
 21
1059.9922480620155
  0
LINE
  8
_0-0_
  6
CONTINUOUS
 62
    7
 10
1075.3737024395959
 20
1059.9922480620155
 11
1075.3737024395959
 21
1059.9922480620155
  0
LINE
  8
_0-0_
  6
CONTINUOUS
 62
    7
 10
1075.3737024395959
 20
1059.9922480620155
 11
1071.9257161962391
 21
1061.4766386401495
  0
LINE
  8
_0-0_
  6
CONTINUOUS
 62
    7
 10
1071.9257161962391
 20
1061.4766386401495
 11
1068.3470239958465
 21
1062.0955454243642
  0
LINE
  8
_0-0_
  6
CONTINUOUS
 62
    7
 10
1068.3470239958465
 20
1062.0955454243642
 11
1064.7463625900211
 21
1061.830163245203
  0
LINE
  8
_0-0_
  6
CONTINUOUS
 62
    7
 10
1064.7463625900211
 20
1061.830163245203
 11
1061.2331362535567
 21
1060.6885556058896
  0
LINE
  8
_0-0_
  6
CONTINUOUS
 62
    7
 10
1061.2331362535567
 20
1060.6885556058896
 11
1059.8742654922989
 21
1059.9922480620155
  0
LINE
  8
_0-0_
  6
CONTINUOUS
 62
    4
 10
1031.9254991561129
 20
1088.5902278084625
 11
1052.5234789025599
 21
1067.9922480620155
  0
LINE
  8
_0-0_
  6
CONTINUOUS
 62
    4
 10
1052.5234789025599
 20
1067.9922480620155
 11
1058.0665427665481
 21
1067.9922480620155
  0
LINE
  8
_0-0_
  6
CONTINUOUS
 62
    4
 10
1077.1814251653475
 20
1067.9922480620155
 11
1077.1814251653475
 21
1067.9922480620155
  0
LINE
  8
_0-0_
  6
CONTINUOUS
 62
    4
 10
1077.1814251653475
 20
1067.9922480620155
 11
1072.3397857500188
 21
1069.6082575257446
  0
LINE
  8
_0-0_
  6
CONTINUOUS
 62
    4
 10
1072.3397857500188
 20
1069.6082575257446
 11
1067.354859083792
 21
1070.111708070513
  0
LINE
  8
_0-0_
  6
CONTINUOUS
 62
    4
 10
1067.354859083792
 20
1070.111708070513
 11
1062.3781096409259
 21
1069.4873026062764
  0
LINE
  8
_0-0_
  6
CONTINUOUS
 62
    4
 10
1062.3781096409259
 20
1069.4873026062764
 11
1058.0665427665474
 21
1067.9922480620155
  0
LINE
  8
_0-0_
  6
CONTINUOUS
 62
    4
 10
1084.709770403575
 20
1067.9922480620155
 11
1086.709770403575
 21
1065.9922480620155
  0
LINE
  8
_0-0_
  6
CONTINUOUS
 62
    4
 10
1086.709770403575
 20
1065.9922480620155
 11
1523.9254991561129
 21
1065.9922480620155
  0
LINE
  8
_0-0_
  6
CONTINUOUS
 62
  136
 10
1023.925499156113
 20
1085.2765193094776
 11
1052.209770403575
 21
1056.9922480620155
  0
LINE
  8
_0-0_
  6
CONTINUOUS
 62
  136
 10
1052.209770403575
 20
1056.9922480620155
 11
1082.209770403575
 21
1056.9922480620155
  0
LINE
  8
_0-0_
  6
CONTINUOUS
 62
  136
 10
1082.209770403575
 20
1056.9922480620155
 11
1082.209770403575
 21
1058.9922480620155
  0
LINE
  8
_0-0_
  6
CONTINUOUS
 62
  136
 10
1023.925499156113
 20
1115.2765193094776
 11
1023.925499156113
 21
1085.2765193094776
  0
LINE
  8
_0-0_
  6
CONTINUOUS
 62
  136
 10
1023.925499156113
 20
1115.2765193094776
 11
1025.9254991561129
 21
1115.2765193094776
  0
LINE
  8
_0-0_
  6
CONTINUOUS
 62
  136
 10
1025.9254991561129
 20
1115.2765193094776
 11
1025.9254991561129
 21
1086.1049464342234
  0
LINE
  8
_0-0_
  6
CONTINUOUS
 62
    1
 10
1381.3019641169653
 20
988.99224806201551
 11
1384.290548211241
 21
989.25371529025801
  0
LINE
  8
_0-0_
  6
CONTINUOUS
 62
    1
 10
1381.1707311216765
 20
990.49224806201551
 11
1384.1593152159521
 21
990.75371529025801
  0
LINE
  8
_0-0_
  6
CONTINUOUS
 62
    1
 10
1381.0394981263876
 20
991.99224806201551
 11
1384.0280822206632
 21
992.25371529025801
  0
LINE
  8
_0-0_
  6
CONTINUOUS
 62
    1
 10
1380.9082651310987
 20
993.49224806201551
 11
1383.8968492253744
 21
993.75371529025801
  0
LINE
  8
_0-0_
  6
CONTINUOUS
 62
    1
 10
1380.7770321358098
 20
994.99224806201551
 11
1383.7656162300855
 21
995.25371529025801
  0
LINE
  8
_0-0_
  6
CONTINUOUS
 62
    1
 10
1380.6457991405209
 20
996.49224806201551
 11
1383.6343832347961
 21
996.75371529025801
  0
LINE
  8
_0-0_
  6
CONTINUOUS
 62
    1
 10
1380.514566145232
 20
997.99224806201551
 11
1383.5031502395072
 21
998.25371529025801
  0
LINE
  8
_0-0_
  6
CONTINUOUS
 62
    1
 10
1380.3833331499432
 20
999.49224806201551
 11
1383.3719172442184
 21
999.75371529025801
  0
LINE
  8
_0-0_
  6
CONTINUOUS
 62
    1
 10
1380.4489496475876
 20
998.74224806201551
 11
1381.4076628178123
 21
987.7841063830067
  0
LINE
  8
_0-0_
  6
CONTINUOUS
 62
    1
 10
1380.3833331499432
 20
999.49224806201551
 11
1380.014566145232
 21
999.49224806201551
  0
LINE
  8
_0-0_
  6
CONTINUOUS
 62
    1
 10
1380.4489496475876
 20
998.74224806201551
 11
1379.9489496475876
 21
998.74224806201551
  0
LINE
  8
_0-0_
  6
CONTINUOUS
 62
    1
 10
1379.0959351782099
 20
988.99224806201551
 11
1376.1073510839346
 21
989.25371529025801
  0
LINE
  8
_0-0_
  6
CONTINUOUS
 62
    1
 10
1379.2271681734987
 20
990.49224806201551
 11
1376.2385840792235
 21
990.75371529025801
  0
LINE
  8
_0-0_
  6
CONTINUOUS
 62
    1
 10
1379.3584011687876
 20
991.99224806201551
 11
1376.3698170745124
 21
992.25371529025801
  0
LINE
  8
_0-0_
  6
CONTINUOUS
 62
    1
 10
1379.4896341640765
 20
993.49224806201551
 11
1376.5010500698013
 21
993.75371529025801
  0
LINE
  8
_0-0_
  6
CONTINUOUS
 62
    1
 10
1379.6208671593654
 20
994.99224806201551
 11
1376.6322830650902
 21
995.25371529025801
  0
LINE
  8
_0-0_
  6
CONTINUOUS
 62
    1
 10
1379.7521001546543
 20
996.49224806201551
 11
1376.7635160603791
 21
996.75371529025801
  0
LINE
  8
_0-0_
  6
CONTINUOUS
 62
    1
 10
1379.8833331499432
 20
997.99224806201551
 11
1376.8947490556679
 21
998.25371529025801
  0
LINE
  8
_0-0_
  6
CONTINUOUS
 62
    1
 10
1380.014566145232
 20
999.49224806201551
 11
1377.0259820509568
 21
999.75371529025801
  0
LINE
  8
_0-0_
  6
CONTINUOUS
 62
    1
 10
1379.9489496475876
 20
998.74224806201551
 11
1378.9902364773639
 21
987.7841063830067
  0
LINE
  8
_0-0_
  6
CONTINUOUS
 62
    1
 10
1377.1989496475876
 20
1025.5976080185403
 11
1377.1989496475876
 21
1001.7307439664312
  0
LINE
  8
_0-0_
  6
CONTINUOUS
 62
    1
 10
1377.1989496475876
 20
1001.7307439664312
 11
1376.0016523830886
 21
988.04557361124921
  0
LINE
  8
_0-0_
  6
CONTINUOUS
 62
    1
 10
1383.1989496475876
 20
1001.7307439664312
 11
1384.3962469120875
 21
988.04557361124921
  0
LINE
  8
_0-0_
  6
CONTINUOUS
 62
    1
 10
1378.9902364773639
 20
987.7841063830067
 11
1376.0016523830886
 21
988.04557361124921
  0
LINE
  8
_0-0_
  6
CONTINUOUS
 62
    1
 10
1381.4076628178123
 20
987.7841063830067
 11
1384.3962469120875
 21
988.04557361124921
  0
LINE
  8
_0-0_
  6
CONTINUOUS
 62
    1
 10
1380.1989496475876
 20
987.49224806201551
 11
1378.6989496475876
 21
990.09032427336865
  0
LINE
  8
_0-0_
  6
CONTINUOUS
 62
    1
 10
1380.1989496475876
 20
987.49224806201551
 11
1381.6989496475876
 21
990.09032427336865
  0
LINE
  8
_0-0_
  6
CONTINUOUS
 62
    1
 10
1377.1989496475876
 20
1025.5976080185403
 11
1377.1989496475876
 21
1055.5976080185403
  0
LINE
  8
_0-0_
  6
CONTINUOUS
 62
    1
 10
1365.1989496475876
 20
1057.2422480620155
 11
1365.1989496475876
 21
1056.9922480620155
  0
LINE
  8
_0-0_
  6
CONTINUOUS
 62
    1
 10
1394.1989496475876
 20
1056.9922480620155
 11
1393.9489496475876
 21
1056.7422480620155
  0
LINE
  8
_0-0_
  6
CONTINUOUS
 62
    1
 10
1393.9489496475876
 20
1056.7422480620155
 11
1366.4489496475876
 21
1056.7422480620155
  0
LINE
  8
_0-0_
  6
CONTINUOUS
 62
    1
 10
1366.1989496475876
 20
1056.9922480620155
 11
1366.4489496475876
 21
1056.7422480620155
  0
LINE
  8
_0-0_
  6
CONTINUOUS
 62
    1
 10
1395.1989496475876
 20
1057.2422480620155
 11
1395.1989496475876
 21
1056.9922480620155
  0
LINE
  8
_0-0_
  6
CONTINUOUS
 62
    1
 10
1383.1989496475876
 20
1055.5976080185403
 11
1377.1989496475876
 21
1055.5976080185403
  0
LINE
  8
_0-0_
  6
CONTINUOUS
 62
    1
 10
1374.1989496475876
 20
1057.2422480620155
 11
1374.4489496475876
 21
1057.4922480620155
  0
LINE
  8
_0-0_
  6
CONTINUOUS
 62
    1
 10
1374.4489496475876
 20
1057.4922480620155
 11
1385.9489496475876
 21
1057.4922480620155
  0
LINE
  8
_0-0_
  6
CONTINUOUS
 62
    1
 10
1386.1989496475876
 20
1057.2422480620155
 11
1385.9489496475876
 21
1057.4922480620155
  0
LINE
  8
_0-0_
  6
CONTINUOUS
 62
    1
 10
1377.1989496475876
 20
1055.5976080185403
 11
1376.0543096041124
 21
1056.7422480620155
  0
LINE
  8
_0-0_
  6
CONTINUOUS
 62
    1
 10
1383.1989496475876
 20
1055.5976080185403
 11
1384.3435896910637
 21
1056.7422480620155
  0
LINE
  8
_0-0_
  6
CONTINUOUS
 62
    1
 10
1378.6989496475876
 20
1057.492248062016
 11
1378.6989496475876
 21
1057.492248062016
  0
LINE
  8
_0-0_
  6
CONTINUOUS
 62
    1
 10
1378.6989496475876
 20
1057.492248062016
 11
1378.1900523196334
 21
1057.8227917871964
  0
LINE
  8
_0-0_
  6
CONTINUOUS
 62
    1
 10
1382.2078469755418
 20
1057.8227917871964
 11
1382.2078469755418
 21
1057.8227917871964
  0
LINE
  8
_0-0_
  6
CONTINUOUS
 62
    1
 10
1382.2078469755418
 20
1057.8227917871964
 11
1381.6989496475876
 21
1057.492248062016
  0
LINE
  8
_0-0_
  6
CONTINUOUS
 62
    1
 10
1382.2078469755415
 20
1057.8227917871964
 11
1382.2078469755415
 21
1057.8227917871964
  0
LINE
  8
_0-0_
  6
CONTINUOUS
 62
    1
 10
1382.2078469755415
 20
1057.8227917871964
 11
1382.0013649313594
 21
1057.896891042014
  0
LINE
  8
_0-0_
  6
CONTINUOUS
 62
    1
 10
1382.0013649313594
 20
1057.896891042014
 11
1381.7401174108459
 21
1057.961896733608
  0
LINE
  8
_0-0_
  6
CONTINUOUS
 62
    1
 10
1381.7401174108459
 20
1057.961896733608
 11
1381.4320422877145
 21
1058.0158336969334
  0
LINE
  8
_0-0_
  6
CONTINUOUS
 62
    1
 10
1381.4320422877145
 20
1058.0158336969334
 11
1381.0865002686876
 21
1058.0570630846535
  0
LINE
  8
_0-0_
  6
CONTINUOUS
 62
    1
 10
1381.0865002686876
 20
1058.0570630846535
 11
1380.7139904731609
 21
1058.0843321626851
  0
LINE
  8
_0-0_
  6
CONTINUOUS
 62
    1
 10
1380.7139904731609
 20
1058.0843321626851
 11
1380.3258314227724
 21
1058.0968123738912
  0
LINE
  8
_0-0_
  6
CONTINUOUS
 62
    1
 10
1380.3258314227724
 20
1058.0968123738912
 11
1379.9338171338502
 21
1058.0941245133695
  0
LINE
  8
_0-0_
  6
CONTINUOUS
 62
    1
 10
1379.9338171338502
 20
1058.0941245133695
 11
1379.5498587621944
 21
1058.0763502504019
  0
LINE
  8
_0-0_
  6
CONTINUOUS
 62
    1
 10
1379.5498587621944
 20
1058.0763502504019
 11
1379.1856226886355
 21
1058.0440296469746
  0
LINE
  8
_0-0_
  6
CONTINUOUS
 62
    1
 10
1379.1856226886355
 20
1058.0440296469746
 11
1378.852176041956
 21
1057.9981447482674
  0
LINE
  8
_0-0_
  6
CONTINUOUS
 62
    1
 10
1378.852176041956
 20
1057.9981447482674
 11
1378.5596504297835
 21
1057.9400897437088
  0
LINE
  8
_0-0_
  6
CONTINUOUS
 62
    1
 10
1378.5596504297835
 20
1057.9400897437088
 11
1378.3169340948184
 21
1057.8716286052352
  0
LINE
  8
_0-0_
  6
CONTINUOUS
 62
    1
 10
1378.3169340948184
 20
1057.8716286052352
 11
1378.1900523196337
 21
1057.8227917871964
  0
LINE
  8
_0-0_
  6
CONTINUOUS
 62
    1
 10
1383.1989496475876
 20
1055.5976080185403
 11
1383.1989496475876
 21
1001.7307439664312
  0
LINE
  8
_0-0_
  6
DASHED1
 62
    1
 10
1378.6989496475876
 20
1057.4922480620155
 11
1378.6989496475876
 21
990.09032427336865
  0
LINE
  8
_0-0_
  6
DASHED1
 62
    1
 10
1381.6989496475876
 20
1057.4922480620155
 11
1381.6989496475876
 21
990.09032427336865
  0
LINE
  8
_0-0_
  6
CONTINUOUS
 62
    3
 10
1023.925499156113
 20
1056.9922480620155
 11
1523.9254991561129
 21
1056.9922480620155
  0
LINE
  8
_0-0_
  6
CONTINUOUS
 62
  136
 10
1053.0381975283208
 20
1058.9922480620155
 11
1082.209770403575
 21
1058.9922480620155
  0
LINE
  8
_0-0_
  6
DASHED1
 62
    1
 10
1066.3739839659474
 20
1060.9922480620155
 11
1066.3739839659474
 21
990.24224806201551
  0
LINE
  8
_0-0_
  6
CONTINUOUS
 62
    1
 10
1065.7991552068579
 20
1060.9922480620155
 11
1069.448812725037
 21
1060.9922480620155
  0
LINE
  8
_0-0_
  6
CONTINUOUS
 62
    1
 10
1065.7991552068579
 20
1060.9922480620155
 11
1065.7991552068579
 21
1060.9922480620155
  0
LINE
  8
_0-0_
  6
CONTINUOUS
 62
    1
 10
1065.7991552068579
 20
1060.9922480620155
 11
1062.4233741738046
 21
1060.1141820198286
  0
LINE
  8
_0-0_
  6
CONTINUOUS
 62
    1
 10
1062.4233741738046
 20
1060.1141820198286
 11
1060.1239839659474
 21
1058.9922480620155
  0
LINE
  8
_0-0_
  6
CONTINUOUS
 62
    1
 10
1069.1026963968218
 20
1061.1605766815917
 11
1069.1026963968218
 21
1061.1605766815917
  0
LINE
  8
_0-0_
  6
CONTINUOUS
 62
    1
 10
1069.1026963968218
 20
1061.1605766815917
 11
1068.8739839659474
 21
1060.9922480620155
  0
LINE
  8
_0-0_
  6
CONTINUOUS
 62
    1
 10
1066.3739839659474
 20
1060.9922480620155
 11
1066.3739839659474
 21
1060.9922480620155
  0
LINE
  8
_0-0_
  6
CONTINUOUS
 62
    1
 10
1066.3739839659474
 20
1060.9922480620155
 11
1066.1452715350731
 21
1061.1605766815917
  0
LINE
  8
_0-0_
  6
CONTINUOUS
 62
    1
 10
1069.1026963968218
 20
1061.1605766815917
 11
1069.1026963968218
 21
1061.1605766815917
  0
LINE
  8
_0-0_
  6
CONTINUOUS
 62
    1
 10
1069.1026963968218
 20
1061.1605766815917
 11
1068.8463917680394
 21
1061.1901163564924
  0
LINE
  8
_0-0_
  6
CONTINUOUS
 62
    1
 10
1068.8463917680394
 20
1061.1901163564924
 11
1068.5529448967586
 21
1061.2136439033914
  0
LINE
  8
_0-0_
  6
CONTINUOUS
 62
    1
 10
1068.5529448967586
 20
1061.2136439033914
 11
1068.2312720176719
 21
1061.230444449682
  0
LINE
  8
_0-0_
  6
CONTINUOUS
 62
    1
 10
1068.2312720176719
 20
1061.230444449682
 11
1067.8911469984364
 21
1061.2400075192666
  0
LINE
  8
_0-0_
  6
CONTINUOUS
 62
    1
 10
1067.8911469984364
 20
1061.2400075192666
 11
1067.5429043656495
 21
1061.2420425431148
  0
LINE
  8
_0-0_
  6
CONTINUOUS
 62
    1
 10
1067.5429043656495
 20
1061.2420425431148
 11
1067.1971252954895
 21
1061.2364876880572
  0
LINE
  8
_0-0_
  6
CONTINUOUS
 62
    1
 10
1067.1971252954895
 20
1061.2364876880572
 11
1066.8643161100304
 21
1061.2235117355533
  0
LINE
  8
_0-0_
  6
CONTINUOUS
 62
    1
 10
1066.8643161100304
 20
1061.2235117355533
 11
1066.554589047963
 21
1061.2035089533542
  0
LINE
  8
_0-0_
  6
CONTINUOUS
 62
    1
 10
1066.554589047963
 20
1061.2035089533542
 11
1066.2773550093384
 21
1061.1770871158749
  0
LINE
  8
_0-0_
  6
CONTINUOUS
 62
    1
 10
1066.2773550093384
 20
1061.1770871158749
 11
1066.1452715350731
 21
1061.1605766815917
  0
LINE
  8
_0-0_
  6
CONTINUOUS
 62
    1
 10
1065.1239839659474
 20
1058.9651078438176
 11
1065.1239839659474
 21
1058.9922480620155
  0
LINE
  8
_0-0_
  6
CONTINUOUS
 62
    1
 10
1075.1239839659474
 20
1058.9922480620155
 11
1075.1239839659474
 21
1058.9922480620155
  0
LINE
  8
_0-0_
  6
CONTINUOUS
 62
    1
 10
1075.1239839659474
 20
1058.9922480620155
 11
1074.9923621853832
 21
1059.0689403844765
  0
LINE
  8
_0-0_
  6
CONTINUOUS
 62
    1
 10
1074.9923621853832
 20
1059.0689403844765
 11
1074.9923621853832
 21
1059.0689403844765
  0
LINE
  8
_0-0_
  6
CONTINUOUS
 62
    1
 10
1074.9923621853832
 20
1059.0689403844765
 11
1071.7107008926105
 21
1060.5006417628972
  0
LINE
  8
_0-0_
  6
CONTINUOUS
 62
    1
 10
1071.7107008926105
 20
1060.5006417628972
 11
1069.448812725037
 21
1060.9922480620155
  0
LINE
  8
_0-0_
  6
CONTINUOUS
 62
    1
 10
1075.1239839659474
 20
1058.9922480620155
 11
1060.1239839659474
 21
1058.9922480620155
  0
LINE
  8
_0-0_
  6
CONTINUOUS
 62
    1
 10
1070.1239839659474
 20
997.99224806201551
 11
1070.5875144198626
 21
989.14756011194299
  0
LINE
  8
_0-0_
  6
CONTINUOUS
 62
    1
 10
1067.6239839659474
 20
988.99224806201551
 11
1066.9382516597507
 21
989.67798036821227
  0
LINE
  8
_0-0_
  6
CONTINUOUS
 62
    1
 10
1067.6239839659474
 20
988.99224806201551
 11
1068.3097162721447
 21
989.67798036821227
  0
LINE
  8
_0-0_
  6
DASHED1
 62
    1
 10
1066.9382516597507
 20
989.67798036821227
 11
1066.3739839659474
 21
990.24224806201551
  0
LINE
  8
_0-0_
  6
CONTINUOUS
 62
    1
 10
1065.1239839659474
 20
997.99224806201551
 11
1064.6604535120332
 21
989.14756011194299
  0
LINE
  8
_0-0_
  6
CONTINUOUS
 62
    1
 10
1067.3739839659474
 20
997.99224806201551
 11
1066.9042906443219
 21
989.02996559076678
  0
LINE
  8
_0-0_
  6
CONTINUOUS
 62
    1
 10
1067.8739839659474
 20
997.99224806201551
 11
1068.343677287573
 21
989.02996559076678
  0
LINE
  8
_0-0_
  6
DASHED1
 62
    1
 10
1068.3097162721447
 20
989.67798036821227
 11
1068.8739839659474
 21
990.24224806201551
  0
LINE
  8
_0-0_
  6
CONTINUOUS
 62
    1
 10
1070.5875144198626
 20
989.14756011194299
 11
1068.343677287573
 21
989.02996559076678
  0
LINE
  8
_0-0_
  6
CONTINUOUS
 62
    1
 10
1066.9042906443219
 20
989.02996559076678
 11
1064.6604535120332
 21
989.14756011194299
  0
LINE
  8
_0-0_
  6
CONTINUOUS
 62
    1
 10
1067.8739839659474
 20
997.99224806201551
 11
1067.3739839659474
 21
997.99224806201551
  0
LINE
  8
_0-0_
  6
DASHED1
 62
    1
 10
1068.8739839659474
 20
1060.9922480620155
 11
1068.8739839659474
 21
990.24224806201551
  0
LINE
  8
_0-0_
  6
CENTER2
 62
    1
 10
1067.6239839659474
 20
1069.5473384735117
 11
1067.6239839659474
 21
984.46189482865998
  0
LINE
  8
_0-0_
  6
CONTINUOUS
 62
    1
 10
1070.1239839659474
 20
997.99224806201551
 11
1070.1239839659474
 21
1058.9922480620155
  0
LINE
  8
_0-0_
  6
CONTINUOUS
 62
    1
 10
1065.1239839659474
 20
997.99224806201551
 11
1065.1239839659474
 21
1058.9922480620155
  0
LINE
  8
_0-0_
  6
CONTINUOUS
 62
    7
 10
1024.9254991561129
 20
1116.2765193094776
 11
1024.9254991561129
 21
1154.1049464342234
  0
LINE
  8
_0-0_
  6
CONTINUOUS
 62
    7
 10
1024.9254991561129
 20
1154.1049464342234
 11
1023.925499156113
 21
1154.1049464342234
  0
LINE
  8
_0-0_
  6
CONTINUOUS
 62
    1
 10
1385.1989496475876
 20
1015.9922480620155
 11
1375.1989496475876
 21
1015.9922480620155
  0
LINE
  8
_0-0_
  6
CONTINUOUS
 62
    1
 10
1375.1989496475876
 20
1015.9922480620155
 11
1375.1989496475876
 21
1050.9922480620155
  0
LINE
  8
_0-0_
  6
CONTINUOUS
 62
    1
 10
1375.1989496475876
 20
1050.9922480620155
 11
1385.1989496475876
 21
1050.9922480620155
  0
LINE
  8
_0-0_
  6
CONTINUOUS
 62
    1
 10
1385.1989496475876
 20
1050.9922480620155
 11
1385.1989496475876
 21
1015.9922480620155
  0
LINE
  8
_0-0_
  6
CONTINUOUS
 62
    1
 10
1376.1989496475876
 20
1015.9922480620155
 11
1376.1989496475876
 21
1050.9922480620155
  0
LINE
  8
_0-0_
  6
CONTINUOUS
 62
    1
 10
1384.1989496475876
 20
1050.9922480620155
 11
1384.1989496475876
 21
1015.9922480620155
  0
LINE
  8
_0-0_
  6
CONTINUOUS
 62
    1
 10
1072.6239839659474
 20
1015.9922480620155
 11
1062.6239839659474
 21
1015.9922480620155
  0
LINE
  8
_0-0_
  6
CONTINUOUS
 62
    1
 10
1062.6239839659474
 20
1015.9922480620155
 11
1062.6239839659474
 21
1050.9922480620155
  0
LINE
  8
_0-0_
  6
CONTINUOUS
 62
    1
 10
1062.6239839659474
 20
1050.9922480620155
 11
1072.6239839659474
 21
1050.9922480620155
  0
LINE
  8
_0-0_
  6
CONTINUOUS
 62
    1
 10
1072.6239839659474
 20
1050.9922480620155
 11
1072.6239839659474
 21
1015.9922480620155
  0
LINE
  8
_0-0_
  6
CONTINUOUS
 62
    1
 10
1063.6239839659474
 20
1015.9922480620155
 11
1063.6239839659474
 21
1050.9922480620155
  0
LINE
  8
_0-0_
  6
CONTINUOUS
 62
    1
 10
1071.6239839659474
 20
1050.9922480620155
 11
1071.6239839659474
 21
1015.9922480620155
  0
CIRCLE
  8
_0-0_
  6
DASHED2
 62
    1
 10
1052.209770403575
 20
1056.9922480620155
 40
80
  0
TEXT
  8
_0-0_
 62
    7
 10
1039.8152235685779
 20
1125.0712712978195
 40
24
 41
1
 50
0
  1
Ｂ
  0
LINE
  8
_0-0_
  6
CONTINUOUS
 62
    4
 10
1029.9254991561129
 20
1195.9922480620155
 11
1029.9254991561129
 21
1119.7765193094776
  0
LINE
  8
_0-0_
  6
CONTINUOUS
 62
    7
 10
1023.925499156113
 20
1015.9922480620155
 11
1023.925499156113
 21
1189.9922480620155
  0
TEXT
  8
_0-0_
 62
    7
 10
1277.1145957281797
 20
1111.6805495652627
 40
30
 41
1
 50
0
  1
断熱材
  0
LINE
  8
_0-0_
  6
CONTINUOUS
 62
    4
 10
1284.4444679205926
 20
543.49770633568573
 11
1284.4444679205926
 21
483.18433893083443
  0
LINE
  8
_0-0_
  6
CONTINUOUS
 62
    7
 10
1404.3340782273822
 20
344.16972862404532
 11
1489.4480392580604
 21
344.16972862404532
  0
LINE
  8
_0-0_
  6
CONTINUOUS
 62
  136
 10
1275.4444679205926
 20
407.42329996151261
 11
1336.4480392580604
 21
346.41972862404532
  0
LINE
  8
_0-0_
  6
CONTINUOUS
 62
    6
 10
1270.9444679205913
 20
311.48467456803178
 11
1287.8795219766066
 21
328.41972862404714
  0
LINE
  8
_0-0_
  6
CONTINUOUS
 62
    6
 10
1270.9444679205913
 20
279.66486941463722
 11
1319.6993271300012
 21
328.41972862404714
  0
LINE
  8
_0-0_
  6
CONTINUOUS
 62
    6
 10
1272.7691322833921
 20
249.6697286240435
 11
1351.5191322833921
 21
328.4197286240435
  0
LINE
  8
_0-0_
  6
CONTINUOUS
 62
    6
 10
1304.5889374367912
 20
249.66972862404714
 11
1383.3389374367912
 21
328.41972862404714
  0
LINE
  8
_0-0_
  6
CONTINUOUS
 62
    6
 10
1336.4087425901848
 20
249.66972862404714
 11
1415.1587425901848
 21
328.41972862404714
  0
LINE
  8
_0-0_
  6
CONTINUOUS
 62
    6
 10
1368.2285477435767
 20
249.66972862404532
 11
1446.9785477435757
 21
328.4197286240435
  0
LINE
  8
_0-0_
  6
CONTINUOUS
 62
    6
 10
1400.0483528969748
 20
249.66972862404714
 11
1478.7983528969748
 21
328.41972862404714
  0
LINE
  8
_0-0_
  6
CONTINUOUS
 62
    6
 10
1431.8681580503685
 20
249.66972862404714
 11
1510.6181580503685
 21
328.41972862404714
  0
LINE
  8
_0-0_
  6
CONTINUOUS
 62
    6
 10
1463.6879632037603
 20
249.6697286240435
 11
1542.4379632037603
 21
328.41972862404532
  0
LINE
  8
_0-0_
  6
CONTINUOUS
 62
    6
 10
1480.0460553747912
 20
328.4197286240435
 11
1558.7960553747912
 21
249.6697286240435
  0
LINE
  8
_0-0_
  6
CONTINUOUS
 62
    6
 10
1448.226250221393
 20
328.41972862404714
 11
1526.976250221393
 21
249.66972862404714
  0
LINE
  8
_0-0_
  6
CONTINUOUS
 62
    6
 10
1416.4064450680012
 20
328.4197286240435
 11
1495.1564450680003
 21
249.6697286240435
  0
LINE
  8
_0-0_
  6
CONTINUOUS
 62
    6
 10
1384.5866399146075
 20
328.4197286240435
 11
1463.3366399146066
 21
249.66972862404714
  0
LINE
  8
_0-0_
  6
CONTINUOUS
 62
    6
 10
1352.7668347612093
 20
328.41972862404714
 11
1431.5168347612093
 21
249.66972862404714
  0
LINE
  8
_0-0_
  6
CONTINUOUS
 62
    6
 10
1320.9470296078175
 20
328.4197286240435
 11
1399.6970296078175
 21
249.6697286240435
  0
LINE
  8
_0-0_
  6
CONTINUOUS
 62
    6
 10
1289.1272244544239
 20
328.4197286240435
 11
1367.8772244544239
 21
249.6697286240435
  0
LINE
  8
_0-0_
  6
CONTINUOUS
 62
    6
 10
1270.944467920594
 20
314.78268000447883
 11
1336.0574193010257
 21
249.66972862404714
  0
LINE
  8
_0-0_
  6
CONTINUOUS
 62
    6
 10
1270.9444679205913
 20
282.9628748510861
 11
1304.237614147632
 21
249.6697286240435
  0
LINE
  8
_0-0_
  6
CONTINUOUS
 62
    6
 10
1270.9444679205926
 20
251.14306969768791
 11
1272.4178089942352
 21
249.66972862404532
  0
LINE
  8
_0-0_
  6
CONTINUOUS
 62
    6
 10
1270.9444679205926
 20
328.41972862404532
 11
1270.9444679205926
 21
249.66972862404532
  0
LINE
  8
_0-0_
  6
CONTINUOUS
 62
    1
 10
1216.9444679205926
 20
440.24131944617352
 11
1218.4873656095356
 21
441.78421713511693
  0
LINE
  8
_0-0_
  6
CONTINUOUS
 62
    1
 10
1216.9444679205926
 20
440.24131944617352
 11
1218.4873656095356
 21
438.69842175723011
  0
LINE
  8
_0-0_
  6
DASHED1
 62
    1
 10
1218.4873656095356
 20
441.78421713511693
 11
1219.7569679205926
 21
443.05381944617352
  0
LINE
  8
_0-0_
  6
DASHED1
 62
    1
 10
1218.4873656095356
 20
438.69842175723011
 11
1219.7569679205926
 21
437.42881944617352
  0
LINE
  8
_0-0_
  6
CONTINUOUS
 62
    1
 10
1217.2939200329297
 20
433.57337592486533
 11
1217.0293323602832
 21
438.62200947251608
  0
LINE
  8
_0-0_
  6
CONTINUOUS
 62
    1
 10
1217.0293323602832
 20
441.86062941983096
 11
1217.2939200329297
 21
446.90926296748171
  0
LINE
  8
_0-0_
  6
CONTINUOUS
 62
    4
 10
1390.770301441371
 20
366.66972862404532
 11
1407.7090782273822
 21
366.66972862404532
  0
LINE
  8
_0-0_
  6
CONTINUOUS
 62
    7
 10
1489.4480392580604
 20
344.16972862404532
 11
1489.4480392580604
 21
341.91972862404532
  0
LINE
  8
_0-0_
  6
CONTINUOUS
 62
    7
 10
1336.4480392580604
 20
346.41972862404532
 11
1336.4480392580604
 21
348.66972862404532
  0
LINE
  8
_0-0_
  6
CONTINUOUS
 62
    7
 10
1273.1944679205926
 20
475.30933893083443
 11
1277.6944679205926
 21
475.30933893083443
  0
LINE
  8
_0-0_
  6
CONTINUOUS
 62
    7
 10
1275.4444679205926
 20
407.42329996151261
 11
1277.6944679205926
 21
407.42329996151261
  0
LINE
  8
_0-0_
  6
CONTINUOUS
 62
    1
 10
1237.1944679205926
 20
434.61631944617352
 11
1217.2939200329297
 21
433.57337592486533
  0
LINE
  8
_0-0_
  6
CONTINUOUS
 62
    1
 10
1275.4444679205926
 20
434.61631944617352
 11
1275.4444679205926
 21
423.36631944617352
  0
LINE
  8
_0-0_
  6
CONTINUOUS
 62
    1
 10
1275.4444679205926
 20
445.86631944617352
 11
1275.4444679205926
 21
457.11631944617352
  0
LINE
  8
_0-0_
  6
CONTINUOUS
 62
    1
 10
1279.9444679205926
 20
444.34718415412522
 11
1279.9444679205926
 21
436.13545473822182
  0
LINE
  8
_0-0_
  6
CONTINUOUS
 62
    1
 10
1279.9444679205926
 20
444.34718415412499
 11
1279.9444679205926
 21
444.34718415412499
  0
LINE
  8
_0-0_
  6
CONTINUOUS
 62
    1
 10
1279.9444679205926
 20
444.34718415412499
 11
1277.968819325672
 21
451.94269147849491
  0
LINE
  8
_0-0_
  6
CONTINUOUS
 62
    1
 10
1277.968819325672
 20
451.94269147849491
 11
1275.4444679205926
 21
457.11631944617352
  0
LINE
  8
_0-0_
  6
CONTINUOUS
 62
    1
 10
1275.4444679205926
 20
423.36631944617352
 11
1275.4444679205926
 21
423.36631944617352
  0
LINE
  8
_0-0_
  6
CONTINUOUS
 62
    1
 10
1275.4444679205926
 20
423.36631944617352
 11
1278.7418828977061
 21
430.73358148955327
  0
LINE
  8
_0-0_
  6
CONTINUOUS
 62
    1
 10
1278.7418828977061
 20
430.73358148955327
 11
1279.9444679205926
 21
436.13545473822205
  0
LINE
  8
_0-0_
  6
CONTINUOUS
 62
    1
 10
1280.3232073146389
 20
436.91421647670649
 11
1280.3232073146389
 21
436.91421647670649
  0
LINE
  8
_0-0_
  6
CONTINUOUS
 62
    1
 10
1280.3232073146389
 20
436.91421647670649
 11
1279.9444679205926
 21
437.42881944617352
  0
LINE
  8
_0-0_
  6
CONTINUOUS
 62
    1
 10
1279.9444679205926
 20
443.05381944617352
 11
1279.9444679205926
 21
443.05381944617352
  0
LINE
  8
_0-0_
  6
CONTINUOUS
 62
    1
 10
1279.9444679205926
 20
443.05381944617352
 11
1280.3232073146389
 21
443.56842241564055
  0
LINE
  8
_0-0_
  6
CONTINUOUS
 62
    1
 10
1280.3232073146389
 20
436.91421647670632
 11
1280.3232073146389
 21
436.91421647670632
  0
LINE
  8
_0-0_
  6
CONTINUOUS
 62
    1
 10
1280.3232073146389
 20
436.91421647670632
 11
1280.3896715831654
 21
437.49090189146676
  0
LINE
  8
_0-0_
  6
CONTINUOUS
 62
    1
 10
1280.3896715831654
 20
437.49090189146676
 11
1280.4426085636883
 21
438.15115735184855
  0
LINE
  8
_0-0_
  6
CONTINUOUS
 62
    1
 10
1280.4426085636883
 20
438.15115735184855
 11
1280.4804097928422
 21
438.87492132979332
  0
LINE
  8
_0-0_
  6
CONTINUOUS
 62
    1
 10
1280.4804097928422
 20
438.87492132979332
 11
1280.5019266994077
 21
439.64020262307355
  0
LINE
  8
_0-0_
  6
CONTINUOUS
 62
    1
 10
1280.5019266994077
 20
439.64020262307355
 11
1280.5065055030664
 21
440.42374854684385
  0
LINE
  8
_0-0_
  6
CONTINUOUS
 62
    1
 10
1280.5065055030664
 20
440.42374854684385
 11
1280.4940070791863
 21
441.20175145470387
  0
LINE
  8
_0-0_
  6
CONTINUOUS
 62
    1
 10
1280.4940070791863
 20
441.20175145470387
 11
1280.4648111860529
 21
441.95057212198674
  0
LINE
  8
_0-0_
  6
CONTINUOUS
 62
    1
 10
1280.4648111860529
 20
441.95057212198674
 11
1280.4198049261047
 21
442.64745801163861
  0
LINE
  8
_0-0_
  6
CONTINUOUS
 62
    1
 10
1280.4198049261047
 20
442.64745801163861
 11
1280.3603557917761
 21
443.27123459854369
  0
LINE
  8
_0-0_
  6
CONTINUOUS
 62
    1
 10
1280.3603557917761
 20
443.27123459854369
 11
1280.3232073146389
 21
443.56842241564055
  0
LINE
  8
_0-0_
  6
DASHED1
 62
    1
 10
1279.9444679205926
 20
443.05381944617352
 11
1219.7569679205926
 21
443.05381944617352
  0
LINE
  8
_0-0_
  6
DASHED1
 62
    1
 10
1279.9444679205926
 20
437.42881944617352
 11
1219.7569679205926
 21
437.42881944617352
  0
LINE
  8
_0-0_
  6
CONTINUOUS
 62
    1
 10
1237.1944679205926
 20
445.86631944617352
 11
1275.4444679205926
 21
445.86631944617352
  0
LINE
  8
_0-0_
  6
CONTINUOUS
 62
    1
 10
1237.1944679205926
 20
445.86631944617352
 11
1217.2939200329297
 21
446.90926296748171
  0
LINE
  8
_0-0_
  6
CONTINUOUS
 62
    1
 10
1237.1944679205926
 20
440.80381944617352
 11
1217.0293323602832
 21
441.86062941983096
  0
LINE
  8
_0-0_
  6
CONTINUOUS
 62
    1
 10
1237.1944679205926
 20
434.61631944617352
 11
1275.4444679205926
 21
434.61631944617352
  0
LINE
  8
_0-0_
  6
CONTINUOUS
 62
    1
 10
1237.1944679205926
 20
439.67881944617352
 11
1217.0293323602832
 21
438.62200947251608
  0
LINE
  8
_0-0_
  6
CONTINUOUS
 62
    1
 10
1237.1944679205926
 20
439.67881944617352
 11
1237.1944679205926
 21
440.80381944617352
  0
LINE
  8
_0-0_
  6
CONTINUOUS
 62
    7
 10
1277.6944679205926
 20
407.42329996151261
 11
1277.6944679205926
 21
422.80445288046417
  0
LINE
  8
_0-0_
  6
CONTINUOUS
 62
    7
 10
1277.6944679205926
 20
457.67818601188287
 11
1277.6944679205926
 21
475.30933893083443
  0
LINE
  8
_0-0_
  6
CONTINUOUS
 62
    7
 10
1277.6944679205926
 20
422.8044528804644
 11
1277.6944679205926
 21
422.8044528804644
  0
LINE
  8
_0-0_
  6
CONTINUOUS
 62
    7
 10
1277.6944679205926
 20
422.8044528804644
 11
1281.0343467213943
 21
430.56242192801722
  0
LINE
  8
_0-0_
  6
CONTINUOUS
 62
    7
 10
1281.0343467213943
 20
430.56242192801722
 11
1282.4268869858772
 21
438.6144793789008
  0
LINE
  8
_0-0_
  6
CONTINUOUS
 62
    7
 10
1282.4268869858772
 20
438.6144793789008
 11
1281.8297770827644
 21
446.71596754200766
  0
LINE
  8
_0-0_
  6
CONTINUOUS
 62
    7
 10
1281.8297770827644
 20
446.71596754200766
 11
1279.2611598943097
 21
454.62072679905259
  0
LINE
  8
_0-0_
  6
CONTINUOUS
 62
    7
 10
1279.2611598943097
 20
454.62072679905259
 11
1277.6944679205926
 21
457.67818601188264
  0
LINE
  8
_0-0_
  6
CENTER2
 62
    1
 10
1292.297480391861
 20
440.24131944617352
 11
1207.2991129138622
 21
440.24131944617352
  0
LINE
  8
_0-0_
  6
CONTINUOUS
 62
    4
 10
1288.9444679205926
 20
413.0151830535508
 11
1288.9444679205926
 21
420.18343446882886
  0
LINE
  8
_0-0_
  6
CONTINUOUS
 62
    4
 10
1288.9444679205926
 20
420.18343446882938
 11
1288.9444679205926
 21
420.18343446882938
  0
LINE
  8
_0-0_
  6
CONTINUOUS
 62
    4
 10
1288.9444679205926
 20
420.18343446882938
 11
1292.4776602730326
 21
429.89958389378637
  0
LINE
  8
_0-0_
  6
CONTINUOUS
 62
    4
 10
1292.4776602730326
 20
429.89958389378637
 11
1293.7158147974831
 21
439.92996172033196
  0
LINE
  8
_0-0_
  6
CONTINUOUS
 62
    4
 10
1293.7158147974831
 20
439.92996172033196
 11
1292.6213107952551
 21
449.96979999382268
  0
LINE
  8
_0-0_
  6
CONTINUOUS
 62
    4
 10
1292.6213107952551
 20
449.96979999382268
 11
1289.2274042166109
 21
459.71404330872173
  0
LINE
  8
_0-0_
  6
CONTINUOUS
 62
    4
 10
1289.2274042166109
 20
459.71404330872173
 11
1288.9444679205926
 21
460.29920442351766
  0
LINE
  8
_0-0_
  6
CONTINUOUS
 62
    4
 10
1288.9444679205926
 20
460.29920442351727
 11
1288.9444679205926
 21
478.68433893083443
  0
LINE
  8
_0-0_
  6
CONTINUOUS
 62
    4
 10
1288.9444679205926
 20
478.68433893083443
 11
1284.4444679205926
 21
483.18433893083443
  0
LINE
  8
_0-0_
  6
CONTINUOUS
 62
    7
 10
1404.3340782273822
 20
344.16972862404532
 11
1404.3340782273822
 21
348.66972862404532
  0
LINE
  8
_0-0_
  6
CONTINUOUS
 62
    7
 10
1336.4480392580604
 20
348.66972862404532
 11
1351.829192177011
 21
348.66972862404532
  0
LINE
  8
_0-0_
  6
CONTINUOUS
 62
    7
 10
1386.7029253084315
 20
348.66972862404532
 11
1404.3340782273822
 21
348.66972862404532
  0
LINE
  8
_0-0_
  6
CONTINUOUS
 62
    7
 10
1386.7029253084295
 20
348.66972862404532
 11
1386.7029253084295
 21
348.66972862404532
  0
LINE
  8
_0-0_
  6
CONTINUOUS
 62
    7
 10
1386.7029253084295
 20
348.66972862404532
 11
1378.9449562608766
 21
352.0096074248471
  0
LINE
  8
_0-0_
  6
CONTINUOUS
 62
    7
 10
1378.9449562608766
 20
352.0096074248471
 11
1370.8928988099931
 21
353.40214768933004
  0
LINE
  8
_0-0_
  6
CONTINUOUS
 62
    7
 10
1370.8928988099931
 20
353.40214768933004
 11
1362.7914106468863
 21
352.8050377862171
  0
LINE
  8
_0-0_
  6
CONTINUOUS
 62
    7
 10
1362.7914106468863
 20
352.8050377862171
 11
1354.8866513898413
 21
350.23642059776233
  0
LINE
  8
_0-0_
  6
CONTINUOUS
 62
    7
 10
1354.8866513898413
 20
350.23642059776233
 11
1351.8291921770112
 21
348.66972862404532
  0
LINE
  8
_0-0_
  6
CONTINUOUS
 62
    4
 10
1288.9444679205926
 20
413.0151830535508
 11
1335.2899223500985
 21
366.66972862404532
  0
LINE
  8
_0-0_
  6
CONTINUOUS
 62
    4
 10
1335.2899223500985
 20
366.66972862404532
 11
1347.761816044072
 21
366.66972862404532
  0
LINE
  8
_0-0_
  6
CONTINUOUS
 62
    4
 10
1390.7703014413703
 20
366.66972862404532
 11
1390.7703014413703
 21
366.66972862404532
  0
LINE
  8
_0-0_
  6
CONTINUOUS
 62
    4
 10
1390.7703014413703
 20
366.66972862404532
 11
1379.8766127568811
 21
370.30574991743583
  0
LINE
  8
_0-0_
  6
CONTINUOUS
 62
    4
 10
1379.8766127568811
 20
370.30574991743583
 11
1368.6605277578708
 21
371.43851364316492
  0
LINE
  8
_0-0_
  6
CONTINUOUS
 62
    4
 10
1368.6605277578708
 20
371.43851364316492
 11
1357.4628415114219
 21
370.03360134863254
  0
LINE
  8
_0-0_
  6
CONTINUOUS
 62
    4
 10
1357.4628415114219
 20
370.03360134863254
 11
1347.7618160440704
 21
366.66972862404532
  0
LINE
  8
_0-0_
  6
CONTINUOUS
 62
    4
 10
1407.7090782273822
 20
366.66972862404532
 11
1412.2090782273822
 21
362.16972862404532
  0
LINE
  8
_0-0_
  6
CONTINUOUS
 62
  136
 10
1270.9444679205926
 20
405.55933893083443
 11
1334.5840782273822
 21
341.91972862404532
  0
LINE
  8
_0-0_
  6
CONTINUOUS
 62
  136
 10
1334.5840782273822
 20
341.91972862404532
 11
1402.0840782273822
 21
341.91972862404532
  0
LINE
  8
_0-0_
  6
CONTINUOUS
 62
  136
 10
1402.0840782273822
 20
341.91972862404532
 11
1402.0840782273822
 21
346.41972862404532
  0
LINE
  8
_0-0_
  6
CONTINUOUS
 62
  136
 10
1270.9444679205926
 20
473.05933893083443
 11
1270.9444679205926
 21
405.55933893083443
  0
LINE
  8
_0-0_
  6
CONTINUOUS
 62
  136
 10
1270.9444679205926
 20
473.05933893083443
 11
1275.4444679205926
 21
473.05933893083443
  0
LINE
  8
_0-0_
  6
CONTINUOUS
 62
  136
 10
1275.4444679205926
 20
473.05933893083443
 11
1275.4444679205926
 21
407.42329996151261
  0
LINE
  8
_0-0_
  6
CONTINUOUS
 62
  136
 10
1336.4480392580604
 20
346.41972862404532
 11
1402.0840782273822
 21
346.41972862404532
  0
LINE
  8
_0-0_
  6
DASHED1
 62
    1
 10
1366.4535587427204
 20
350.91972862404532
 11
1366.4535587427204
 21
191.73222862404532
  0
LINE
  8
_0-0_
  6
CONTINUOUS
 62
    1
 10
1365.1601940347687
 20
350.91972862404532
 11
1373.3719234506721
 21
350.91972862404532
  0
LINE
  8
_0-0_
  6
CONTINUOUS
 62
    1
 10
1365.1601940347689
 20
350.91972862404532
 11
1365.1601940347689
 21
350.91972862404532
  0
LINE
  8
_0-0_
  6
CONTINUOUS
 62
    1
 10
1365.1601940347689
 20
350.91972862404532
 11
1357.564686710399
 21
348.94408002912479
  0
LINE
  8
_0-0_
  6
CONTINUOUS
 62
    1
 10
1357.564686710399
 20
348.94408002912479
 11
1352.3910587427204
 21
346.41972862404532
  0
LINE
  8
_0-0_
  6
CONTINUOUS
 62
    1
 10
1372.5931617121873
 20
351.29846801809157
 11
1372.5931617121873
 21
351.29846801809157
  0
LINE
  8
_0-0_
  6
CONTINUOUS
 62
    1
 10
1372.5931617121873
 20
351.29846801809157
 11
1372.0785587427204
 21
350.91972862404532
  0
LINE
  8
_0-0_
  6
CONTINUOUS
 62
    1
 10
1366.4535587427204
 20
350.91972862404532
 11
1366.4535587427204
 21
350.91972862404532
  0
LINE
  8
_0-0_
  6
CONTINUOUS
 62
    1
 10
1366.4535587427204
 20
350.91972862404532
 11
1365.9389557732534
 21
351.29846801809157
  0
LINE
  8
_0-0_
  6
CONTINUOUS
 62
    1
 10
1372.5931617121876
 20
351.29846801809157
 11
1372.5931617121876
 21
351.29846801809157
  0
LINE
  8
_0-0_
  6
CONTINUOUS
 62
    1
 10
1372.5931617121876
 20
351.29846801809157
 11
1372.0164762974271
 21
351.364932286618
  0
LINE
  8
_0-0_
  6
CONTINUOUS
 62
    1
 10
1372.0164762974271
 20
351.364932286618
 11
1371.3562208370454
 21
351.4178692671411
  0
LINE
  8
_0-0_
  6
CONTINUOUS
 62
    1
 10
1371.3562208370454
 20
351.4178692671411
 11
1370.6324568591006
 21
351.455670496295
  0
LINE
  8
_0-0_
  6
CONTINUOUS
 62
    1
 10
1370.6324568591006
 20
351.455670496295
 11
1369.8671755658204
 21
351.4771874028603
  0
LINE
  8
_0-0_
  6
CONTINUOUS
 62
    1
 10
1369.8671755658204
 20
351.4771874028603
 11
1369.08362964205
 21
351.48176620651907
  0
LINE
  8
_0-0_
  6
CONTINUOUS
 62
    1
 10
1369.08362964205
 20
351.48176620651907
 11
1368.3056267341899
 21
351.46926778263912
  0
LINE
  8
_0-0_
  6
CONTINUOUS
 62
    1
 10
1368.3056267341899
 20
351.46926778263912
 11
1367.556806066907
 21
351.44007188950553
  0
LINE
  8
_0-0_
  6
CONTINUOUS
 62
    1
 10
1367.556806066907
 20
351.44007188950553
 11
1366.8599201772552
 21
351.39506562955728
  0
LINE
  8
_0-0_
  6
CONTINUOUS
 62
    1
 10
1366.8599201772552
 20
351.39506562955728
 11
1366.2361435903501
 21
351.33561649522875
  0
LINE
  8
_0-0_
  6
CONTINUOUS
 62
    1
 10
1366.2361435903501
 20
351.33561649522875
 11
1365.9389557732534
 21
351.29846801809163
  0
LINE
  8
_0-0_
  6
CONTINUOUS
 62
    1
 10
1363.6410587427204
 20
346.35866313309839
 11
1363.6410587427204
 21
346.41972862404532
  0
LINE
  8
_0-0_
  6
CONTINUOUS
 62
    1
 10
1386.1410587427204
 20
346.41972862404532
 11
1386.1410587427204
 21
346.41972862404532
  0
LINE
  8
_0-0_
  6
CONTINUOUS
 62
    1
 10
1386.1410587427204
 20
346.41972862404532
 11
1385.8449097364507
 21
346.59228634958259
  0
LINE
  8
_0-0_
  6
CONTINUOUS
 62
    1
 10
1385.8449097364507
 20
346.59228634958259
 11
1385.8449097364507
 21
346.59228634958259
  0
LINE
  8
_0-0_
  6
CONTINUOUS
 62
    1
 10
1385.8449097364507
 20
346.59228634958259
 11
1378.461171827712
 21
349.81361445102908
  0
LINE
  8
_0-0_
  6
CONTINUOUS
 62
    1
 10
1378.461171827712
 20
349.81361445102908
 11
1373.3719234506718
 21
350.91972862404532
  0
LINE
  8
_0-0_
  6
CONTINUOUS
 62
    1
 10
1386.1410587427204
 20
346.41972862404532
 11
1352.3910587427204
 21
346.41972862404532
  0
LINE
  8
_0-0_
  6
CONTINUOUS
 62
    1
 10
1374.8910587427204
 20
209.16972862404532
 11
1375.9340022640295
 21
189.26918073638285
  0
LINE
  8
_0-0_
  6
CONTINUOUS
 62
    1
 10
1369.2660587427204
 20
188.91972862404532
 11
1367.7231610537779
 21
190.46262631298873
  0
LINE
  8
_0-0_
  6
CONTINUOUS
 62
    1
 10
1369.2660587427204
 20
188.91972862404532
 11
1370.8089564316638
 21
190.46262631298873
  0
LINE
  8
_0-0_
  6
DASHED1
 62
    1
 10
1367.7231610537779
 20
190.46262631298873
 11
1366.4535587427204
 21
191.73222862404532
  0
LINE
  8
_0-0_
  6
CONTINUOUS
 62
    1
 10
1363.6410587427204
 20
209.16972862404532
 11
1362.5981152214131
 21
189.26918073638285
  0
LINE
  8
_0-0_
  6
CONTINUOUS
 62
    1
 10
1368.7035587427204
 20
209.16972862404532
 11
1367.6467487690629
 21
189.00459306373546
  0
LINE
  8
_0-0_
  6
CONTINUOUS
 62
    1
 10
1369.8285587427204
 20
209.16972862404532
 11
1370.8853687163778
 21
189.00459306373546
  0
LINE
  8
_0-0_
  6
DASHED1
 62
    1
 10
1370.8089564316638
 20
190.46262631298873
 11
1372.0785587427204
 21
191.73222862404532
  0
LINE
  8
_0-0_
  6
CONTINUOUS
 62
    1
 10
1375.9340022640295
 20
189.26918073638285
 11
1370.8853687163778
 21
189.00459306373546
  0
LINE
  8
_0-0_
  6
CONTINUOUS
 62
    1
 10
1367.6467487690629
 20
189.00459306373546
 11
1362.5981152214131
 21
189.26918073638285
  0
LINE
  8
_0-0_
  6
CONTINUOUS
 62
    1
 10
1369.8285587427204
 20
209.16972862404532
 11
1368.7035587427204
 21
209.16972862404532
  0
LINE
  8
_0-0_
  6
DASHED1
 62
    1
 10
1372.0785587427204
 20
350.91972862404532
 11
1372.0785587427204
 21
191.73222862404532
  0
LINE
  8
_0-0_
  6
CENTER2
 62
    1
 10
1369.2660587427204
 20
370.16868204991101
 11
1369.2660587427204
 21
178.72643384899516
  0
LINE
  8
_0-0_
  6
CONTINUOUS
 62
    1
 10
1374.8910587427204
 20
209.16972862404532
 11
1374.8910587427204
 21
346.41972862404532
  0
LINE
  8
_0-0_
  6
CONTINUOUS
 62
    1
 10
1363.6410587427204
 20
209.16972862404532
 11
1363.6410587427204
 21
346.41972862404532
  0
LINE
  8
_0-0_
  6
CONTINUOUS
 62
    1
 10
1380.5160587427204
 20
249.66972862404532
 11
1358.0160587427204
 21
249.66972862404532
  0
LINE
  8
_0-0_
  6
CONTINUOUS
 62
    1
 10
1358.0160587427204
 20
249.66972862404532
 11
1358.0160587427204
 21
328.41972862404532
  0
LINE
  8
_0-0_
  6
CONTINUOUS
 62
    1
 10
1358.0160587427204
 20
328.41972862404532
 11
1380.5160587427204
 21
328.41972862404532
  0
LINE
  8
_0-0_
  6
CONTINUOUS
 62
    1
 10
1380.5160587427204
 20
328.41972862404532
 11
1380.5160587427204
 21
249.66972862404532
  0
LINE
  8
_0-0_
  6
CONTINUOUS
 62
    1
 10
1360.2660587427204
 20
249.66972862404532
 11
1360.2660587427204
 21
328.41972862404532
  0
LINE
  8
_0-0_
  6
CONTINUOUS
 62
    1
 10
1378.2660587427204
 20
328.41972862404532
 11
1378.2660587427204
 21
249.66972862404532
  0
LINE
  8
_0-0_
  6
CONTINUOUS
 62
    7
 10
1273.1944679205926
 20
475.30933893083443
 11
1273.1944679205926
 21
543.49770633568573
  0
LINE
  8
_0-0_
  6
CONTINUOUS
 62
    7
 10
1270.9444679205926
 20
249.66972862404532
 11
1270.9444679205926
 21
543.49770633568573
  0
LINE
  8
_0-0_
  6
CONTINUOUS
 62
    4
 10
1412.2090782273822
 20
362.16972862404532
 11
1558.7960553747903
 21
362.16972862404532
  0
LINE
  8
_0-0_
  6
CONTINUOUS
 62
    3
 10
1270.9444679205926
 20
341.91972862404532
 11
1558.7960553747903
 21
341.91972862404532
  0
LINE
  8
_0-0_
  6
CONTINUOUS
 62
    6
 10
1558.7960553747903
 20
328.41972862404532
 11
1270.9444679205926
 21
328.41972862404532
  0
LINE
  8
_0-0_
  6
CONTINUOUS
 62
    6
 10
1270.9444679205926
 20
249.66972862404532
 11
1558.7960553747912
 21
249.66972862404532
  0
LINE
  8
_0-0_
  6
CONTINUOUS
 62
    6
 10
1495.5077683571576
 20
249.66972862404532
 11
1558.7960553747903
 21
312.958015641678
  0
LINE
  8
_0-0_
  6
CONTINUOUS
 62
    6
 10
1543.6856656815767
 20
328.41972862404714
 11
1558.7960553747903
 21
313.30933893083261
  0
LINE
  8
_0-0_
  6
CONTINUOUS
 62
    6
 10
1527.3275735105522
 20
249.66972862404714
 11
1558.7960553747903
 21
281.13821048828527
  0
LINE
  8
_0-0_
  6
CONTINUOUS
 62
    6
 10
1511.8658605281848
 20
328.4197286240435
 11
1558.7960553747903
 21
281.48953377743624
  0
LINE
  8
_0-0_
  6
CONTINUOUS
 62
    7
 10
1270.9444679205926
 20
249.66972862404532
 11
1558.7960553747912
 21
249.66972862404532
  0
LINE
  8
_0-0_
  6
CONTINUOUS
 62
    7
 10
1383.0197856183077
 20
178.72643384899516
 11
1453.9630803933574
 21
249.66972862404532
  0
LINE
  8
_0-0_
  6
CONTINUOUS
 62
    7
 10
1398.9296881950049
 20
178.72643384899516
 11
1469.8729829700555
 21
249.66972862404532
  0
LINE
  8
_0-0_
  6
CONTINUOUS
 62
    7
 10
1414.8395907717022
 20
178.72643384899516
 11
1485.7828855467528
 21
249.66972862404532
  0
LINE
  8
_0-0_
  6
CONTINUOUS
 62
    7
 10
1207.2991129138622
 20
528.03254617556036
 11
1222.7642730739876
 21
543.49770633568573
  0
LINE
  8
_0-0_
  6
CONTINUOUS
 62
    7
 10
1207.2991129138622
 20
512.12264359886308
 11
1238.6741756506849
 21
543.49770633568573
  0
LINE
  8
_0-0_
  6
CONTINUOUS
 62
    7
 10
1207.2991129138622
 20
496.2127410221658
 11
1254.5840782273822
 21
543.49770633568573
  0
LINE
  8
_0-0_
  6
CONTINUOUS
 62
    7
 10
1369.0965100911858
 20
348.67445273808175
 11
1439.9193129778291
 21
471.34314567218303
  0
POINT
  8
_0-0_
 62
    7
 10
1369.0965100911858
 20
348.67445273808175
  0
TEXT
  8
_0-0_
 62
    7
 10
1442.089824079841
 20
463.89884706672296
 40
21.617968000000001
 41
1
 50
0
  1
ｱﾙﾐｻｽｱﾝｶｰ
  0
LINE
  8
_0-0_
  6
CONTINUOUS
 62
    7
 10
1284.4444679205926
 20
483.18433893083443
 11
1312.6041934034661
 21
531.95841419436351
  0
POINT
  8
_0-0_
 62
    7
 10
1284.4444679205926
 20
483.18433893083443
  0
LINE
  8
_0-0_
  6
CONTINUOUS
 62
    7
 10
1288.9444679205926
 20
460.29920442351818
 11
1311.8401406642397
 21
499.95567288898405
  0
POINT
  8
_0-0_
 62
    7
 10
1288.9444679205926
 20
460.29920442351818
  0
TEXT
  8
_0-0_
 62
    7
 10
1314.6016389175315
 20
489.6730219143858
 40
21.617968000000001
 41
1
 50
0
  1
ｳﾚﾀﾝ防水
  0
TEXT
  8
_0-0_
 62
    7
 10
1312.8411198177807
 20
524.00314435952737
 40
21.617968000000001
 41
1
 50
0
  1
ﾄｯﾌﾟｺｰﾄ
  0
LINE
  8
_0-0_
  6
CONTINUOUS
 62
    7
 10
1277.9867218688159
 20
440.27391680783444
 11
1439.9193129778291
 21
471.34314567218303
  0
POINT
  8
_0-0_
 62
    7
 10
1277.9867218688159
 20
440.27391680783444
  0
LINE
  8
_0-0_
  6
CONTINUOUS
 62
    7
 10
1543.6856656815767
 20
328.41972862404714
 11
1565.7506153446002
 21
366.63734250685252
  0
TEXT
  8
_0-0_
 62
    7
 10
1568.4231829080413
 20
356.38494765086602
 40
21.617968000000001
 41
1
 50
0
  1
ﾌﾟﾗｲﾏｰ
  0
LINE
  8
_0-0_
  6
CONTINUOUS
 62
    7
 10
1543.0618144426703
 20
265.40396955616438
 11
1577.651261719401
 21
325.31464964518659
  0
POINT
  8
_0-0_
 62
    7
 10
1543.0618144426703
 20
265.40396955616438
  0
TEXT
  8
_0-0_
 62
    7
 10
1578.9521479796826
 20
313.42677015856884
 40
21.617968000000001
 41
1
 50
0
  1
断熱材
  0
POINT
  8
_0-0_
 62
    7
 10
1543.6856656815767
 20
328.41972862404714
  0
LINE
  8
_0-0_
  6
CONTINUOUS
 62
    7
 10
1530.1856656815785
 20
341.91972862404532
 11
1569.5543128630816
 21
410.108225767661
  0
POINT
  8
_0-0_
 62
    7
 10
1530.1856656815785
 20
341.91972862404532
  0
TEXT
  8
_0-0_
 62
    7
 10
1570.7900763725538
 20
399.93596623382132
 40
21.617968000000001
 41
1
 50
0
  1
ﾗﾝｽﾛｯｸｼｰﾄ
  0
POINT
  8
_0-0_
 62
    7
 10
1449.1069237192066
 20
342.95633461661623
  0
LINE
  8
_0-0_
  6
CONTINUOUS
 62
    7
 10
1449.1069237192066
 20
342.95633461661623
 11
1478.0205691304159
 21
393.03623750086103
  0
TEXT
  8
_0-0_
 62
    7
 10
1480.1592191226714
 20
383.65346786930809
 40
21.617968000000001
 41
1
 50
0
  1
FJﾃｰﾌﾟ
  0
TEXT
  8
_0-0_
 62
    7
 10
1439.3345086497516
 20
413.45550651453982
 40
21.617968000000001
 41
1
 50
0
  1
ﾗﾝｽﾛｯｸｷｬﾝﾄ
  0
LINE
  8
_0-0_
  6
CONTINUOUS
 62
    7
 10
1391.9778445011643
 20
344.46174581530545
 11
1437.5006002986208
 21
423.30947175705137
  0
POINT
  8
_0-0_
 62
    7
 10
1391.9778445011643
 20
344.46174581530545
  0
LINE
  8
_0-0_
  6
CONTINUOUS
 62
    7
 10
1368.4731196272833
 20
835.99224806201551
 11
1523.9254991561138
 21
991.44462759084604
  0
LINE
  8
_0-0_
  6
CONTINUOUS
 62
    7
 10
1375.5441874391481
 20
835.99224806201551
 11
1523.9254991561129
 21
984.37355977898028
  0
LINE
  8
_0-0_
  6
CONTINUOUS
 62
    7
 10
1382.6152552510132
 20
835.99224806201551
 11
1523.9254991561138
 21
977.30249196711543
  0
LINE
  8
_0-0_
  6
CONTINUOUS
 62
    7
 10
672.13606690525205
 20
1553.3565543671132
 11
1706.8525777203677
 21
1553.3565543671132
  0
LINE
  8
_0-0_
  6
CONTINUOUS
 62
    7
 10
672.13606690525205
 20
1633.3565543671132
 11
1706.8525777203677
 21
1633.3565543671132
  0
LINE
  8
_0-0_
  6
CONTINUOUS
 62
    7
 10
672.13606690525205
 20
1473.3565543671132
 11
1706.8525777203677
 21
1473.3565543671132
  0
LINE
  8
_0-0_
  6
CONTINUOUS
 62
    7
 10
1189.4943223128098
 20
1633.3565543671132
 11
1189.4943223128098
 21
1473.3565543671132
  0
TEXT
  8
_0-0_
 62
    7
 10
1213.4943223128098
 20
1577.3565543671132
 40
20
 41
1
 50
0
  1
構造：ＲＣ造
  0
TEXT
  8
_0-0_
 62
    7
 10
1213.4943223128098
 20
1497.3565543671132
 40
20
 41
1
 50
0
  1
下地：コンクリートスラブ
  0
TEXT
  8
_0-0_
 62
    7
 10
696.13606690525205
 20
1577.3565543671132
 40
20
 41
1
 50
0
  1
図面番号：dan-kikai-SP-kabe-02
  0
TEXT
  8
_0-0_
 62
    7
 10
696.13606690525205
 20
1497.3565543671132
 40
20
 41
1
 50
0
  1
施工部位：壁面立上り（目地切り）
  0
ENDSEC
  0
EOF
