  0
SECTION
  2
HEADER
  9
$ACADVER
  1
AC1009
  9
$INSBASE
 10
0
 20
0
 30
0
  9
$EXTMIN
 10
0
 20
0
  9
$EXTMAX
 10
2378
 20
1682
  9
$LIMMIN
 10
0
 20
0
  9
$LIMMAX
 10
2378
 20
1682
  9
$LTSCALE
 40
1
  0
ENDSEC
  0
SECTION
  2
TABLES
  0
TABLE
  2
LTYPE
 70
     9
  0
LTYPE
  2
CONTINUOUS
 70
    64
  3
実線
 72
    65
 73
     0
 40
0.0
  0
LTYPE
  2
DASHED1
 70
    64
  3
--  --  --  --  --  --  --  --  
 72
    65
 73
     2
 40
2.5
 49
1.25
 49
-1.25
  0
LTYPE
  2
DASHED2
 70
    64
  3
----    ----    ----    ----    
 72
    65
 73
     2
 40
5.0
 49
2.5
 49
-2.5
  0
LTYPE
  2
DASHED3
 70
    64
  3
------  ------  ------  ------  
 72
    65
 73
     2
 40
5.0
 49
3.75
 49
-1.25
  0
LTYPE
  2
CENTER1
 70
    64
  3
----- - ----- - ----- - ----- - 
 72
    65
 73
     4
 40
10.0
 49
6.25
 49
-1.25
 49
1.25
 49
-1.25
  0
LTYPE
  2
CENTER2
 70
    64
  3
----------  --  ----------  --  
 72
    65
 73
     4
 40
20.0
 49
12.5
 49
-2.5
 49
2.5
 49
-2.5
  0
LTYPE
  2
PHANTOM1
 70
    64
  3
--- - - --- - - --- - - --- - - 
 72
    65
 73
     6
 40
10.0
 49
3.25
 49
-1.25
 49
1.25
 49
-1.25
 49
1.25
 49
-1.25
  0
LTYPE
  2
PHANTOM2
 70
    64
  3
--------  -  -  --------  -  -  
 72
    65
 73
     6
 40
20.0
 49
10.0
 49
-2.5
 49
1.25
 49
-2.5
 49
1.25
 49
-2.5
  0
LTYPE
  2
DOT
 70
    64
  3
-   -   -   -   -   -   -   -   
 72
    65
 73
     2
 40
2.5
 49
0.625
 49
-1.875
  0
LTYPE
  2
DUMMY
 70
    64
  3
ダミー
 72
    65
 73
     0
 40
0.0
  0
LTYPE
  2
RAND1
 70
    64
  3
ランダム線1
 72
    65
 73
     4
 40
10.0
 49
1.0
 49
-2.0
 49
3.0
 49
-4.0
  0
LTYPE
  2
RAND2
 70
    64
  3
ランダム線2
 72
    65
 73
     4
 40
14.0
 49
2.0
 49
-3.0
 49
4.0
 49
-5.0
  0
LTYPE
  2
RAND3
 70
    64
  3
ランダム線3
 72
    65
 73
     4
 40
18.0
 49
3.0
 49
-4.0
 49
5.0
 49
-6.0
  0
LTYPE
  2
RAND4
 70
    64
  3
ランダム線4
 72
    65
 73
     4
 40
22.0
 49
4.0
 49
-5.0
 49
6.0
 49
-7.0
  0
LTYPE
  2
RAND5
 70
    64
  3
ランダム線5
 72
    65
 73
     4
 40
26.0
 49
5.0
 49
-6.0
 49
7.0
 49
-8.0
  0
LTYPE
  2
LONG1
 70
    64
  3
----------  --  ----------  --  
 72
    65
 73
     4
 40
40.0
 49
32.5
 49
-2.5
 49
2.5
 49
-2.5
  0
LTYPE
  2
LONG2
 70
    64
  3
--------  -  -  --------  -  -  
 72
    65
 73
     6
 40
40.0
 49
30.0
 49
-2.5
 49
1.25
 49
-2.5
 49
1.25
 49
-2.5
  0
LTYPE
  2
LONG3
 70
    64
  3
+++++++++++++++..+++++++++++++++
 72
    65
 73
     2
 40
40.0
 49
37.5
 49
-2.5
  0
LTYPE
  2
LONG4
 70
    64
  3
+++++++++++++++..+++++++++++++++
 72
    65
 73
     2
 40
80.0
 49
75.0
 49
-5.0
  0
LTYPE
  2
LONG5
 70
    64
  3
----------  --  ----------  --  
 72
    65
 73
     4
 40
60.0
 49
37.5
 49
-7.5
 49
7.5
 49
-7.5
  0
LTYPE
  2
dashed
 70
   64
  3
-------   -------------   ------
 72
   65
 73
    2
 40
7.5
 49
6
 49
-1.5
  0
LTYPE
  2
dashed_spaced
 70
   64
  3
----        --------        ----
 72
   65
 73
    2
 40
12
 49
6
 49
-6
  0
LTYPE
  2
long_dashed_dotted
 70
   64
  3
------------- --- --------------
 72
   65
 73
    4
 40
15.25
 49
12
 49
-1.5
 49
0.25
 49
-1.5
  0
LTYPE
  2
long_dashed_double-dotted
 70
   64
  3
----------- --- --- ------------
 72
   65
 73
    6
 40
17
 49
12
 49
-1.5
 49
0.25
 49
-1.5
 49
0.25
 49
-1.5
  0
LTYPE
  2
long_dashed_triplicate-dotted
 70
   64
  3
--------- --- --- --- ----------
 72
   65
 73
    8
 40
18.75
 49
12
 49
-1.5
 49
0.25
 49
-1.5
 49
0.25
 49
-1.5
 49
0.25
 49
-1.5
  0
LTYPE
  2
dotted
 70
   64
  3
   -       -       -       -    
 72
   65
 73
    2
 40
1.75
 49
0.25
 49
-1.5
  0
LTYPE
  2
chain
 70
   64
  3
-------------- -- --------------
 72
   65
 73
    4
 40
18.5
 49
12
 49
-1.5
 49
3.5
 49
-1.5
  0
LTYPE
  2
chain_double_dash
 70
   64
  3
------------ -- -- -------------
 72
   65
 73
    6
 40
23.5
 49
12
 49
-1.5
 49
3.5
 49
-1.5
 49
3.5
 49
-1.5
  0
LTYPE
  2
dashed_dotted
 70
   64
  3
-----------     -     ----------
 72
   65
 73
    4
 40
9.25
 49
6
 49
-1.5
 49
0.25
 49
-1.5
  0
LTYPE
  2
double-dashed_dotted
 70
   64
  3
------   -----------   -   -----
 72
   65
 73
    6
 40
16.75
 49
6
 49
-1.5
 49
6
 49
-1.5
 49
0.25
 49
-1.5
  0
LTYPE
  2
dashed_double-dotted
 70
   64
  3
---------    -    -    ---------
 72
   65
 73
    6
 40
11
 49
6
 49
-1.5
 49
0.25
 49
-1.5
 49
0.25
 49
-1.5
  0
LTYPE
  2
double-dashed_double-dotted
 70
   64
  3
-----   ---------   -   -   ----
 72
   65
 73
    8
 40
18.5
 49
6
 49
-1.5
 49
6
 49
-1.5
 49
0.25
 49
-1.5
 49
0.25
 49
-1.5
  0
LTYPE
  2
dashed_triplicate-dotted
 70
   64
  3
-------    -    -    -    ------
 72
   65
 73
    8
 40
12.75
 49
6
 49
-1.5
 49
0.25
 49
-1.5
 49
0.25
 49
-1.5
 49
0.25
 49
-1.5
  0
LTYPE
  2
double-dashed_triplicate-dotted
 70
   64
  3
-----  ---------  -  -  -  -----
 72
   65
 73
   10
 40
20.25
 49
6
 49
-1.5
 49
6
 49
-1.5
 49
0.25
 49
-1.5
 49
0.25
 49
-1.5
 49
0.25
 49
-1.5
  0
LTYPE
  2
undefined
 70
   64
  3
--------------------------------
 72
   65
 73
    0
 40
0
  0
ENDTAB
  0
TABLE
  2
STYLE
  5
3
100
AcDbSymbolTable
 70
     1
  0
STYLE
  5
10
100
AcDbSymbolTableRecord
100
AcDbTextStyleTableRecord
  2
STANDARD
 70
     0
 40
0.0
 41
1.0
 50
0.0
 71
     0
 42
0.2
  3
txt
  4
bigfont.shx
  0
STYLE
  5
26
100
AcDbSymbolTableRecord
100
AcDbTextStyleTableRecord
  2
TATEGAKI
 70
    68
 40
0.0
 41
1.0
 50
0.0
 71
     0
 42
1.0
  3
txt
  4
bigfont.shx
  0
ENDTAB
  0
TABLE
  2
LAYER
 70
    2
  0
LAYER
  2
_0-0_
 70
   64
 62
    7
  6
CONTINUOUS
  0
LAYER
  2
ADD_LINE
 70
   64
 62
    7
  6
CONTINUOUS
  0
ENDTAB
  0
ENDSEC
  0
SECTION
  2
BLOCKS
  0
ENDSEC
  0
SECTION
  2
ENTITIES
  0
LINE
  8
_0-0_
  6
CONTINUOUS
 62
    7
 10
989.08437229390995
 20
900.1006918825417
 11
758.07299529390923
 21
900.1006918825417
  0
LINE
  8
_0-0_
  6
CONTINUOUS
 62
    7
 10
989.08437229390995
 20
1361.6868687810977
 11
989.08437229390995
 21
900.1006918825417
  0
LINE
  8
_0-0_
  6
CONTINUOUS
 62
    7
 10
1374.7843722939106
 20
900.1006918825417
 11
1589.2315502939109
 21
900.1006918825417
  0
LINE
  8
_0-0_
  6
CONTINUOUS
 62
    2
 10
1376.3499830577457
 20
1118.3004325817594
 11
1377.8877539518162
 21
1119.8382034758299
  0
LINE
  8
_0-0_
  6
CONTINUOUS
 62
    2
 10
1374.7884859574333
 20
1118.7188344687722
 11
1377.0359802294479
 21
1120.9663287407868
  0
LINE
  8
_0-0_
  6
CONTINUOUS
 62
    2
 10
1373.2269888571227
 20
1119.1372363557832
 11
1376.2756400259295
 21
1122.1858875245882
  0
LINE
  8
_0-0_
  6
CONTINUOUS
 62
    7
 10
1150.7843722939106
 20
1106.2217461596567
 11
1150.7843722939106
 21
700.86334575368278
  0
LINE
  8
_0-0_
  6
CONTINUOUS
 62
    7
 10
672.13606690525205
 20
567.53106997205509
 11
1706.8525777203686
 21
567.53106997205509
  0
LINE
  8
_0-0_
  6
CONTINUOUS
 62
    7
 10
672.13606690525205
 20
167.53106997205509
 11
1706.8525777203686
 21
167.53106997205509
  0
LINE
  8
_0-0_
  6
CONTINUOUS
 62
    7
 10
672.13606690525205
 20
627.53106997205509
 11
1706.8525777203686
 21
627.53106997205509
  0
LINE
  8
_0-0_
  6
CONTINUOUS
 62
    7
 10
1189.4943223128103
 20
627.53106997205509
 11
1189.4943223128103
 21
167.53106997205509
  0
LINE
  8
_0-0_
  6
CONTINUOUS
 62
    7
 10
672.13606690525205
 20
1633.3565543671114
 11
672.13606690525205
 21
167.53106997205509
  0
LINE
  8
_0-0_
  6
CONTINUOUS
 62
    7
 10
1706.8525777203686
 20
1633.3565543671114
 11
1706.8525777203686
 21
167.53106997205509
  0
LINE
  8
_0-0_
  6
CONTINUOUS
 62
    7
 10
1364.2843722939106
 20
1246.2217461596567
 11
1374.7843722939106
 21
1246.2217461596567
  0
LINE
  8
_0-0_
  6
CONTINUOUS
 62
    7
 10
1497.895766268437
 20
1351.4764552103745
 11
1505.1896791582585
 21
1343.9233873068181
  0
LINE
  8
_0-0_
  6
CONTINUOUS
 62
    7
 10
1463.1896791582549
 20
1246.2217461596567
 11
1459.6896791582585
 21
1256.7217461596567
  0
LINE
  8
_0-0_
  6
CONTINUOUS
 62
    7
 10
1459.6896791582585
 20
1256.7217461596567
 11
1449.1896791582585
 21
1256.7217461596567
  0
LINE
  8
_0-0_
  6
CONTINUOUS
 62
    7
 10
1449.1896791582585
 20
1256.7217461596567
 11
1449.1896791582585
 21
1246.2217461596567
  0
LINE
  8
_0-0_
  6
CONTINUOUS
 62
    7
 10
1505.1896791582585
 20
1343.9233873068181
 11
1497.895766268437
 21
1351.4764552103745
  0
LINE
  8
_0-0_
  6
CONTINUOUS
 62
    7
 10
1087.7843722939106
 20
1246.2217461596567
 11
1449.1896791582585
 21
1246.2217461596567
  0
LINE
  8
_0-0_
  6
CONTINUOUS
 62
    7
 10
996.63744019746457
 20
1368.9807816709174
 11
1497.895766268437
 21
1351.4764552103745
  0
LINE
  8
_0-0_
  6
CONTINUOUS
 62
    7
 10
996.63744019746457
 20
1368.9807816709174
 11
989.08437229390995
 21
1361.6868687810977
  0
LINE
  8
_0-0_
  6
CONTINUOUS
 62
    7
 10
1505.1896791582585
 20
1253.6463673621158
 11
1505.1896791582585
 21
1343.9233873068181
  0
LINE
  8
_0-0_
  6
CONTINUOUS
 62
    7
 10
1497.7650579557994
 20
1246.2217461596567
 11
1463.1896791582549
 21
1246.2217461596567
  0
LINE
  8
_0-0_
  6
CONTINUOUS
 62
    7
 10
1505.1896791582585
 20
1253.6463673621158
 11
1497.7650579557994
 21
1246.2217461596567
  0
LINE
  8
_0-0_
  6
CONTINUOUS
 62
  136
 10
1322.2843722939106
 20
1212.6217461596582
 11
1326.4843722939113
 21
1212.6217461596582
  0
LINE
  8
_0-0_
  6
CONTINUOUS
 62
  136
 10
1322.2843722939106
 20
1198.6217461596582
 11
1322.2843722939106
 21
1212.6217461596582
  0
LINE
  8
_0-0_
  6
CONTINUOUS
 62
  136
 10
1326.4843722939113
 20
1198.6217461596582
 11
1326.4843722939113
 21
1212.6217461596582
  0
LINE
  8
_0-0_
  6
CONTINUOUS
 62
  136
 10
1269.7843722939106
 20
1198.6217461596582
 11
1322.2843722939106
 21
1198.6217461596582
  0
LINE
  8
_0-0_
  6
CONTINUOUS
 62
  136
 10
1269.7843722939106
 20
1125.8217461596553
 11
1322.2843722939106
 21
1125.8217461596553
  0
LINE
  8
_0-0_
  6
CONTINUOUS
 62
  136
 10
1322.2843722939106
 20
1125.8217461596553
 11
1322.2843722939106
 21
1111.8217461596553
  0
LINE
  8
_0-0_
  6
CONTINUOUS
 62
  136
 10
1322.2843722939106
 20
1111.8217461596553
 11
1326.4843722939113
 21
1111.8217461596553
  0
LINE
  8
_0-0_
  6
CONTINUOUS
 62
  136
 10
1326.4843722939113
 20
1125.8217461596553
 11
1326.4843722939113
 21
1111.8217461596553
  0
LINE
  8
_0-0_
  6
CONTINUOUS
 62
    7
 10
1357.9843722939113
 20
1194.4217461596575
 11
1368.4843722939113
 21
1190.2217461596567
  0
LINE
  8
_0-0_
  6
CONTINUOUS
 62
    7
 10
1368.4843722939113
 20
1194.4217461596575
 11
1357.9843722939113
 21
1190.2217461596567
  0
LINE
  8
_0-0_
  6
CONTINUOUS
 62
    7
 10
1357.9843722939113
 20
1134.2217461596567
 11
1368.4843722939113
 21
1130.021746159656
  0
LINE
  8
_0-0_
  6
CONTINUOUS
 62
    7
 10
1368.4843722939113
 20
1134.2217461596567
 11
1357.9843722939113
 21
1130.021746159656
  0
LINE
  8
_0-0_
  6
CONTINUOUS
 62
    7
 10
1357.9843722939113
 20
1134.2217461596567
 11
1357.9843722939113
 21
1130.021746159656
  0
LINE
  8
_0-0_
  6
CONTINUOUS
 62
    7
 10
1368.4843722939113
 20
1134.2217461596567
 11
1368.4843722939113
 21
1130.021746159656
  0
LINE
  8
_0-0_
  6
CONTINUOUS
 62
    7
 10
1368.4843722939113
 20
1194.4217461596575
 11
1368.4843722939113
 21
1190.2217461596567
  0
LINE
  8
_0-0_
  6
CONTINUOUS
 62
    7
 10
1357.9843722939113
 20
1194.4217461596575
 11
1357.9843722939113
 21
1190.2217461596567
  0
LINE
  8
_0-0_
  6
CONTINUOUS
 62
    2
 10
1370.2522057497408
 20
1130.0217461596596
 11
1374.4522057497416
 21
1134.2217461596567
  0
LINE
  8
_0-0_
  6
CONTINUOUS
 62
    2
 10
1368.4843722939113
 20
1130.2338116911499
 11
1372.4723067624182
 21
1134.2217461596567
  0
LINE
  8
_0-0_
  6
CONTINUOUS
 62
    2
 10
1368.4843722939113
 20
1132.2137106784733
 11
1370.4924077750948
 21
1134.2217461596567
  0
LINE
  8
_0-0_
  6
CONTINUOUS
 62
    2
 10
1368.4843722939113
 20
1134.1936096657948
 11
1368.512508787775
 21
1134.2217461596567
  0
LINE
  8
_0-0_
  6
CONTINUOUS
 62
    2
 10
1369.075337142749
 20
1190.2217461596586
 11
1373.2753371427498
 21
1194.4217461596575
  0
LINE
  8
_0-0_
  6
CONTINUOUS
 62
    2
 10
1368.4843722939113
 20
1191.6106802981424
 11
1371.2954381554264
 21
1194.4217461596556
  0
LINE
  8
_0-0_
  6
CONTINUOUS
 62
    2
 10
1368.4843722939113
 20
1193.5905792854658
 11
1369.315539168103
 21
1194.4217461596556
  0
LINE
  8
_0-0_
  6
CONTINUOUS
 62
    7
 10
1364.2843722939106
 20
1115.3217461596553
 11
1364.2843722939106
 21
1125.8217461596553
  0
LINE
  8
_0-0_
  6
CONTINUOUS
 62
    7
 10
1364.2843722939106
 20
1115.3217461596553
 11
1374.7843722939106
 21
1112.50827963913
  0
LINE
  8
_0-0_
  6
CONTINUOUS
 62
  136
 10
1269.7843722939106
 20
1198.6217461596582
 11
1269.7843722939106
 21
1194.4217461596575
  0
LINE
  8
_0-0_
  6
CONTINUOUS
 62
  136
 10
1269.7843722939106
 20
1130.021746159656
 11
1269.7843722939106
 21
1125.8217461596553
  0
LINE
  8
_0-0_
  6
CONTINUOUS
 62
    2
 10
1364.2843722939106
 20
1122.0740137165042
 11
1368.0321047370635
 21
1125.8217461596553
  0
LINE
  8
_0-0_
  6
CONTINUOUS
 62
    2
 10
1364.2843722939142
 20
1124.0539127038294
 11
1366.0522057497437
 21
1125.8217461596589
  0
LINE
  8
_0-0_
  6
CONTINUOUS
 62
    7
 10
1364.2843722939106
 20
1235.7217461596567
 11
1364.2843722939106
 21
1246.2217461596567
  0
LINE
  8
_0-0_
  6
CONTINUOUS
 62
    7
 10
1364.2843722939106
 20
1235.7217461596567
 11
1374.7843722939106
 21
1232.9082796391278
  0
LINE
  8
_0-0_
  6
CONTINUOUS
 62
  136
 10
1374.7843722939106
 20
1130.021746159656
 11
1374.7843722939106
 21
1125.8217461596553
  0
LINE
  8
_0-0_
  6
CONTINUOUS
 62
  136
 10
1374.7843722939106
 20
1198.6217461596582
 11
1374.7843722939106
 21
1194.4217461596575
  0
LINE
  8
_0-0_
  6
CONTINUOUS
 62
  136
 10
1326.4843722939113
 20
1198.6217461596582
 11
1374.7843722939106
 21
1198.6217461596582
  0
LINE
  8
_0-0_
  6
CONTINUOUS
 62
  136
 10
1269.7843722939106
 20
1194.4217461596575
 11
1374.7843722939106
 21
1194.4217461596575
  0
LINE
  8
_0-0_
  6
CONTINUOUS
 62
  136
 10
1269.7843722939106
 20
1130.021746159656
 11
1374.7843722939106
 21
1130.021746159656
  0
LINE
  8
_0-0_
  6
CONTINUOUS
 62
  136
 10
1326.4843722939113
 20
1125.8217461596553
 11
1374.7843722939106
 21
1125.8217461596553
  0
ARC
  8
_0-0_
  6
CONTINUOUS
 62
    2
 10
1387.1289294274357
 20
1132.1217461596564
 40
12.521904440733111
 50
170.34552531892481
 51
189.65447468107519
  0
LINE
  8
_0-0_
  6
CONTINUOUS
 62
    2
 10
1372.2321047370642
 20
1130.021746159656
 11
1374.6101114688609
 21
1132.3997528914545
  0
LINE
  8
_0-0_
  6
CONTINUOUS
 62
    2
 10
1374.212003724384
 20
1130.021746159656
 11
1374.7099334296327
 21
1130.519675864901
  0
ARC
  8
_0-0_
  6
CONTINUOUS
 62
    2
 10
1384.7671180513389
 20
1192.3217461596571
 40
10.201235849513667
 50
168.12030433418508
 51
191.87969566581492
  0
LINE
  8
_0-0_
  6
CONTINUOUS
 62
    2
 10
1373.0351351173922
 20
1190.2217461596549
 11
1374.5809466415012
 21
1191.7675576837621
  0
LINE
  8
_0-0_
  6
CONTINUOUS
 62
    2
 10
1371.0552361300688
 20
1190.2217461596549
 11
1374.6805631171774
 21
1193.8470731467653
  0
LINE
  8
_0-0_
  6
CONTINUOUS
 62
    7
 10
1364.2843722939106
 20
1209.1217461596582
 11
1364.2843722939106
 21
1198.6217461596582
  0
LINE
  8
_0-0_
  6
CONTINUOUS
 62
    7
 10
1364.2843722939106
 20
1209.1217461596582
 11
1374.7843722939106
 21
1211.9352126801834
  0
LINE
  8
_0-0_
  6
CONTINUOUS
 62
    2
 10
1364.2843722939106
 20
1242.8478519431676
 11
1367.6582665103997
 21
1246.2217461596567
  0
LINE
  8
_0-0_
  6
CONTINUOUS
 62
    2
 10
1364.2843722939106
 20
1244.827750930491
 11
1365.6783675230799
 21
1246.2217461596567
  0
LINE
  8
_0-0_
  6
CONTINUOUS
 62
    7
 10
1374.7843722939106
 20
1232.9082796391278
 11
1374.7843722939106
 21
1211.9352126801834
  0
CIRCLE
  8
_0-0_
  6
DASHED2
 62
    1
 10
1350.9106371874441
 20
1161.6510549350435
 40
67.350194333739935
  0
TEXT
  8
_0-0_
 62
    7
 10
1329.720462786765
 20
1218.0037741454519
 40
24
 41
1
 50
0
  1
Ａ
  0
LINE
  8
_0-0_
  6
CONTINUOUS
 62
  136
 10
1269.7843722939106
 20
1198.6217461596582
 11
1269.7843722939106
 21
1194.4217461596575
  0
LINE
  8
_0-0_
  6
CONTINUOUS
 62
  136
 10
1269.7843722939106
 20
1130.021746159656
 11
1269.7843722939106
 21
1125.8217461596553
  0
LINE
  8
_0-0_
  6
CONTINUOUS
 62
    7
 10
1087.7843722939106
 20
732.17009188254201
 11
1087.7843722939106
 21
1246.2217461596567
  0
LINE
  8
_0-0_
  6
CONTINUOUS
 62
    7
 10
1269.7843722939106
 20
1194.4217461596575
 11
1269.7843722939106
 21
1246.2217461596567
  0
LINE
  8
_0-0_
  6
CONTINUOUS
 62
    7
 10
1269.7843722939106
 20
734.1006918825417
 11
1269.7843722939106
 21
1130.021746159656
  0
LINE
  8
_0-0_
  6
CONTINUOUS
 62
    7
 10
1440.3785802167149
 20
732.17009188254019
 11
1584.7843722939106
 21
876.57588395973767
  0
LINE
  8
_0-0_
  6
CONTINUOUS
 62
    7
 10
1433.3075124048482
 20
732.17009188254201
 11
1584.7843722939106
 21
883.64695177160434
  0
LINE
  8
_0-0_
  6
CONTINUOUS
 62
    7
 10
1426.2364445929816
 20
732.17009188254201
 11
1584.7843722939106
 21
890.71801958346737
  0
LINE
  8
_0-0_
  6
CONTINUOUS
 62
    7
 10
987.83024025732277
 20
732.17009188254201
 11
1087.7843722939106
 21
832.1242239191281
  0
LINE
  8
_0-0_
  6
CONTINUOUS
 62
    7
 10
1269.7843722939106
 20
1014.1242239191281
 11
1369.5665415484109
 21
1113.9063931736284
  0
LINE
  8
_0-0_
  6
CONTINUOUS
 62
    7
 10
980.75917244545792
 20
732.17009188254201
 11
1087.7843722939087
 21
839.19529173099295
  0
LINE
  8
_0-0_
  6
CONTINUOUS
 62
    7
 10
1269.7843722939106
 20
1021.1952917309948
 11
1364.2843722939106
 21
1115.6952917309948
  0
LINE
  8
_0-0_
  6
CONTINUOUS
 62
    7
 10
1494.8108267225725
 20
1246.2217461596567
 11
1505.1896791582585
 21
1256.6005985953427
  0
LINE
  8
_0-0_
  6
CONTINUOUS
 62
    7
 10
973.68810463359125
 20
732.17009188254019
 11
1087.7843722939106
 21
846.2663595428578
  0
LINE
  8
_0-0_
  6
CONTINUOUS
 62
    7
 10
1269.7843722939106
 20
1028.2663595428596
 11
1364.2843722939106
 21
1122.7663595428614
  0
LINE
  8
_0-0_
  6
CONTINUOUS
 62
    7
 10
1487.7397589107059
 20
1246.2217461596549
 11
1505.1896791582585
 21
1263.6716664072057
  0
LINE
  8
_0-0_
  6
CONTINUOUS
 62
    7
 10
989.08437229390813
 20
959.69839389882077
 11
1087.7843722939106
 21
1058.3983938988215
  0
LINE
  8
_0-0_
  6
CONTINUOUS
 62
    7
 10
1269.7843722939106
 20
1240.3983938988251
 11
1384.8114257923517
 21
1355.4254473972626
  0
LINE
  8
_0-0_
  6
CONTINUOUS
 62
    7
 10
989.08437229390813
 20
966.76946171068744
 11
1087.7843722939087
 21
1065.4694617106882
  0
LINE
  8
_0-0_
  6
CONTINUOUS
 62
    7
 10
1268.5366567428773
 20
1246.2217461596567
 11
1377.9789531815841
 21
1355.6640425983653
  0
LINE
  8
_0-0_
  6
CONTINUOUS
 62
    7
 10
989.08437229390995
 20
973.84052952255411
 11
1087.7843722939106
 21
1072.540529522553
  0
LINE
  8
_0-0_
  6
CONTINUOUS
 62
    7
 10
1261.4655889310125
 20
1246.2217461596567
 11
1371.1464805708201
 21
1355.9026377994644
  0
LINE
  8
_0-0_
  6
CONTINUOUS
 62
    7
 10
989.08437229390995
 20
1185.9725638785178
 11
1166.1723022478327
 21
1363.0604938324407
  0
LINE
  8
_0-0_
  6
CONTINUOUS
 62
    7
 10
989.08437229390995
 20
1193.0436316903827
 11
1159.3398296370651
 21
1363.2990890335398
  0
LINE
  8
_0-0_
  6
CONTINUOUS
 62
    7
 10
989.08437229390995
 20
1200.1146995022475
 11
1152.5073570263012
 21
1363.5376842346407
  0
LINE
  8
_0-0_
  6
CONTINUOUS
 62
    7
 10
1206.7843722939106
 20
1106.2217461596567
 11
1206.7843722939106
 21
700.86341575368101
  0
LINE
  8
_0-0_
  6
CONTINUOUS
 62
    7
 10
1143.7843722939106
 20
1106.2217461596567
 11
1213.7843722939106
 21
1106.2217461596567
  0
LINE
  8
_0-0_
  6
CONTINUOUS
 62
    7
 10
1234.7843722939106
 20
1197.2217461596567
 11
1234.7843722939106
 21
1127.2217461596567
  0
LINE
  8
_0-0_
  6
CONTINUOUS
 62
    7
 10
1206.7843722939106
 20
700.86341575368101
 11
1205.6039132939113
 21
699.11111975368226
  0
LINE
  8
_0-0_
  6
CONTINUOUS
 62
    7
 10
1204.2059432939095
 20
697.52805575368188
 11
1202.6141502939099
 21
696.14027075368108
  0
LINE
  8
_0-0_
  6
CONTINUOUS
 62
    7
 10
1200.8556172939097
 20
694.97145975368153
 11
1198.9598002939092
 21
694.04118775368192
  0
LINE
  8
_0-0_
  6
CONTINUOUS
 62
    7
 10
1196.9591022939094
 20
693.36537975368196
 11
1194.8877392939103
 21
692.95552275368141
  0
LINE
  8
_0-0_
  6
CONTINUOUS
 62
    7
 10
1192.7883272939107
 20
692.81845575368175
 11
1190.6809982939121
 21
692.95552275368141
  0
LINE
  8
_0-0_
  6
CONTINUOUS
 62
    7
 10
1188.6096352939094
 20
693.36537975368196
 11
1186.6089372939095
 21
694.04118775368192
  0
LINE
  8
_0-0_
  6
CONTINUOUS
 62
    7
 10
1184.7131202939127
 20
694.97145975368153
 11
1182.9545872939125
 21
696.14027075368108
  0
LINE
  8
_0-0_
  6
CONTINUOUS
 62
    7
 10
1181.3627942939092
 20
697.52805575368188
 11
1179.9648242939111
 21
699.11111975368226
  0
LINE
  8
_0-0_
  6
CONTINUOUS
 62
    7
 10
1178.7843722939106
 20
700.86341575368101
 11
1177.6039132939113
 21
702.6156347536828
  0
LINE
  8
_0-0_
  6
CONTINUOUS
 62
    7
 10
1176.2059432939095
 20
704.19869875368136
 11
1174.6141502939099
 21
705.58648375368216
  0
LINE
  8
_0-0_
  6
CONTINUOUS
 62
    7
 10
1172.8556172939097
 20
706.75529475368171
 11
1170.9598002939092
 21
707.68556675368131
  0
LINE
  8
_0-0_
  6
CONTINUOUS
 62
    7
 10
1168.9591022939094
 20
708.36137475368128
 11
1166.8877392939103
 21
708.77123175368183
  0
LINE
  8
_0-0_
  6
CONTINUOUS
 62
    7
 10
1164.7804102939117
 20
708.90829875368331
 11
1162.6809982939085
 21
708.77123175368183
  0
LINE
  8
_0-0_
  6
CONTINUOUS
 62
    7
 10
1160.6096352939094
 20
708.36137475368128
 11
1158.6089372939095
 21
707.68556675368131
  0
LINE
  8
_0-0_
  6
CONTINUOUS
 62
    7
 10
1156.7131202939127
 20
706.75529475368171
 11
1154.9545872939125
 21
705.58648375368216
  0
LINE
  8
_0-0_
  6
CONTINUOUS
 62
    7
 10
1153.3627942939092
 20
704.19869875368136
 11
1151.9648242939111
 21
702.6156347536828
  0
LINE
  8
_0-0_
  6
CONTINUOUS
 62
    7
 10
1178.7843722939106
 20
700.86341575368101
 11
1179.9648242939111
 21
699.11111975368226
  0
LINE
  8
_0-0_
  6
CONTINUOUS
 62
    7
 10
1181.3627942939092
 20
697.52805575368188
 11
1182.9545872939125
 21
696.14027075368108
  0
LINE
  8
_0-0_
  6
CONTINUOUS
 62
    7
 10
1184.7131202939127
 20
694.97145975368153
 11
1186.6089372939095
 21
694.04118775368192
  0
LINE
  8
_0-0_
  6
CONTINUOUS
 62
    7
 10
1188.6096352939094
 20
693.36537975368196
 11
1190.6809982939121
 21
692.95552275368141
  0
LINE
  8
_0-0_
  6
CONTINUOUS
 62
    7
 10
1192.7883272939107
 20
692.81845575368175
 11
1194.8877392939103
 21
692.95552275368141
  0
LINE
  8
_0-0_
  6
CONTINUOUS
 62
    7
 10
1196.9591022939094
 20
693.36537975368196
 11
1198.9598002939092
 21
694.04118775368192
  0
LINE
  8
_0-0_
  6
CONTINUOUS
 62
    7
 10
1200.8556172939097
 20
694.97145975368153
 11
1202.6141502939099
 21
696.14027075368108
  0
LINE
  8
_0-0_
  6
CONTINUOUS
 62
    7
 10
1204.2059432939095
 20
697.52805575368188
 11
1205.6039132939113
 21
699.11111975368226
  0
LINE
  8
_0-0_
  6
CONTINUOUS
 62
    7
 10
1150.7843722939106
 20
700.86334575368278
 11
1151.9648242939111
 21
702.6156347536828
  0
LINE
  8
_0-0_
  6
CONTINUOUS
 62
    7
 10
1153.3627942939092
 20
704.19869875368136
 11
1154.9545872939125
 21
705.58648375368216
  0
LINE
  8
_0-0_
  6
CONTINUOUS
 62
    7
 10
1156.7131202939127
 20
706.75529475368171
 11
1158.6089372939095
 21
707.68556675368131
  0
LINE
  8
_0-0_
  6
CONTINUOUS
 62
    7
 10
1160.6096352939094
 20
708.36137475368128
 11
1162.6809982939085
 21
708.77123175368183
  0
LINE
  8
_0-0_
  6
CONTINUOUS
 62
    7
 10
1164.7804102939117
 20
708.90829875368331
 11
1166.8877392939103
 21
708.77123175368183
  0
LINE
  8
_0-0_
  6
CONTINUOUS
 62
    7
 10
1168.9591022939094
 20
708.36137475368128
 11
1170.9598002939092
 21
707.68556675368131
  0
LINE
  8
_0-0_
  6
CONTINUOUS
 62
    7
 10
1172.8556172939097
 20
706.75529475368171
 11
1174.6141502939099
 21
705.58648375368216
  0
LINE
  8
_0-0_
  6
CONTINUOUS
 62
    7
 10
1176.2059432939095
 20
704.19869875368136
 11
1177.6039132939113
 21
702.6156347536828
  0
LINE
  8
_0-0_
  6
CONTINUOUS
 62
    7
 10
1178.7843722939106
 20
700.86341575368101
 11
1177.6039132939113
 21
699.11111975368226
  0
LINE
  8
_0-0_
  6
CONTINUOUS
 62
    7
 10
1176.2059432939095
 20
697.52805575368188
 11
1174.6141502939099
 21
696.14027075368108
  0
LINE
  8
_0-0_
  6
CONTINUOUS
 62
    7
 10
1172.8556172939097
 20
694.97145975368153
 11
1170.9598002939092
 21
694.04118775368192
  0
LINE
  8
_0-0_
  6
CONTINUOUS
 62
    7
 10
1168.9591022939094
 20
693.36537975368196
 11
1166.8877392939103
 21
692.95552275368141
  0
LINE
  8
_0-0_
  6
CONTINUOUS
 62
    7
 10
1164.7883272939107
 20
692.81845575368175
 11
1162.6809982939085
 21
692.95552275368141
  0
LINE
  8
_0-0_
  6
CONTINUOUS
 62
    7
 10
1160.6096352939094
 20
693.36537975368196
 11
1158.6089372939095
 21
694.04118775368192
  0
LINE
  8
_0-0_
  6
CONTINUOUS
 62
    7
 10
1156.7131202939127
 20
694.97145975368153
 11
1154.9545872939125
 21
696.14027075368108
  0
LINE
  8
_0-0_
  6
CONTINUOUS
 62
    7
 10
1153.3627942939092
 20
697.52805575368188
 11
1151.9648242939111
 21
699.11111975368226
  0
LINE
  8
_0-0_
  6
CONTINUOUS
 62
    7
 10
1150.7843722939106
 20
700.86341575368101
 11
1150.7841570239761
 21
700.86341901643868
  0
LINE
  8
_0-0_
  6
CONTINUOUS
 62
    7
 10
1150.7843722939106
 20
700.86341575368101
 11
1151.9648242939111
 21
699.11111975368226
  0
LINE
  8
_0-0_
  6
CONTINUOUS
 62
    7
 10
1177.6039132939113
 20
699.11111975368226
 11
1176.2059432939095
 21
697.52805575368188
  0
LINE
  8
_0-0_
  6
CONTINUOUS
 62
    7
 10
1174.6141502939099
 20
696.14027075368108
 11
1172.8556172939097
 21
694.97145975368153
  0
LINE
  8
_0-0_
  6
CONTINUOUS
 62
    7
 10
1170.9598002939092
 20
694.04118775368192
 11
1168.9591022939094
 21
693.36537975368196
  0
LINE
  8
_0-0_
  6
CONTINUOUS
 62
    7
 10
1166.8877392939103
 20
692.95552275368141
 11
1164.7883272939107
 21
692.81845575368175
  0
LINE
  8
_0-0_
  6
CONTINUOUS
 62
    7
 10
1162.6809982939085
 20
692.95552275368141
 11
1160.6096352939094
 21
693.36537975368196
  0
LINE
  8
_0-0_
  6
CONTINUOUS
 62
    7
 10
1158.6089372939095
 20
694.04118775368192
 11
1156.7131202939127
 21
694.97145975368153
  0
LINE
  8
_0-0_
  6
CONTINUOUS
 62
    7
 10
1154.9545872939125
 20
696.14027075368108
 11
1153.3627942939092
 21
697.52805575368188
  0
LINE
  8
_0-0_
  6
CONTINUOUS
 62
    7
 10
1234.7843722939106
 20
1197.2217461596567
 11
1206.7843722939106
 21
1197.2217461596567
  0
LINE
  8
_0-0_
  6
CONTINUOUS
 62
    7
 10
1143.7843722939106
 20
1134.2217461596567
 11
1143.7843722939106
 21
1106.2217461596567
  0
ARC
  8
_0-0_
  6
CONTINUOUS
 62
    7
 10
1206.7843722939106
 20
1134.2217461596567
 40
63
 50
90
 51
180
  0
ARC
  8
_0-0_
  6
CONTINUOUS
 62
    7
 10
1234.5966946156714
 20
1106.2217461596567
 40
21.000838623990937
 50
89.487959400031784
 51
180
  0
LINE
  8
_0-0_
  6
CONTINUOUS
 62
    7
 10
1234.7843722939106
 20
1190.2217461596567
 11
1441.3392857260842
 21
1190.2217461596567
  0
LINE
  8
_0-0_
  6
CONTINUOUS
 62
    7
 10
1449.1896791582585
 20
1256.7217461596567
 11
1459.6896791582585
 21
1256.7217461596567
  0
LINE
  8
_0-0_
  6
CONTINUOUS
 62
    7
 10
1459.6896791582585
 20
1256.7217461596567
 11
1463.1896791582549
 21
1246.2217461596567
  0
LINE
  8
_0-0_
  6
CONTINUOUS
 62
    7
 10
1441.3394257260843
 20
1134.2217461596567
 11
1439.5902587260862
 21
1135.3997761596559
  0
LINE
  8
_0-0_
  6
CONTINUOUS
 62
    7
 10
1438.0068517260843
 20
1136.7973611596565
 11
1436.6186817260859
 21
1138.3888181596569
  0
LINE
  8
_0-0_
  6
CONTINUOUS
 62
    7
 10
1435.449436726085
 20
1140.1470641596563
 11
1434.5187027260836
 21
1142.0426501596569
  0
LINE
  8
_0-0_
  6
CONTINUOUS
 62
    7
 10
1433.8424117260838
 20
1144.0431871596568
 11
1433.4320507260854
 21
1146.1144521596555
  0
LINE
  8
_0-0_
  6
CONTINUOUS
 62
    7
 10
1433.294465726085
 20
1148.2217461596567
 11
1433.4320507260854
 21
1150.3290331596556
  0
LINE
  8
_0-0_
  6
CONTINUOUS
 62
    7
 10
1433.8424117260838
 20
1152.4002981596561
 11
1434.5187027260836
 21
1154.4008351596578
  0
LINE
  8
_0-0_
  6
CONTINUOUS
 62
    7
 10
1435.449436726085
 20
1156.2964211596566
 11
1436.6186817260859
 21
1158.0546671596578
  0
LINE
  8
_0-0_
  6
CONTINUOUS
 62
    7
 10
1438.0068517260843
 20
1159.6461241596564
 11
1439.5902587260862
 21
1161.0437091596552
  0
LINE
  8
_0-0_
  6
CONTINUOUS
 62
    7
 10
1441.3394257260843
 20
1162.2217461596567
 11
1443.0884457260836
 21
1163.3997761596559
  0
LINE
  8
_0-0_
  6
CONTINUOUS
 62
    7
 10
1444.6718527260855
 20
1164.7973611596565
 11
1446.0600227260838
 21
1166.3888181596569
  0
LINE
  8
_0-0_
  6
CONTINUOUS
 62
    7
 10
1447.2292677260848
 20
1168.1470641596563
 11
1448.1600017260826
 21
1170.0426501596569
  0
LINE
  8
_0-0_
  6
CONTINUOUS
 62
    7
 10
1448.836292726086
 20
1172.0431871596568
 11
1449.2466537260843
 21
1174.1144521596555
  0
LINE
  8
_0-0_
  6
CONTINUOUS
 62
    7
 10
1449.3842457260835
 20
1176.2217461596567
 11
1449.2466537260843
 21
1178.3290331596556
  0
LINE
  8
_0-0_
  6
CONTINUOUS
 62
    7
 10
1448.836292726086
 20
1180.4002981596561
 11
1448.1600017260826
 21
1182.4008351596578
  0
LINE
  8
_0-0_
  6
CONTINUOUS
 62
    7
 10
1447.2292677260848
 20
1184.2964211596566
 11
1446.0600227260838
 21
1186.0546671596578
  0
LINE
  8
_0-0_
  6
CONTINUOUS
 62
    7
 10
1444.6718527260855
 20
1187.6461241596564
 11
1443.0884457260836
 21
1189.0437091596552
  0
LINE
  8
_0-0_
  6
CONTINUOUS
 62
    7
 10
1441.3392857260842
 20
1190.2217461596567
 11
1443.0884457260836
 21
1189.0437091596552
  0
LINE
  8
_0-0_
  6
CONTINUOUS
 62
    7
 10
1444.6718527260855
 20
1187.6461241596564
 11
1446.0600227260838
 21
1186.0546671596578
  0
LINE
  8
_0-0_
  6
CONTINUOUS
 62
    7
 10
1447.2292677260848
 20
1184.2964211596566
 11
1448.1600017260826
 21
1182.4008351596578
  0
LINE
  8
_0-0_
  6
CONTINUOUS
 62
    7
 10
1448.836292726086
 20
1180.4002981596561
 11
1449.2466537260843
 21
1178.3290331596556
  0
LINE
  8
_0-0_
  6
CONTINUOUS
 62
    7
 10
1449.3842457260835
 20
1176.2217461596567
 11
1449.2466537260843
 21
1174.1144521596555
  0
LINE
  8
_0-0_
  6
CONTINUOUS
 62
    7
 10
1448.836292726086
 20
1172.0431871596568
 11
1448.1600017260826
 21
1170.0426501596569
  0
LINE
  8
_0-0_
  6
CONTINUOUS
 62
    7
 10
1447.2292677260848
 20
1168.1470641596563
 11
1446.0600227260838
 21
1166.3888181596569
  0
LINE
  8
_0-0_
  6
CONTINUOUS
 62
    7
 10
1444.6718527260855
 20
1164.7973611596565
 11
1443.0884457260836
 21
1163.3997761596559
  0
LINE
  8
_0-0_
  6
CONTINUOUS
 62
    7
 10
1441.3394257260843
 20
1162.2217461596567
 11
1439.5902587260862
 21
1161.0437091596552
  0
LINE
  8
_0-0_
  6
CONTINUOUS
 62
    7
 10
1441.3394257260843
 20
1162.2217461596567
 11
1443.0884457260836
 21
1161.0437091596552
  0
LINE
  8
_0-0_
  6
CONTINUOUS
 62
    7
 10
1444.6718527260855
 20
1159.6461241596564
 11
1446.0600227260838
 21
1158.0546671596578
  0
LINE
  8
_0-0_
  6
CONTINUOUS
 62
    7
 10
1447.2292677260848
 20
1156.2964211596566
 11
1448.1600017260826
 21
1154.4008351596578
  0
LINE
  8
_0-0_
  6
CONTINUOUS
 62
    7
 10
1438.0068517260843
 20
1159.6461241596564
 11
1436.6186817260859
 21
1158.0546671596578
  0
LINE
  8
_0-0_
  6
CONTINUOUS
 62
    7
 10
1435.449436726085
 20
1156.2964211596566
 11
1434.5187027260836
 21
1154.4008351596578
  0
LINE
  8
_0-0_
  6
CONTINUOUS
 62
    7
 10
1433.8424117260838
 20
1152.4002981596561
 11
1433.4320507260854
 21
1150.3290331596556
  0
LINE
  8
_0-0_
  6
CONTINUOUS
 62
    7
 10
1433.294465726085
 20
1148.2217461596567
 11
1433.4320507260854
 21
1146.1144521596555
  0
LINE
  8
_0-0_
  6
CONTINUOUS
 62
    7
 10
1433.8424117260838
 20
1144.0431871596568
 11
1434.5187027260836
 21
1142.0426501596569
  0
LINE
  8
_0-0_
  6
CONTINUOUS
 62
    7
 10
1435.449436726085
 20
1140.1470641596563
 11
1436.6186817260859
 21
1138.3888181596569
  0
LINE
  8
_0-0_
  6
CONTINUOUS
 62
    7
 10
1438.0068517260843
 20
1136.7973611596565
 11
1439.5902587260862
 21
1135.3997761596559
  0
LINE
  8
_0-0_
  6
CONTINUOUS
 62
    7
 10
1443.0884457260836
 20
1135.3997761596559
 11
1444.6718527260855
 21
1136.7973611596565
  0
LINE
  8
_0-0_
  6
CONTINUOUS
 62
    7
 10
1446.0600227260838
 20
1138.3888181596569
 11
1447.2292677260848
 21
1140.1470641596563
  0
LINE
  8
_0-0_
  6
CONTINUOUS
 62
    7
 10
1448.1600017260826
 20
1142.0426501596569
 11
1448.836292726086
 21
1144.0431871596568
  0
LINE
  8
_0-0_
  6
CONTINUOUS
 62
    7
 10
1449.2466537260843
 20
1146.1144521596555
 11
1449.3842457260835
 21
1148.2217461596567
  0
LINE
  8
_0-0_
  6
CONTINUOUS
 62
    7
 10
1449.2466537260843
 20
1150.3290331596556
 11
1448.836292726086
 21
1152.4002981596561
  0
LINE
  8
_0-0_
  6
CONTINUOUS
 62
    7
 10
1441.3392857260842
 20
1134.2217461596567
 11
1443.0884457260836
 21
1135.3997761596559
  0
LINE
  8
_0-0_
  6
CONTINUOUS
 62
    7
 10
1443.0884457260836
 20
1161.0437091596552
 11
1444.6718527260855
 21
1159.6461241596564
  0
LINE
  8
_0-0_
  6
CONTINUOUS
 62
    7
 10
1446.0600227260838
 20
1158.0546671596578
 11
1447.2292677260848
 21
1156.2964211596566
  0
LINE
  8
_0-0_
  6
CONTINUOUS
 62
    7
 10
1448.1600017260826
 20
1154.4008351596578
 11
1448.836292726086
 21
1152.4002981596561
  0
LINE
  8
_0-0_
  6
CONTINUOUS
 62
    7
 10
1449.2466537260843
 20
1150.3290331596556
 11
1449.3842457260835
 21
1148.2217461596567
  0
LINE
  8
_0-0_
  6
CONTINUOUS
 62
    7
 10
1449.2466537260843
 20
1146.1144521596555
 11
1448.836292726086
 21
1144.0431871596568
  0
LINE
  8
_0-0_
  6
CONTINUOUS
 62
    7
 10
1448.1600017260826
 20
1142.0426501596569
 11
1447.2292677260848
 21
1140.1470641596563
  0
LINE
  8
_0-0_
  6
CONTINUOUS
 62
    7
 10
1446.0600227260838
 20
1138.3888181596569
 11
1444.6718527260855
 21
1136.7973611596565
  0
LINE
  8
_0-0_
  6
CONTINUOUS
 62
    7
 10
1234.7843722939106
 20
1134.2217461596567
 11
1441.3394257260843
 21
1134.2217461596567
  0
LINE
  8
_0-0_
  6
CONTINUOUS
 62
    4
 10
994.30153975195765
 20
1375.0660103777238
 11
983.08437229390995
 21
1364.233717678356
  0
LINE
  8
_0-0_
  6
CONTINUOUS
 62
    4
 10
994.30153975195765
 20
1375.0660103777238
 11
1500.5278438725018
 21
1357.3881983008698
  0
LINE
  8
_0-0_
  6
CONTINUOUS
 62
    4
 10
1500.5278438725018
 20
1357.3881983008698
 11
1511.1896791582585
 21
1346.3475446618297
  0
LINE
  8
_0-0_
  6
CONTINUOUS
 62
    4
 10
1497.7650579557994
 20
1246.2217461596567
 11
1506.2503393300376
 21
1246.2217461596567
  0
LINE
  8
_0-0_
  6
CONTINUOUS
 62
    4
 10
1511.1896791582585
 20
1251.1610859878758
 11
1506.2503393300376
 21
1246.2217461596567
  0
LINE
  8
_0-0_
  6
CONTINUOUS
 62
    4
 10
1511.1896791582585
 20
1251.1610859878758
 11
1511.1896791582585
 21
1346.3475446618297
  0
LINE
  8
_0-0_
  6
CONTINUOUS
 62
    4
 10
1380.7843722939106
 20
1237.5122415670023
 11
1380.7843722939106
 21
1207.331250752309
  0
LINE
  8
_0-0_
  6
CONTINUOUS
 62
    2
 10
1365.4195033555716
 20
1121.2292457908418
 11
1370.0120037243832
 21
1125.8217461596553
  0
LINE
  8
_0-0_
  6
CONTINUOUS
 62
    2
 10
1366.9810004558803
 20
1120.8108439038308
 11
1371.9919027117066
 21
1125.8217461596571
  0
LINE
  8
_0-0_
  6
CONTINUOUS
 62
    2
 10
1368.5424975561946
 20
1120.392442016818
 11
1373.9718016990337
 21
1125.8217461596571
  0
LINE
  8
_0-0_
  6
CONTINUOUS
 62
    4
 10
1364.2843722939106
 20
1121.5334032421172
 11
1380.7843722939106
 21
1117.1122415670045
  0
LINE
  8
_0-0_
  6
CONTINUOUS
 62
    4
 10
1364.2843722939106
 20
1202.9100890771963
 11
1380.7843722939106
 21
1207.331250752309
  0
LINE
  8
_0-0_
  6
CONTINUOUS
 62
    2
 10
1364.2843722939142
 20
1201.2699732094018
 11
1366.5248122344728
 21
1203.5104131499604
  0
LINE
  8
_0-0_
  6
CONTINUOUS
 62
    2
 10
1364.2843722939106
 20
1199.2900742220747
 11
1369.2294045480812
 21
1204.2351064762472
  0
LINE
  8
_0-0_
  6
CONTINUOUS
 62
    2
 10
1365.5959432188174
 20
1198.6217461596582
 11
1371.9339968616932
 21
1204.959799802534
  0
LINE
  8
_0-0_
  6
CONTINUOUS
 62
    2
 10
1367.5758422061372
 20
1198.6217461596564
 11
1374.6385891753034
 21
1205.6844931288226
  0
LINE
  8
_0-0_
  6
CONTINUOUS
 62
    2
 10
1369.5557411934606
 20
1198.6217461596582
 11
1377.34318148891
 21
1206.4091864551076
  0
LINE
  8
_0-0_
  6
CONTINUOUS
 62
    2
 10
1365.1246664418413
 20
1241.7082471037731
 11
1369.6381654977231
 21
1246.2217461596567
  0
LINE
  8
_0-0_
  6
CONTINUOUS
 62
    2
 10
1366.6861635421519
 20
1241.2898452167622
 11
1371.6180644850429
 21
1246.2217461596549
  0
LINE
  8
_0-0_
  6
CONTINUOUS
 62
    2
 10
1368.2476606424607
 20
1240.8714433297512
 11
1373.5979634723662
 21
1246.2217461596549
  0
LINE
  8
_0-0_
  6
CONTINUOUS
 62
    2
 10
1369.8091577427713
 20
1240.4530414427384
 11
1374.987794670571
 21
1245.6316783705381
  0
LINE
  8
_0-0_
  6
CONTINUOUS
 62
    2
 10
1371.3706548430819
 20
1240.0346395557256
 11
1375.5113717039858
 21
1244.1753564166331
  0
LINE
  8
_0-0_
  6
CONTINUOUS
 62
    2
 10
1372.9321519433925
 20
1239.6162376687146
 11
1376.0573216654484
 21
1242.7414073907687
  0
LINE
  8
_0-0_
  6
CONTINUOUS
 62
    2
 10
1374.4936490437049
 20
1239.1978357817036
 11
1376.6250920287021
 21
1241.3292787667026
  0
LINE
  8
_0-0_
  6
CONTINUOUS
 62
    2
 10
1376.0551461440155
 20
1238.7794338946908
 11
1377.214174176599
 21
1239.9384619272744
  0
LINE
  8
_0-0_
  6
CONTINUOUS
 62
    2
 10
1377.6166432443224
 20
1238.3610320076798
 11
1377.8240997003923
 21
1238.5684884637515
  0
ARC
  8
_0-0_
  6
CONTINUOUS
 62
    2
 10
1452.9774270375092
 20
1272.8482405970328
 40
82.602203458253697
 50
198.80486384457157
 51
204.74803418490743
  0
LINE
  8
_0-0_
  6
CONTINUOUS
 62
    4
 10
1364.2843722939106
 20
1241.933403242115
 11
1380.7843722939106
 21
1237.5122415670023
  0
ARC
  8
_0-0_
  6
CONTINUOUS
 62
    2
 10
1390.2023146962219
 20
1194.4217461596575
 40
15.979766829367051
 50
126.11208000178307
 51
164.76180838953087
  0
LINE
  8
_0-0_
  6
CONTINUOUS
 62
    2
 10
1373.5155391681037
 20
1198.6217461596582
 11
1375.4447496096636
 21
1200.5509566012181
  0
LINE
  8
_0-0_
  6
CONTINUOUS
 62
    2
 10
1371.5356401807803
 20
1198.6217461596545
 11
1380.0477738025202
 21
1207.1338797813962
  0
LINE
  8
_0-0_
  6
CONTINUOUS
 62
    2
 10
1371.6654917568139
 20
1119.5556382427942
 11
1375.612699100333
 21
1123.5028455863132
  0
LINE
  8
_0-0_
  6
CONTINUOUS
 62
    2
 10
1370.1039946565015
 20
1119.974040129807
 11
1375.0565944849677
 21
1124.9266399582714
  0
ARC
  8
_0-0_
  6
CONTINUOUS
 62
    2
 10
1390.2023146962238
 20
1130.0217461596596
 40
15.979766829371336
 50
195.23819161048107
 51
233.88791999821916
  0
LINE
  8
_0-0_
  6
CONTINUOUS
 62
    2
 10
1379.4729772583669
 20
1117.4636288077356
 11
1379.8543618700241
 21
1117.8450134193947
  0
LINE
  8
_0-0_
  6
CONTINUOUS
 62
    2
 10
1377.9114801580545
 20
1117.8820306947484
 11
1378.8276063103694
 21
1118.7981568470616
  0
LINE
  8
_0-0_
  6
CONTINUOUS
 62
    2
 10
968.64444312337048
 20
272.20289766242718
 11
972.10442763502954
 21
275.66288217408805
  0
LINE
  8
_0-0_
  6
CONTINUOUS
 62
    2
 10
965.13107464766847
 20
273.14430190820462
 11
970.1879367597013
 21
278.20116402023746
  0
LINE
  8
_0-0_
  6
CONTINUOUS
 62
    2
 10
961.6177061719701
 20
274.08570615398025
 11
968.47717130178182
 21
280.94517128379198
  0
LINE
  8
_0-0_
  6
CONTINUOUS
 62
  136
 10
846.99681890474324
 20
484.42585321269621
 11
856.44681890474578
 21
484.42585321269621
  0
LINE
  8
_0-0_
  6
CONTINUOUS
 62
  136
 10
846.99681890474324
 20
452.92585321269621
 11
846.99681890474324
 21
484.42585321269621
  0
LINE
  8
_0-0_
  6
CONTINUOUS
 62
  136
 10
856.44681890474578
 20
452.92585321269621
 11
856.44681890474578
 21
484.42585321269621
  0
LINE
  8
_0-0_
  6
CONTINUOUS
 62
  136
 10
728.87181890474324
 20
452.92585321269621
 11
846.99681890474324
 21
452.92585321269621
  0
LINE
  8
_0-0_
  6
CONTINUOUS
 62
  136
 10
728.87181890474324
 20
289.12585321269512
 11
846.99681890474324
 21
289.12585321269512
  0
LINE
  8
_0-0_
  6
CONTINUOUS
 62
  136
 10
846.99681890474324
 20
289.12585321269512
 11
846.99681890474324
 21
257.62585321269512
  0
LINE
  8
_0-0_
  6
CONTINUOUS
 62
  136
 10
846.99681890474324
 20
257.62585321269512
 11
856.44681890474578
 21
257.62585321269512
  0
LINE
  8
_0-0_
  6
CONTINUOUS
 62
  136
 10
856.44681890474578
 20
289.12585321269512
 11
856.44681890474578
 21
257.62585321269512
  0
LINE
  8
_0-0_
  6
CONTINUOUS
 62
    7
 10
927.32181890474578
 20
443.4758532126973
 11
950.94681890474578
 21
434.02585321269476
  0
LINE
  8
_0-0_
  6
CONTINUOUS
 62
    7
 10
950.94681890474578
 20
443.4758532126973
 11
927.32181890474578
 21
434.02585321269476
  0
LINE
  8
_0-0_
  6
CONTINUOUS
 62
    7
 10
927.32181890474578
 20
308.02585321269476
 11
950.94681890474578
 21
298.57585321269403
  0
LINE
  8
_0-0_
  6
CONTINUOUS
 62
    7
 10
950.94681890474578
 20
308.02585321269476
 11
927.32181890474578
 21
298.57585321269403
  0
LINE
  8
_0-0_
  6
CONTINUOUS
 62
    7
 10
927.32181890474578
 20
308.02585321269476
 11
927.32181890474578
 21
298.57585321269403
  0
LINE
  8
_0-0_
  6
CONTINUOUS
 62
    7
 10
950.94681890474578
 20
308.02585321269476
 11
950.94681890474578
 21
298.57585321269403
  0
LINE
  8
_0-0_
  6
CONTINUOUS
 62
    7
 10
950.94681890474578
 20
443.4758532126973
 11
950.94681890474578
 21
434.02585321269476
  0
LINE
  8
_0-0_
  6
CONTINUOUS
 62
    7
 10
927.32181890474578
 20
443.4758532126973
 11
927.32181890474578
 21
434.02585321269476
  0
LINE
  8
_0-0_
  6
CONTINUOUS
 62
    2
 10
954.92444418036223
 20
298.5758532127013
 11
964.37444418035932
 21
308.02585321269476
  0
LINE
  8
_0-0_
  6
CONTINUOUS
 62
    2
 10
950.94681890474578
 20
299.05300065855704
 11
959.91967145888168
 21
308.02585321269476
  0
LINE
  8
_0-0_
  6
CONTINUOUS
 62
    2
 10
950.94681890474578
 20
303.50777338003104
 11
955.46489873740768
 21
308.02585321269476
  0
LINE
  8
_0-0_
  6
CONTINUOUS
 62
    2
 10
950.94681890474578
 20
307.96254610150686
 11
951.01012601593368
 21
308.02585321269476
  0
LINE
  8
_0-0_
  6
CONTINUOUS
 62
    2
 10
952.27648981463074
 20
434.02585321270021
 11
961.72648981462783
 21
443.4758532126973
  0
LINE
  8
_0-0_
  6
CONTINUOUS
 62
    2
 10
950.94681890474578
 20
437.15095502428562
 11
957.27171709315019
 21
443.47585321269366
  0
LINE
  8
_0-0_
  6
CONTINUOUS
 62
    2
 10
950.94681890474578
 20
441.60572774576326
 11
952.81694437167255
 21
443.47585321269366
  0
LINE
  8
_0-0_
  6
CONTINUOUS
 62
    7
 10
941.49681890474324
 20
265.50085321269512
 11
941.49681890474324
 21
289.12585321269512
  0
LINE
  8
_0-0_
  6
CONTINUOUS
 62
    7
 10
941.49681890474324
 20
265.50085321269512
 11
965.12181890474324
 21
259.17055354151057
  0
LINE
  8
_0-0_
  6
CONTINUOUS
 62
  136
 10
728.87181890474324
 20
452.92585321269621
 11
728.87181890474324
 21
443.4758532126973
  0
LINE
  8
_0-0_
  6
CONTINUOUS
 62
  136
 10
728.87181890474324
 20
298.57585321269403
 11
728.87181890474324
 21
289.12585321269512
  0
LINE
  8
_0-0_
  6
CONTINUOUS
 62
    2
 10
941.4968189047396
 20
280.69345521560285
 11
949.92921690183368
 21
289.1258532126933
  0
LINE
  8
_0-0_
  6
CONTINUOUS
 62
    2
 10
941.49681890474687
 20
285.14822793708413
 11
945.47444418036332
 21
289.12585321269876
  0
LINE
  8
_0-0_
  6
CONTINUOUS
 62
  136
 10
965.12181890474324
 20
298.57585321269403
 11
965.12181890474324
 21
289.12585321269512
  0
LINE
  8
_0-0_
  6
CONTINUOUS
 62
  136
 10
965.12181890474324
 20
452.92585321269621
 11
965.12181890474324
 21
443.4758532126973
  0
LINE
  8
_0-0_
  6
CONTINUOUS
 62
  136
 10
856.44681890474578
 20
452.92585321269621
 11
965.12181890474324
 21
452.92585321269621
  0
LINE
  8
_0-0_
  6
CONTINUOUS
 62
  136
 10
728.87181890474324
 20
443.4758532126973
 11
965.12181890474324
 21
443.4758532126973
  0
LINE
  8
_0-0_
  6
CONTINUOUS
 62
  136
 10
728.87181890474324
 20
298.57585321269403
 11
965.12181890474324
 21
298.57585321269403
  0
LINE
  8
_0-0_
  6
CONTINUOUS
 62
  136
 10
856.44681890474578
 20
289.12585321269512
 11
965.12181890474324
 21
289.12585321269512
  0
ARC
  8
_0-0_
  6
CONTINUOUS
 62
    2
 10
992.89707245517468
 20
303.30085321269621
 40
28.1742849916495
 50
170.34552531892481
 51
189.65447468107519
  0
LINE
  8
_0-0_
  6
CONTINUOUS
 62
    2
 10
959.37921690183441
 20
298.57585321269403
 11
964.72973204838138
 21
303.926368359241
  0
LINE
  8
_0-0_
  6
CONTINUOUS
 62
    2
 10
963.83398962330841
 20
298.57585321269403
 11
964.9543314601143
 21
299.6961950494981
  0
ARC
  8
_0-0_
  6
CONTINUOUS
 62
    2
 10
987.58299685895338
 20
438.75085321269694
 40
22.95278066140575
 50
168.12030433418508
 51
191.87969566581492
  0
LINE
  8
_0-0_
  6
CONTINUOUS
 62
    2
 10
961.18603525757692
 20
434.02585321269112
 11
964.66411118681765
 21
437.50392914193549
  0
LINE
  8
_0-0_
  6
CONTINUOUS
 62
    2
 10
956.73126253609928
 20
434.02585321269112
 11
964.88824825709355
 21
442.18283893368903
  0
LINE
  8
_0-0_
  6
CONTINUOUS
 62
    7
 10
941.49681890474324
 20
476.55085321269621
 11
941.49681890474324
 21
452.92585321269621
  0
LINE
  8
_0-0_
  6
CONTINUOUS
 62
    7
 10
941.49681890474324
 20
476.55085321269621
 11
965.12181890474324
 21
482.88115288388076
  0
LINE
  8
_0-0_
  6
CONTINUOUS
 62
  136
 10
728.87181890474324
 20
452.92585321269621
 11
728.87181890474324
 21
443.4758532126973
  0
LINE
  8
_0-0_
  6
CONTINUOUS
 62
  136
 10
728.87181890474324
 20
298.57585321269403
 11
728.87181890474324
 21
289.12585321269512
  0
LINE
  8
_0-0_
  6
CONTINUOUS
 62
    7
 10
1114.870689127134
 20
308.02585321269476
 11
1110.9350633771337
 21
310.6764207126937
  0
LINE
  8
_0-0_
  6
CONTINUOUS
 62
    7
 10
1107.372397627134
 20
313.82098696269645
 11
1104.249015127134
 21
317.40176521269609
  0
LINE
  8
_0-0_
  6
CONTINUOUS
 62
    7
 10
1101.618213877131
 20
321.35781871269614
 11
1099.5240623771333
 21
325.62288721269692
  0
LINE
  8
_0-0_
  6
CONTINUOUS
 62
    7
 10
1098.0024076271329
 20
330.12409546269305
 11
1097.079095377132
 21
334.78444171269552
  0
LINE
  8
_0-0_
  6
CONTINUOUS
 62
    7
 10
1096.769529127132
 20
339.52585321269476
 11
1097.079095377132
 21
344.26724896269593
  0
LINE
  8
_0-0_
  6
CONTINUOUS
 62
    7
 10
1098.0024076271329
 20
348.92759521269477
 11
1099.5240623771333
 21
353.42880346269635
  0
LINE
  8
_0-0_
  6
CONTINUOUS
 62
    7
 10
1101.618213877131
 20
357.69387196269531
 11
1104.249015127134
 21
361.64992546269536
  0
LINE
  8
_0-0_
  6
CONTINUOUS
 62
    7
 10
1107.372397627134
 20
365.230703712695
 11
1110.9350633771337
 21
368.37526996269412
  0
LINE
  8
_0-0_
  6
CONTINUOUS
 62
    7
 10
1114.870689127134
 20
371.02585321269476
 11
1118.8059841271333
 21
373.67642071269552
  0
LINE
  8
_0-0_
  6
CONTINUOUS
 62
    7
 10
1122.3686498771331
 20
376.82098696269645
 11
1125.492032377133
 21
380.40176521269427
  0
LINE
  8
_0-0_
  6
CONTINUOUS
 62
    7
 10
1128.1228336271361
 20
384.35781871269614
 11
1130.2169851271301
 21
388.62288721269329
  0
LINE
  8
_0-0_
  6
CONTINUOUS
 62
    7
 10
1131.7386398771341
 20
393.12409546269669
 11
1132.6619521271296
 21
397.78444171269552
  0
LINE
  8
_0-0_
  6
CONTINUOUS
 62
    7
 10
1132.9715341271331
 20
402.52585321269476
 11
1132.6619521271296
 21
407.26724896269593
  0
LINE
  8
_0-0_
  6
CONTINUOUS
 62
    7
 10
1131.7386398771341
 20
411.92759521269477
 11
1130.2169851271301
 21
416.42880346269635
  0
LINE
  8
_0-0_
  6
CONTINUOUS
 62
    7
 10
1128.1228336271361
 20
420.69387196269531
 11
1125.492032377133
 21
424.64992546269536
  0
LINE
  8
_0-0_
  6
CONTINUOUS
 62
    7
 10
1122.3686498771331
 20
428.230703712695
 11
1118.8059841271333
 21
431.37526996269412
  0
LINE
  8
_0-0_
  6
CONTINUOUS
 62
    7
 10
1114.8703741271293
 20
434.02585321269476
 11
1118.8059841271333
 21
431.37526996269412
  0
LINE
  8
_0-0_
  6
CONTINUOUS
 62
    7
 10
1122.3686498771331
 20
428.230703712695
 11
1125.492032377133
 21
424.64992546269536
  0
LINE
  8
_0-0_
  6
CONTINUOUS
 62
    7
 10
1128.1228336271361
 20
420.69387196269531
 11
1130.2169851271301
 21
416.42880346269635
  0
LINE
  8
_0-0_
  6
CONTINUOUS
 62
    7
 10
1131.7386398771341
 20
411.92759521269477
 11
1132.6619521271296
 21
407.26724896269593
  0
LINE
  8
_0-0_
  6
CONTINUOUS
 62
    7
 10
1132.9715341271331
 20
402.52585321269476
 11
1132.6619521271296
 21
397.78444171269552
  0
LINE
  8
_0-0_
  6
CONTINUOUS
 62
    7
 10
1131.7386398771341
 20
393.12409546269669
 11
1130.2169851271301
 21
388.62288721269329
  0
LINE
  8
_0-0_
  6
CONTINUOUS
 62
    7
 10
1128.1228336271361
 20
384.35781871269614
 11
1125.492032377133
 21
380.40176521269427
  0
LINE
  8
_0-0_
  6
CONTINUOUS
 62
    7
 10
1122.3686498771331
 20
376.82098696269645
 11
1118.8059841271333
 21
373.67642071269552
  0
LINE
  8
_0-0_
  6
CONTINUOUS
 62
    7
 10
1114.870689127134
 20
371.02585321269476
 11
1110.9350633771337
 21
368.37526996269412
  0
LINE
  8
_0-0_
  6
CONTINUOUS
 62
    7
 10
1114.870689127134
 20
371.02585321269476
 11
1118.8059841271333
 21
368.37526996269412
  0
LINE
  8
_0-0_
  6
CONTINUOUS
 62
    7
 10
1122.3686498771331
 20
365.230703712695
 11
1125.492032377133
 21
361.64992546269536
  0
LINE
  8
_0-0_
  6
CONTINUOUS
 62
    7
 10
1128.1228336271361
 20
357.69387196269531
 11
1130.2169851271301
 21
353.42880346269635
  0
LINE
  8
_0-0_
  6
CONTINUOUS
 62
    7
 10
1107.372397627134
 20
365.230703712695
 11
1104.249015127134
 21
361.64992546269536
  0
LINE
  8
_0-0_
  6
CONTINUOUS
 62
    7
 10
1101.618213877131
 20
357.69387196269531
 11
1099.5240623771333
 21
353.42880346269635
  0
LINE
  8
_0-0_
  6
CONTINUOUS
 62
    7
 10
1098.0024076271329
 20
348.92759521269477
 11
1097.079095377132
 21
344.26724896269593
  0
LINE
  8
_0-0_
  6
CONTINUOUS
 62
    7
 10
1096.769529127132
 20
339.52585321269476
 11
1097.079095377132
 21
334.78444171269552
  0
LINE
  8
_0-0_
  6
CONTINUOUS
 62
    7
 10
1098.0024076271329
 20
330.12409546269305
 11
1099.5240623771333
 21
325.62288721269692
  0
LINE
  8
_0-0_
  6
CONTINUOUS
 62
    7
 10
1101.618213877131
 20
321.35781871269614
 11
1104.249015127134
 21
317.40176521269609
  0
LINE
  8
_0-0_
  6
CONTINUOUS
 62
    7
 10
1107.372397627134
 20
313.82098696269645
 11
1110.9350633771337
 21
310.6764207126937
  0
LINE
  8
_0-0_
  6
CONTINUOUS
 62
    7
 10
1118.8059841271333
 20
310.6764207126937
 11
1122.3686498771331
 21
313.82098696269645
  0
LINE
  8
_0-0_
  6
CONTINUOUS
 62
    7
 10
1125.492032377133
 20
317.40176521269609
 11
1128.1228336271361
 21
321.35781871269614
  0
LINE
  8
_0-0_
  6
CONTINUOUS
 62
    7
 10
1130.2169851271301
 20
325.62288721269692
 11
1131.7386398771341
 21
330.12409546269305
  0
LINE
  8
_0-0_
  6
CONTINUOUS
 62
    7
 10
1132.6619521271296
 20
334.78444171269552
 11
1132.9715341271331
 21
339.52585321269476
  0
LINE
  8
_0-0_
  6
CONTINUOUS
 62
    7
 10
1132.6619521271296
 20
344.26724896269593
 11
1131.7386398771341
 21
348.92759521269477
  0
LINE
  8
_0-0_
  6
CONTINUOUS
 62
    7
 10
1114.8703741271293
 20
308.02585321269476
 11
1118.8059841271333
 21
310.6764207126937
  0
LINE
  8
_0-0_
  6
CONTINUOUS
 62
    7
 10
1118.8059841271333
 20
368.37526996269412
 11
1122.3686498771331
 21
365.230703712695
  0
LINE
  8
_0-0_
  6
CONTINUOUS
 62
    7
 10
1125.492032377133
 20
361.64992546269536
 11
1128.1228336271361
 21
357.69387196269531
  0
LINE
  8
_0-0_
  6
CONTINUOUS
 62
    7
 10
1130.2169851271301
 20
353.42880346269635
 11
1131.7386398771341
 21
348.92759521269477
  0
LINE
  8
_0-0_
  6
CONTINUOUS
 62
    7
 10
1132.6619521271296
 20
344.26724896269593
 11
1132.9715341271331
 21
339.52585321269476
  0
LINE
  8
_0-0_
  6
CONTINUOUS
 62
    7
 10
1132.6619521271296
 20
334.78444171269552
 11
1131.7386398771341
 21
330.12409546269305
  0
LINE
  8
_0-0_
  6
CONTINUOUS
 62
    7
 10
1130.2169851271301
 20
325.62288721269692
 11
1128.1228336271361
 21
321.35781871269614
  0
LINE
  8
_0-0_
  6
CONTINUOUS
 62
    7
 10
1125.492032377133
 20
317.40176521269609
 11
1122.3686498771331
 21
313.82098696269645
  0
LINE
  8
_0-0_
  6
CONTINUOUS
 62
    2
 10
944.05086379347824
 20
278.79272738286204
 11
954.38398962330768
 21
289.1258532126933
  0
LINE
  8
_0-0_
  6
CONTINUOUS
 62
    2
 10
947.56423226917479
 20
277.85132313708641
 11
958.83876234478532
 21
289.12585321269694
  0
LINE
  8
_0-0_
  6
CONTINUOUS
 62
    2
 10
951.07760074487862
 20
276.90991889130896
 11
963.2935350662666
 21
289.12585321269694
  0
LINE
  8
_0-0_
  6
CONTINUOUS
 62
    4
 10
941.49681890474324
 20
279.47708164823166
 11
978.62181890474324
 21
269.52946787922815
  0
LINE
  8
_0-0_
  6
CONTINUOUS
 62
    4
 10
941.49681890474324
 20
462.57462477716149
 11
978.62181890474324
 21
472.522238546165
  0
LINE
  8
_0-0_
  6
CONTINUOUS
 62
    2
 10
941.49681890474687
 20
458.88436407462109
 11
946.53780877100883
 21
463.9253539408794
  0
LINE
  8
_0-0_
  6
CONTINUOUS
 62
    2
 10
941.4968189047396
 20
454.42959135313799
 11
952.62314147662448
 21
465.55591392502288
  0
LINE
  8
_0-0_
  6
CONTINUOUS
 62
    2
 10
944.44785348577909
 20
452.92585321269621
 11
958.70847418225105
 21
467.18647390916999
  0
LINE
  8
_0-0_
  6
CONTINUOUS
 62
    2
 10
948.90262620725309
 20
452.92585321269621
 11
964.79380688787398
 21
468.8170338933171
  0
LINE
  8
_0-0_
  6
CONTINUOUS
 62
    2
 10
953.35739892872709
 20
452.92585321269621
 11
970.87913959348964
 21
470.44759387746058
  0
ARC
  8
_0-0_
  6
CONTINUOUS
 62
    2
 10
999.81218930994157
 20
443.4758532126973
 40
35.954475366075869
 50
126.11208000178307
 51
164.76180838953087
  0
LINE
  8
_0-0_
  6
CONTINUOUS
 62
    2
 10
962.26694437167873
 20
452.92585321269621
 11
966.60766786518627
 21
457.26657670620921
  0
LINE
  8
_0-0_
  6
CONTINUOUS
 62
    2
 10
957.81217165019564
 20
452.92585321269257
 11
976.96447229911439
 21
472.07815386160769
  0
LINE
  8
_0-0_
  6
CONTINUOUS
 62
    2
 10
958.10433769627355
 20
275.02711039975588
 11
966.98555421919093
 21
283.90832692267327
  0
LINE
  8
_0-0_
  6
CONTINUOUS
 62
    2
 10
954.59096922057336
 20
275.96851464553333
 11
965.73431883462047
 21
287.11186425958226
  0
ARC
  8
_0-0_
  6
CONTINUOUS
 62
    2
 10
999.81218930994885
 20
298.5758532127013
 40
35.954475366085504
 50
195.23819161048107
 51
233.88791999821916
  0
LINE
  8
_0-0_
  6
CONTINUOUS
 62
    2
 10
975.67118007476722
 20
270.32008917087592
 11
976.5292954509988
 21
271.1782045471075
  0
LINE
  8
_0-0_
  6
CONTINUOUS
 62
    2
 10
972.15781159906703
 20
271.26149341665337
 11
974.21909544177481
 21
273.32277725935933
  0
LINE
  8
_0-0_
  6
CONTINUOUS
 62
    4
 10
978.62181890474324
 20
529.02585321269476
 11
978.62181890474324
 21
472.522238546165
  0
LINE
  8
_0-0_
  6
CONTINUOUS
 62
    7
 10
965.12181890474324
 20
529.02585321269476
 11
965.12181890474324
 21
482.88115288388076
  0
LINE
  8
_0-0_
  6
CONTINUOUS
 62
    7
 10
728.87181890474324
 20
443.4758532126973
 11
728.87181890474324
 21
529.02585321269476
  0
LINE
  8
_0-0_
  6
CONTINUOUS
 62
    7
 10
872.27143879253538
 20
213.02585321269476
 11
941.49681890474324
 21
282.25123332490443
  0
LINE
  8
_0-0_
  6
CONTINUOUS
 62
    7
 10
888.18134136923084
 20
213.02585321269476
 11
941.49681890474324
 21
266.34133074820897
  0
LINE
  8
_0-0_
  6
CONTINUOUS
 62
    7
 10
904.09124394592993
 20
213.02585321269476
 11
953.38169972736989
 21
262.31630899413472
  0
LINE
  8
_0-0_
  6
CONTINUOUS
 62
    7
 10
965.12181890474324
 20
259.17055354151057
 11
965.12181890474324
 21
213.02585321269476
  0
LINE
  8
_0-0_
  6
CONTINUOUS
 62
    4
 10
978.62181890474324
 20
269.52946787922815
 11
978.62181890474324
 21
213.02585321269476
  0
LINE
  8
_0-0_
  6
CONTINUOUS
 62
    7
 10
728.87181890474324
 20
298.57585321269403
 11
728.87181890474324
 21
213.02585321269476
  0
LINE
  8
_0-0_
  6
CONTINUOUS
 62
    7
 10
710.47165680518094
 20
308.02585321269476
 11
1114.870689127134
 21
308.02585321269476
  0
LINE
  8
_0-0_
  6
CONTINUOUS
 62
    7
 10
710.47165680518094
 20
434.02585321269476
 11
1114.8703741271293
 21
434.02585321269476
  0
POINT
  8
_0-0_
 62
    7
 10
960.18737712229461
 20
438.92416390685071
  0
POINT
  8
_0-0_
 62
    7
 10
959.09469737887241
 20
459.68507903187788
  0
LINE
  8
_0-0_
  6
CONTINUOUS
 62
    7
 10
959.09469737887241
 20
459.68507903187788
 11
1028.2339980340148
 21
478.21089880767545
  0
LINE
  8
_0-0_
  6
CONTINUOUS
 62
    7
 10
960.18737712229461
 20
438.92416390685071
 11
1028.2339980340148
 21
478.21089880767545
  0
LINE
  8
_0-0_
  6
CONTINUOUS
 62
    7
 10
961.77806518472983
 20
304.6250850954923
 11
1029.0000836647941
 21
265.81443463055734
  0
POINT
  8
_0-0_
 62
    7
 10
961.77806518472983
 20
304.6250850954923
  0
LINE
  8
_0-0_
  6
CONTINUOUS
 62
    7
 10
959.72416752122638
 20
279.97831313345273
 11
1029.0000836647941
 21
265.81443463055734
  0
POINT
  8
_0-0_
 62
    7
 10
959.72416752122638
 20
279.97831313345273
  0
TEXT
  8
_0-0_
 62
    7
 10
1036.745329902602
 20
254.30459233965962
 40
21.617968000000001
 41
1
 50
0
  1
ｼｰﾘﾝｸﾞ
  0
LINE
  8
_0-0_
  6
CONTINUOUS
 62
    7
 10
842.78437229391068
 20
772.17009188254201
 11
842.78437229391068
 21
732.17009188254201
  0
LINE
  8
_0-0_
  6
CONTINUOUS
 62
    7
 10
772.78437229391068
 20
772.17009188254201
 11
842.78437229391068
 21
772.17009188254201
  0
LINE
  8
_0-0_
  6
CONTINUOUS
 62
    7
 10
1514.7843722939106
 20
774.1006918825417
 11
1514.7843722939106
 21
732.17009188254019
  0
LINE
  8
_0-0_
  6
CONTINUOUS
 62
    7
 10
1514.7843722939106
 20
774.1006918825417
 11
1584.7843722939106
 21
774.1006918825417
  0
LINE
  8
_0-0_
  6
CONTINUOUS
 62
    7
 10
1269.7843722939106
 20
787.85005393943288
 11
1382.0350102370194
 21
900.1006918825417
  0
LINE
  8
_0-0_
  6
CONTINUOUS
 62
    7
 10
1269.7843722939124
 20
794.92112175130137
 11
1374.9639424251527
 21
900.1006918825417
  0
LINE
  8
_0-0_
  6
CONTINUOUS
 62
    7
 10
1374.7843722939106
 20
1112.50827963913
 11
1374.7843722939106
 21
900.1006918825417
  0
LINE
  8
_0-0_
  6
CONTINUOUS
 62
    7
 10
1269.7843722939106
 20
801.9921895631644
 11
1374.7843722939106
 21
906.9921895631644
  0
LINE
  8
_0-0_
  6
CONTINUOUS
 62
    7
 10
787.41393465389785
 20
772.17009188254201
 11
915.34453465389754
 21
900.1006918825417
  0
LINE
  8
_0-0_
  6
CONTINUOUS
 62
    7
 10
801.55607027762937
 20
772.17009188254201
 11
929.48667027762724
 21
900.1006918825417
  0
LINE
  8
_0-0_
  6
CONTINUOUS
 62
    7
 10
794.4850024657627
 20
772.17009188254201
 11
922.41560246576239
 21
900.1006918825417
  0
TEXT
  8
_0-0_
 62
    7
 10
906.73245032900388
 20
575.6797341210106
 40
40
 41
1
 50
0
  1
Ａ
  0
TEXT
  8
_0-0_
 62
    7
 10
1429.6891920142116
 20
576.02721287347708
 40
40
 41
1
 50
0
  1
Ｂ
  0
TEXT
  8
_0-0_
 62
    7
 10
1033.6644834073468
 20
467.90994934400919
 40
21.617968000000001
 41
1
 50
0
  1
ｼｰﾘﾝｸﾞ
  0
LINE
  8
_0-0_
  6
CONTINUOUS
 62
    7
 10
1434.0686435413727
 20
942.1006918825417
 11
1471.8970706661185
 21
942.1006918825417
  0
LINE
  8
_0-0_
  6
CONTINUOUS
 62
  136
 10
1376.7843722939106
 20
970.21339025474958
 11
1403.8970706661185
 21
943.1006918825417
  0
LINE
  8
_0-0_
  6
CONTINUOUS
 62
    6
 10
1374.7843722939101
 20
927.57400119098043
 11
1382.3110629854723
 21
935.10069188254261
  0
LINE
  8
_0-0_
  6
CONTINUOUS
 62
    6
 10
1374.7843722939101
 20
913.43186556724891
 11
1396.4531986092034
 21
935.10069188254261
  0
LINE
  8
_0-0_
  6
CONTINUOUS
 62
    6
 10
1375.5953342329326
 20
900.10069188254079
 11
1410.5953342329326
 21
935.10069188254079
  0
LINE
  8
_0-0_
  6
CONTINUOUS
 62
    6
 10
1389.7374698566655
 20
900.10069188254261
 11
1424.7374698566655
 21
935.10069188254261
  0
LINE
  8
_0-0_
  6
CONTINUOUS
 62
    6
 10
1403.8796054803961
 20
900.10069188254261
 11
1438.8796054803961
 21
935.10069188254261
  0
LINE
  8
_0-0_
  6
CONTINUOUS
 62
    6
 10
1418.0217411041258
 20
900.1006918825417
 11
1453.0217411041253
 21
935.10069188254079
  0
LINE
  8
_0-0_
  6
CONTINUOUS
 62
    6
 10
1432.1638767278582
 20
900.10069188254261
 11
1467.1638767278582
 21
935.10069188254261
  0
LINE
  8
_0-0_
  6
CONTINUOUS
 62
    6
 10
1446.3060123515888
 20
900.10069188254261
 11
1481.3060123515888
 21
935.10069188254261
  0
LINE
  8
_0-0_
  6
CONTINUOUS
 62
    6
 10
1460.4481479753185
 20
900.10069188254079
 11
1495.4481479753185
 21
935.1006918825417
  0
LINE
  8
_0-0_
  6
CONTINUOUS
 62
    6
 10
1474.5902835990505
 20
900.1006918825417
 11
1509.590283599051
 21
935.10069188254261
  0
LINE
  8
_0-0_
  6
CONTINUOUS
 62
    6
 10
1488.7324192227816
 20
900.10069188254261
 11
1523.732419222782
 21
935.10069188254261
  0
LINE
  8
_0-0_
  6
CONTINUOUS
 62
    6
 10
1502.8745548465113
 20
900.1006918825417
 11
1537.8745548465113
 21
935.10069188254079
  0
LINE
  8
_0-0_
  6
CONTINUOUS
 62
    6
 10
1517.0166904702432
 20
900.10069188254261
 11
1552.0166904702432
 21
935.1006918825417
  0
LINE
  8
_0-0_
  6
CONTINUOUS
 62
    6
 10
1531.1588260939748
 20
900.10069188254261
 11
1566.1588260939748
 21
935.10069188254261
  0
LINE
  8
_0-0_
  6
CONTINUOUS
 62
    6
 10
1545.300961717704
 20
900.1006918825417
 11
1580.300961717704
 21
935.1006918825417
  0
LINE
  8
_0-0_
  6
CONTINUOUS
 62
    6
 10
1552.5712249048288
 20
935.10069188254079
 11
1587.5712249048283
 21
900.1006918825417
  0
LINE
  8
_0-0_
  6
CONTINUOUS
 62
    6
 10
1538.4290892810964
 20
935.10069188254261
 11
1573.4290892810964
 21
900.10069188254261
  0
LINE
  8
_0-0_
  6
CONTINUOUS
 62
    6
 10
1524.2869536573667
 20
935.1006918825417
 11
1559.2869536573667
 21
900.1006918825417
  0
LINE
  8
_0-0_
  6
CONTINUOUS
 62
    6
 10
1510.1448180336361
 20
935.10069188254079
 11
1545.1448180336356
 21
900.10069188254261
  0
LINE
  8
_0-0_
  6
CONTINUOUS
 62
    6
 10
1496.0026824099036
 20
935.10069188254261
 11
1531.0026824099036
 21
900.10069188254261
  0
LINE
  8
_0-0_
  6
CONTINUOUS
 62
    6
 10
1481.8605467861739
 20
935.10069188254079
 11
1516.8605467861735
 21
900.10069188254079
  0
LINE
  8
_0-0_
  6
CONTINUOUS
 62
    6
 10
1467.7184111624433
 20
935.10069188254079
 11
1502.7184111624433
 21
900.10069188254079
  0
LINE
  8
_0-0_
  6
CONTINUOUS
 62
    6
 10
1453.5762755387109
 20
935.10069188254261
 11
1488.5762755387109
 21
900.10069188254261
  0
LINE
  8
_0-0_
  6
CONTINUOUS
 62
    6
 10
1439.4341399149812
 20
935.10069188254079
 11
1474.4341399149807
 21
900.10069188254079
  0
LINE
  8
_0-0_
  6
CONTINUOUS
 62
    6
 10
1425.2920042912506
 20
935.10069188254079
 11
1460.2920042912501
 21
900.10069188254261
  0
LINE
  8
_0-0_
  6
CONTINUOUS
 62
    6
 10
1411.1498686675181
 20
935.10069188254261
 11
1446.1498686675181
 21
900.10069188254261
  0
LINE
  8
_0-0_
  6
CONTINUOUS
 62
    6
 10
1397.0077330437884
 20
935.10069188254079
 11
1432.0077330437884
 21
900.10069188254079
  0
LINE
  8
_0-0_
  6
CONTINUOUS
 62
    6
 10
1382.8655974200578
 20
935.10069188254079
 11
1417.8655974200578
 21
900.10069188254079
  0
LINE
  8
_0-0_
  6
CONTINUOUS
 62
    6
 10
1374.784372293911
 20
929.03978138495609
 11
1403.7234617963254
 21
900.10069188254261
  0
LINE
  8
_0-0_
  6
CONTINUOUS
 62
    6
 10
1374.7843722939101
 20
914.89764576122639
 11
1389.5813261725948
 21
900.10069188254079
  0
LINE
  8
_0-0_
  6
CONTINUOUS
 62
    6
 10
1374.7843722939106
 20
900.75551013749396
 11
1375.4391905488628
 21
900.1006918825417
  0
LINE
  8
_0-0_
  6
CONTINUOUS
 62
    6
 10
1374.7843722939106
 20
935.1006918825417
 11
1374.7843722939106
 21
900.1006918825417
  0
LINE
  8
_0-0_
  6
CONTINUOUS
 62
    1
 10
1350.7843722939106
 20
984.79917669237716
 11
1351.4701046001073
 21
985.48490899857393
  0
LINE
  8
_0-0_
  6
CONTINUOUS
 62
    1
 10
1350.7843722939106
 20
984.79917669237716
 11
1351.4701046001073
 21
984.11344438617948
  0
LINE
  8
_0-0_
  6
DASHED1
 62
    1
 10
1351.4701046001073
 20
985.48490899857393
 11
1352.0343722939106
 21
986.04917669237716
  0
LINE
  8
_0-0_
  6
DASHED1
 62
    1
 10
1351.4701046001073
 20
984.11344438617948
 11
1352.0343722939106
 21
983.54917669237716
  0
LINE
  8
_0-0_
  6
CONTINUOUS
 62
    1
 10
1350.9396843438381
 20
981.835646238462
 11
1350.8220898226618
 21
984.07948337075163
  0
LINE
  8
_0-0_
  6
CONTINUOUS
 62
    1
 10
1350.8220898226618
 20
985.51887001400269
 11
1350.9396843438381
 21
987.7627071462914
  0
LINE
  8
_0-0_
  6
CONTINUOUS
 62
    4
 10
1428.0402983031454
 20
952.1006918825417
 11
1435.5686435413727
 21
952.1006918825417
  0
LINE
  8
_0-0_
  6
CONTINUOUS
 62
    7
 10
1471.8970706661185
 20
942.1006918825417
 11
1471.8970706661185
 21
941.1006918825417
  0
LINE
  8
_0-0_
  6
CONTINUOUS
 62
    7
 10
1403.8970706661185
 20
943.1006918825417
 11
1403.8970706661185
 21
944.1006918825417
  0
LINE
  8
_0-0_
  6
CONTINUOUS
 62
    7
 10
1375.7843722939106
 20
1000.3849631300038
 11
1377.7843722939106
 21
1000.3849631300038
  0
LINE
  8
_0-0_
  6
CONTINUOUS
 62
    7
 10
1376.7843722939106
 20
970.21339025474958
 11
1377.7843722939106
 21
970.21339025474958
  0
LINE
  8
_0-0_
  6
CONTINUOUS
 62
    1
 10
1359.7843722939106
 20
982.29917669237716
 11
1350.9396843438381
 21
981.835646238462
  0
LINE
  8
_0-0_
  6
CONTINUOUS
 62
    1
 10
1376.7843722939106
 20
982.29917669237716
 11
1376.7843722939106
 21
977.29917669237716
  0
LINE
  8
_0-0_
  6
CONTINUOUS
 62
    1
 10
1376.7843722939106
 20
987.29917669237716
 11
1376.7843722939106
 21
992.29917669237716
  0
LINE
  8
_0-0_
  6
CONTINUOUS
 62
    1
 10
1378.7843722939106
 20
986.62400545146579
 11
1378.7843722939106
 21
982.97434793328671
  0
LINE
  8
_0-0_
  6
CONTINUOUS
 62
    1
 10
1378.7843722939106
 20
986.6240054514667
 11
1378.7843722939106
 21
986.6240054514667
  0
LINE
  8
_0-0_
  6
CONTINUOUS
 62
    1
 10
1378.7843722939106
 20
986.6240054514667
 11
1377.9063062517237
 21
989.99978648451997
  0
LINE
  8
_0-0_
  6
CONTINUOUS
 62
    1
 10
1377.9063062517237
 20
989.99978648451997
 11
1376.7843722939106
 21
992.29917669237716
  0
LINE
  8
_0-0_
  6
CONTINUOUS
 62
    1
 10
1376.7843722939106
 20
977.29917669237716
 11
1376.7843722939106
 21
977.29917669237716
  0
LINE
  8
_0-0_
  6
CONTINUOUS
 62
    1
 10
1376.7843722939106
 20
977.29917669237716
 11
1378.2498900615165
 21
980.57351537832369
  0
LINE
  8
_0-0_
  6
CONTINUOUS
 62
    1
 10
1378.2498900615165
 20
980.57351537832369
 11
1378.7843722939106
 21
982.97434793328762
  0
LINE
  8
_0-0_
  6
CONTINUOUS
 62
    1
 10
1378.9527009134868
 20
983.32046426150293
 11
1378.9527009134868
 21
983.32046426150293
  0
LINE
  8
_0-0_
  6
CONTINUOUS
 62
    1
 10
1378.9527009134868
 20
983.32046426150293
 11
1378.7843722939106
 21
983.54917669237716
  0
LINE
  8
_0-0_
  6
CONTINUOUS
 62
    1
 10
1378.7843722939106
 20
986.04917669237716
 11
1378.7843722939106
 21
986.04917669237716
  0
LINE
  8
_0-0_
  6
CONTINUOUS
 62
    1
 10
1378.7843722939106
 20
986.04917669237716
 11
1378.9527009134868
 21
986.27788912325138
  0
LINE
  8
_0-0_
  6
CONTINUOUS
 62
    1
 10
1378.9527009134868
 20
983.32046426150282
 11
1378.9527009134868
 21
983.32046426150282
  0
LINE
  8
_0-0_
  6
CONTINUOUS
 62
    1
 10
1378.9527009134868
 20
983.32046426150282
 11
1378.9822405883874
 21
983.57676889028528
  0
LINE
  8
_0-0_
  6
CONTINUOUS
 62
    1
 10
1378.9822405883874
 20
983.57676889028528
 11
1379.0057681352864
 21
983.8702157615661
  0
LINE
  8
_0-0_
  6
CONTINUOUS
 62
    1
 10
1379.0057681352864
 20
983.8702157615661
 11
1379.022568681577
 21
984.19188864065268
  0
LINE
  8
_0-0_
  6
CONTINUOUS
 62
    1
 10
1379.022568681577
 20
984.19188864065268
 11
1379.0321317511616
 21
984.53201365988832
  0
LINE
  8
_0-0_
  6
CONTINUOUS
 62
    1
 10
1379.0321317511616
 20
984.53201365988832
 11
1379.0341667750099
 21
984.88025629267509
  0
LINE
  8
_0-0_
  6
CONTINUOUS
 62
    1
 10
1379.0341667750099
 20
984.88025629267509
 11
1379.0286119199523
 21
985.22603536283509
  0
LINE
  8
_0-0_
  6
CONTINUOUS
 62
    1
 10
1379.0286119199523
 20
985.22603536283509
 11
1379.0156359674484
 21
985.55884454829413
  0
LINE
  8
_0-0_
  6
CONTINUOUS
 62
    1
 10
1379.0156359674484
 20
985.55884454829413
 11
1378.9956331852493
 21
985.86857161036164
  0
LINE
  8
_0-0_
  6
CONTINUOUS
 62
    1
 10
1378.9956331852493
 20
985.86857161036164
 11
1378.9692113477699
 21
986.14580564898608
  0
LINE
  8
_0-0_
  6
CONTINUOUS
 62
    1
 10
1378.9692113477699
 20
986.14580564898608
 11
1378.9527009134868
 21
986.27788912325138
  0
LINE
  8
_0-0_
  6
DASHED1
 62
    1
 10
1378.7843722939106
 20
986.04917669237716
 11
1352.0343722939106
 21
986.04917669237716
  0
LINE
  8
_0-0_
  6
DASHED1
 62
    1
 10
1378.7843722939106
 20
983.54917669237716
 11
1352.0343722939106
 21
983.54917669237716
  0
LINE
  8
_0-0_
  6
CONTINUOUS
 62
    1
 10
1359.7843722939106
 20
987.29917669237716
 11
1376.7843722939106
 21
987.29917669237716
  0
LINE
  8
_0-0_
  6
CONTINUOUS
 62
    1
 10
1359.7843722939106
 20
987.29917669237716
 11
1350.9396843438381
 21
987.7627071462914
  0
LINE
  8
_0-0_
  6
CONTINUOUS
 62
    1
 10
1359.7843722939106
 20
985.04917669237716
 11
1350.8220898226618
 21
985.51887001400269
  0
LINE
  8
_0-0_
  6
CONTINUOUS
 62
    1
 10
1359.7843722939106
 20
982.29917669237716
 11
1376.7843722939106
 21
982.29917669237716
  0
LINE
  8
_0-0_
  6
CONTINUOUS
 62
    1
 10
1359.7843722939106
 20
984.54917669237716
 11
1350.8220898226618
 21
984.07948337075163
  0
LINE
  8
_0-0_
  6
CONTINUOUS
 62
    1
 10
1359.7843722939106
 20
984.54917669237716
 11
1359.7843722939106
 21
985.04917669237716
  0
LINE
  8
_0-0_
  6
CONTINUOUS
 62
    7
 10
1377.7843722939106
 20
970.21339025474958
 11
1377.7843722939106
 21
977.04945821872775
  0
LINE
  8
_0-0_
  6
CONTINUOUS
 62
    7
 10
1377.7843722939106
 20
992.54889516602475
 11
1377.7843722939106
 21
1000.3849631300038
  0
LINE
  8
_0-0_
  6
CONTINUOUS
 62
    7
 10
1377.7843722939106
 20
977.04945821872866
 11
1377.7843722939106
 21
977.04945821872866
  0
LINE
  8
_0-0_
  6
CONTINUOUS
 62
    7
 10
1377.7843722939106
 20
977.04945821872866
 11
1379.2687628720446
 21
980.49744446208547
  0
LINE
  8
_0-0_
  6
CONTINUOUS
 62
    7
 10
1379.2687628720446
 20
980.49744446208547
 11
1379.8876696562593
 21
984.07613666247812
  0
LINE
  8
_0-0_
  6
CONTINUOUS
 62
    7
 10
1379.8876696562593
 20
984.07613666247812
 11
1379.6222874770981
 21
987.67679806830347
  0
LINE
  8
_0-0_
  6
CONTINUOUS
 62
    7
 10
1379.6222874770981
 20
987.67679806830347
 11
1378.4806798377847
 21
991.19002440476788
  0
LINE
  8
_0-0_
  6
CONTINUOUS
 62
    7
 10
1378.4806798377847
 20
991.19002440476788
 11
1377.7843722939106
 21
992.54889516602566
  0
LINE
  8
_0-0_
  6
CENTER2
 62
    1
 10
1384.2746000589186
 20
984.79917669237716
 11
1346.4975478464748
 21
984.79917669237716
  0
LINE
  8
_0-0_
  6
CONTINUOUS
 62
    4
 10
1382.7843722939106
 20
972.69867162898868
 11
1382.7843722939106
 21
975.88456114688984
  0
LINE
  8
_0-0_
  6
CONTINUOUS
 62
    4
 10
1382.7843722939106
 20
975.88456114689086
 11
1382.7843722939106
 21
975.88456114689086
  0
LINE
  8
_0-0_
  6
CONTINUOUS
 62
    4
 10
1382.7843722939106
 20
975.88456114689086
 11
1384.354680006106
 21
980.20284978020504
  0
LINE
  8
_0-0_
  6
CONTINUOUS
 62
    4
 10
1384.354680006106
 20
980.20284978020504
 11
1384.9049709058618
 21
984.66079548089203
  0
LINE
  8
_0-0_
  6
CONTINUOUS
 62
    4
 10
1384.9049709058618
 20
984.66079548089203
 11
1384.4185246826496
 21
989.12294582466563
  0
LINE
  8
_0-0_
  6
CONTINUOUS
 62
    4
 10
1384.4185246826496
 20
989.12294582466563
 11
1382.9101217588077
 21
993.45372063128752
  0
LINE
  8
_0-0_
  6
CONTINUOUS
 62
    4
 10
1382.9101217588077
 20
993.45372063128752
 11
1382.7843722939106
 21
993.71379223786346
  0
LINE
  8
_0-0_
  6
CONTINUOUS
 62
    4
 10
1382.7843722939106
 20
993.71379223786266
 11
1382.7843722939106
 21
1001.8849631300038
  0
LINE
  8
_0-0_
  6
CONTINUOUS
 62
    4
 10
1382.7843722939106
 20
1001.8849631300038
 11
1380.7843722939106
 21
1003.8849631300038
  0
LINE
  8
_0-0_
  6
CONTINUOUS
 62
    7
 10
1434.0686435413727
 20
942.1006918825417
 11
1434.0686435413727
 21
944.1006918825417
  0
LINE
  8
_0-0_
  6
CONTINUOUS
 62
    7
 10
1403.8970706661185
 20
944.1006918825417
 11
1410.7331386300966
 21
944.1006918825417
  0
LINE
  8
_0-0_
  6
CONTINUOUS
 62
    7
 10
1426.2325755773945
 20
944.1006918825417
 11
1434.0686435413727
 21
944.1006918825417
  0
LINE
  8
_0-0_
  6
CONTINUOUS
 62
    7
 10
1426.2325755773936
 20
944.1006918825417
 11
1426.2325755773936
 21
944.1006918825417
  0
LINE
  8
_0-0_
  6
CONTINUOUS
 62
    7
 10
1426.2325755773936
 20
944.1006918825417
 11
1422.7845893340368
 21
945.58508246067584
  0
LINE
  8
_0-0_
  6
CONTINUOUS
 62
    7
 10
1422.7845893340368
 20
945.58508246067584
 11
1419.2058971336442
 21
946.20398924489041
  0
LINE
  8
_0-0_
  6
CONTINUOUS
 62
    7
 10
1419.2058971336442
 20
946.20398924489041
 11
1415.6052357278188
 21
945.93860706572912
  0
LINE
  8
_0-0_
  6
CONTINUOUS
 62
    7
 10
1415.6052357278188
 20
945.93860706572912
 11
1412.0920093913544
 21
944.79699942641594
  0
LINE
  8
_0-0_
  6
CONTINUOUS
 62
    7
 10
1412.0920093913544
 20
944.79699942641594
 11
1410.7331386300966
 21
944.1006918825417
  0
LINE
  8
_0-0_
  6
CONTINUOUS
 62
    4
 10
1382.7843722939106
 20
972.69867162898868
 11
1403.3823520403575
 21
952.1006918825417
  0
LINE
  8
_0-0_
  6
CONTINUOUS
 62
    4
 10
1403.3823520403575
 20
952.1006918825417
 11
1408.9254159043458
 21
952.1006918825417
  0
LINE
  8
_0-0_
  6
CONTINUOUS
 62
    4
 10
1428.0402983031452
 20
952.1006918825417
 11
1428.0402983031452
 21
952.1006918825417
  0
LINE
  8
_0-0_
  6
CONTINUOUS
 62
    4
 10
1428.0402983031452
 20
952.1006918825417
 11
1423.1986588878165
 21
953.71670134627084
  0
LINE
  8
_0-0_
  6
CONTINUOUS
 62
    4
 10
1423.1986588878165
 20
953.71670134627084
 11
1418.2137322215897
 21
954.22015189103934
  0
LINE
  8
_0-0_
  6
CONTINUOUS
 62
    4
 10
1418.2137322215897
 20
954.22015189103934
 11
1413.2369827787236
 21
953.59574642680263
  0
LINE
  8
_0-0_
  6
CONTINUOUS
 62
    4
 10
1413.2369827787236
 20
953.59574642680263
 11
1408.9254159043451
 21
952.1006918825417
  0
LINE
  8
_0-0_
  6
CONTINUOUS
 62
    4
 10
1435.5686435413727
 20
952.1006918825417
 11
1437.5686435413727
 21
950.1006918825417
  0
LINE
  8
_0-0_
  6
CONTINUOUS
 62
  136
 10
1374.7843722939106
 20
969.38496313000383
 11
1403.0686435413727
 21
941.1006918825417
  0
LINE
  8
_0-0_
  6
CONTINUOUS
 62
  136
 10
1403.0686435413727
 20
941.1006918825417
 11
1433.0686435413727
 21
941.1006918825417
  0
LINE
  8
_0-0_
  6
CONTINUOUS
 62
  136
 10
1433.0686435413727
 20
941.1006918825417
 11
1433.0686435413727
 21
943.1006918825417
  0
LINE
  8
_0-0_
  6
CONTINUOUS
 62
  136
 10
1374.7843722939106
 20
999.38496313000383
 11
1374.7843722939106
 21
969.38496313000383
  0
LINE
  8
_0-0_
  6
CONTINUOUS
 62
  136
 10
1374.7843722939106
 20
999.38496313000383
 11
1376.7843722939106
 21
999.38496313000383
  0
LINE
  8
_0-0_
  6
CONTINUOUS
 62
  136
 10
1376.7843722939106
 20
999.38496313000383
 11
1376.7843722939106
 21
970.21339025474958
  0
LINE
  8
_0-0_
  6
CONTINUOUS
 62
  136
 10
1403.8970706661185
 20
943.1006918825417
 11
1433.0686435413727
 21
943.1006918825417
  0
LINE
  8
_0-0_
  6
DASHED1
 62
    1
 10
1417.2328571037451
 20
945.1006918825417
 11
1417.2328571037451
 21
874.3506918825417
  0
LINE
  8
_0-0_
  6
CONTINUOUS
 62
    1
 10
1416.6580283446556
 20
945.1006918825417
 11
1420.3076858628347
 21
945.1006918825417
  0
LINE
  8
_0-0_
  6
CONTINUOUS
 62
    1
 10
1416.6580283446556
 20
945.1006918825417
 11
1416.6580283446556
 21
945.1006918825417
  0
LINE
  8
_0-0_
  6
CONTINUOUS
 62
    1
 10
1416.6580283446556
 20
945.1006918825417
 11
1413.2822473116023
 21
944.22262584035479
  0
LINE
  8
_0-0_
  6
CONTINUOUS
 62
    1
 10
1413.2822473116023
 20
944.22262584035479
 11
1410.9828571037451
 21
943.1006918825417
  0
LINE
  8
_0-0_
  6
CONTINUOUS
 62
    1
 10
1419.9615695346195
 20
945.26902050211777
 11
1419.9615695346195
 21
945.26902050211777
  0
LINE
  8
_0-0_
  6
CONTINUOUS
 62
    1
 10
1419.9615695346195
 20
945.26902050211777
 11
1419.7328571037451
 21
945.1006918825417
  0
LINE
  8
_0-0_
  6
CONTINUOUS
 62
    1
 10
1417.2328571037451
 20
945.1006918825417
 11
1417.2328571037451
 21
945.1006918825417
  0
LINE
  8
_0-0_
  6
CONTINUOUS
 62
    1
 10
1417.2328571037451
 20
945.1006918825417
 11
1417.0041446728708
 21
945.26902050211777
  0
LINE
  8
_0-0_
  6
CONTINUOUS
 62
    1
 10
1419.9615695346195
 20
945.26902050211777
 11
1419.9615695346195
 21
945.26902050211777
  0
LINE
  8
_0-0_
  6
CONTINUOUS
 62
    1
 10
1419.9615695346195
 20
945.26902050211777
 11
1419.7052649058371
 21
945.29856017701843
  0
LINE
  8
_0-0_
  6
CONTINUOUS
 62
    1
 10
1419.7052649058371
 20
945.29856017701843
 11
1419.4118180345563
 21
945.32208772391755
  0
LINE
  8
_0-0_
  6
CONTINUOUS
 62
    1
 10
1419.4118180345563
 20
945.32208772391755
 11
1419.0901451554696
 21
945.33888827020826
  0
LINE
  8
_0-0_
  6
CONTINUOUS
 62
    1
 10
1419.0901451554696
 20
945.33888827020826
 11
1418.7500201362341
 21
945.34845133979286
  0
LINE
  8
_0-0_
  6
CONTINUOUS
 62
    1
 10
1418.7500201362341
 20
945.34845133979286
 11
1418.4017775034472
 21
945.35048636364115
  0
LINE
  8
_0-0_
  6
CONTINUOUS
 62
    1
 10
1418.4017775034472
 20
945.35048636364115
 11
1418.0559984332872
 21
945.34493150858339
  0
LINE
  8
_0-0_
  6
CONTINUOUS
 62
    1
 10
1418.0559984332872
 20
945.34493150858339
 11
1417.723189247828
 21
945.33195555607961
  0
LINE
  8
_0-0_
  6
CONTINUOUS
 62
    1
 10
1417.723189247828
 20
945.33195555607961
 11
1417.4134621857606
 21
945.31195277388031
  0
LINE
  8
_0-0_
  6
CONTINUOUS
 62
    1
 10
1417.4134621857606
 20
945.31195277388031
 11
1417.1362281471361
 21
945.28553093640096
  0
LINE
  8
_0-0_
  6
CONTINUOUS
 62
    1
 10
1417.1362281471361
 20
945.28553093640096
 11
1417.0041446728708
 21
945.26902050211788
  0
LINE
  8
_0-0_
  6
CONTINUOUS
 62
    1
 10
1415.9828571037451
 20
943.07355166434377
 11
1415.9828571037451
 21
943.1006918825417
  0
LINE
  8
_0-0_
  6
CONTINUOUS
 62
    1
 10
1425.9828571037451
 20
943.1006918825417
 11
1425.9828571037451
 21
943.1006918825417
  0
LINE
  8
_0-0_
  6
CONTINUOUS
 62
    1
 10
1425.9828571037451
 20
943.1006918825417
 11
1425.8512353231808
 21
943.17738420500268
  0
LINE
  8
_0-0_
  6
CONTINUOUS
 62
    1
 10
1425.8512353231808
 20
943.17738420500268
 11
1425.8512353231808
 21
943.17738420500268
  0
LINE
  8
_0-0_
  6
CONTINUOUS
 62
    1
 10
1425.8512353231808
 20
943.17738420500268
 11
1422.5695740304081
 21
944.60908558342339
  0
LINE
  8
_0-0_
  6
CONTINUOUS
 62
    1
 10
1422.5695740304081
 20
944.60908558342339
 11
1420.3076858628347
 21
945.1006918825417
  0
LINE
  8
_0-0_
  6
CONTINUOUS
 62
    1
 10
1425.9828571037451
 20
943.1006918825417
 11
1410.9828571037451
 21
943.1006918825417
  0
LINE
  8
_0-0_
  6
CONTINUOUS
 62
    1
 10
1420.9828571037451
 20
882.1006918825417
 11
1421.4463875576603
 21
873.25600393246918
  0
LINE
  8
_0-0_
  6
CONTINUOUS
 62
    1
 10
1418.4828571037451
 20
873.1006918825417
 11
1417.7971247975483
 21
873.78642418873847
  0
LINE
  8
_0-0_
  6
CONTINUOUS
 62
    1
 10
1418.4828571037451
 20
873.1006918825417
 11
1419.1685894099423
 21
873.78642418873847
  0
LINE
  8
_0-0_
  6
DASHED1
 62
    1
 10
1417.7971247975483
 20
873.78642418873847
 11
1417.2328571037451
 21
874.3506918825417
  0
LINE
  8
_0-0_
  6
CONTINUOUS
 62
    1
 10
1415.9828571037451
 20
882.1006918825417
 11
1415.5193266498309
 21
873.25600393246918
  0
LINE
  8
_0-0_
  6
CONTINUOUS
 62
    1
 10
1418.2328571037451
 20
882.1006918825417
 11
1417.7631637821196
 21
873.13840941129297
  0
LINE
  8
_0-0_
  6
CONTINUOUS
 62
    1
 10
1418.7328571037451
 20
882.1006918825417
 11
1419.2025504253706
 21
873.13840941129297
  0
LINE
  8
_0-0_
  6
DASHED1
 62
    1
 10
1419.1685894099423
 20
873.78642418873847
 11
1419.7328571037451
 21
874.3506918825417
  0
LINE
  8
_0-0_
  6
CONTINUOUS
 62
    1
 10
1421.4463875576603
 20
873.25600393246918
 11
1419.2025504253706
 21
873.13840941129297
  0
LINE
  8
_0-0_
  6
CONTINUOUS
 62
    1
 10
1417.7631637821196
 20
873.13840941129297
 11
1415.5193266498309
 21
873.25600393246918
  0
LINE
  8
_0-0_
  6
CONTINUOUS
 62
    1
 10
1418.7328571037451
 20
882.1006918825417
 11
1418.2328571037451
 21
882.1006918825417
  0
LINE
  8
_0-0_
  6
DASHED1
 62
    1
 10
1419.7328571037451
 20
945.1006918825417
 11
1419.7328571037451
 21
874.3506918825417
  0
LINE
  8
_0-0_
  6
CENTER2
 62
    1
 10
1418.4828571037451
 20
953.65578229403786
 11
1418.4828571037451
 21
868.57033864918617
  0
LINE
  8
_0-0_
  6
CONTINUOUS
 62
    1
 10
1420.9828571037451
 20
882.1006918825417
 11
1420.9828571037451
 21
943.1006918825417
  0
LINE
  8
_0-0_
  6
CONTINUOUS
 62
    1
 10
1415.9828571037451
 20
882.1006918825417
 11
1415.9828571037451
 21
943.1006918825417
  0
LINE
  8
_0-0_
  6
CONTINUOUS
 62
    7
 10
1375.7843722939106
 20
1000.3849631300038
 11
1375.7843722939106
 21
1038.2133902547496
  0
LINE
  8
_0-0_
  6
CONTINUOUS
 62
    7
 10
1375.7843722939106
 20
1038.2133902547496
 11
1374.7843722939106
 21
1038.2133902547496
  0
LINE
  8
_0-0_
  6
CONTINUOUS
 62
    1
 10
1423.4828571037451
 20
900.1006918825417
 11
1413.4828571037451
 21
900.1006918825417
  0
LINE
  8
_0-0_
  6
CONTINUOUS
 62
    1
 10
1413.4828571037451
 20
900.1006918825417
 11
1413.4828571037451
 21
935.1006918825417
  0
LINE
  8
_0-0_
  6
CONTINUOUS
 62
    1
 10
1413.4828571037451
 20
935.1006918825417
 11
1423.4828571037451
 21
935.1006918825417
  0
LINE
  8
_0-0_
  6
CONTINUOUS
 62
    1
 10
1423.4828571037451
 20
935.1006918825417
 11
1423.4828571037451
 21
900.1006918825417
  0
LINE
  8
_0-0_
  6
CONTINUOUS
 62
    1
 10
1414.4828571037451
 20
900.1006918825417
 11
1414.4828571037451
 21
935.1006918825417
  0
LINE
  8
_0-0_
  6
CONTINUOUS
 62
    1
 10
1422.4828571037451
 20
935.1006918825417
 11
1422.4828571037451
 21
900.1006918825417
  0
LINE
  8
_0-0_
  6
CONTINUOUS
 62
    6
 10
1580.8554961522891
 20
935.10069188254261
 11
1589.2315502939109
 21
926.72463774092034
  0
LINE
  8
_0-0_
  6
CONTINUOUS
 62
    6
 10
1573.5852329651671
 20
900.10069188254261
 11
1589.2315502939109
 21
915.74700921128647
  0
LINE
  8
_0-0_
  6
CONTINUOUS
 62
    6
 10
1587.7273685888968
 20
900.10069188254079
 11
1589.2315502939109
 21
901.60487358755495
  0
LINE
  8
_0-0_
  6
CONTINUOUS
 62
    6
 10
1566.713360528559
 20
935.1006918825417
 11
1589.2315502939109
 21
912.58250211718973
  0
LINE
  8
_0-0_
  6
CONTINUOUS
 62
    6
 10
1589.2315502939109
 20
935.1006918825417
 11
1374.7843722939106
 21
935.1006918825417
  0
LINE
  8
_0-0_
  6
CONTINUOUS
 62
    3
 10
1374.7843722939106
 20
941.1006918825417
 11
1589.2315502939109
 21
941.1006918825417
  0
LINE
  8
_0-0_
  6
CONTINUOUS
 62
    6
 10
1559.443097341436
 20
900.1006918825417
 11
1589.2315502939109
 21
929.88914483501708
  0
LINE
  8
_0-0_
  6
CONTINUOUS
 62
    4
 10
1437.5686435413727
 20
950.1006918825417
 11
1589.2315502939109
 21
950.1006918825417
  0
LINE
  8
_0-0_
  6
CONTINUOUS
 62
    4
 10
1380.7843722939106
 20
1117.1122415670045
 11
1380.7843722939106
 21
1003.8849631300038
  0
LINE
  8
_0-0_
  6
CONTINUOUS
 62
    7
 10
929.80010104644782
 20
942.1006918825417
 11
891.97167392170206
 21
942.1006918825417
  0
LINE
  8
_0-0_
  6
CONTINUOUS
 62
  136
 10
987.08437229390995
 20
970.21339025474958
 11
959.97167392170206
 21
943.1006918825417
  0
LINE
  8
_0-0_
  6
CONTINUOUS
 62
    6
 10
989.08437229391041
 20
927.57400119098043
 11
981.55768160234823
 21
935.10069188254261
  0
LINE
  8
_0-0_
  6
CONTINUOUS
 62
    6
 10
989.08437229391041
 20
913.43186556724891
 11
967.41554597861716
 21
935.10069188254261
  0
LINE
  8
_0-0_
  6
CONTINUOUS
 62
    6
 10
988.27341035488791
 20
900.10069188254079
 11
953.27341035488791
 21
935.10069188254079
  0
LINE
  8
_0-0_
  6
CONTINUOUS
 62
    6
 10
974.13127473115503
 20
900.10069188254261
 11
939.13127473115503
 21
935.10069188254261
  0
LINE
  8
_0-0_
  6
CONTINUOUS
 62
    6
 10
959.98913910742442
 20
900.10069188254261
 11
924.98913910742442
 21
935.10069188254261
  0
LINE
  8
_0-0_
  6
CONTINUOUS
 62
    6
 10
945.84700348369472
 20
900.1006918825417
 11
910.84700348369518
 21
935.10069188254079
  0
LINE
  8
_0-0_
  6
CONTINUOUS
 62
    6
 10
931.70486785996229
 20
900.10069188254261
 11
896.70486785996229
 21
935.10069188254261
  0
LINE
  8
_0-0_
  6
CONTINUOUS
 62
    6
 10
917.56273223623168
 20
900.10069188254261
 11
882.56273223623168
 21
935.10069188254261
  0
LINE
  8
_0-0_
  6
CONTINUOUS
 62
    6
 10
903.42059661250198
 20
900.10069188254079
 11
868.42059661250198
 21
935.1006918825417
  0
LINE
  8
_0-0_
  6
CONTINUOUS
 62
    6
 10
889.27846098877001
 20
900.1006918825417
 11
854.27846098876955
 21
935.10069188254261
  0
LINE
  8
_0-0_
  6
CONTINUOUS
 62
    6
 10
875.13632536503894
 20
900.10069188254261
 11
840.13632536503849
 21
935.10069188254261
  0
LINE
  8
_0-0_
  6
CONTINUOUS
 62
    6
 10
860.99418974130924
 20
900.1006918825417
 11
825.99418974130924
 21
935.10069188254079
  0
LINE
  8
_0-0_
  6
CONTINUOUS
 62
    6
 10
846.85205411757727
 20
900.10069188254261
 11
811.85205411757727
 21
935.1006918825417
  0
LINE
  8
_0-0_
  6
CONTINUOUS
 62
    6
 10
832.70991849384575
 20
900.10069188254261
 11
797.70991849384575
 21
935.10069188254261
  0
LINE
  8
_0-0_
  6
CONTINUOUS
 62
    6
 10
818.5677828701165
 20
900.1006918825417
 11
783.5677828701165
 21
935.1006918825417
  0
LINE
  8
_0-0_
  6
CONTINUOUS
 62
    6
 10
804.42564724638453
 20
900.1006918825417
 11
769.42564724638453
 21
935.1006918825417
  0
LINE
  8
_0-0_
  6
CONTINUOUS
 62
    6
 10
797.15538405926156
 20
935.1006918825417
 11
762.15538405926111
 21
900.1006918825417
  0
LINE
  8
_0-0_
  6
CONTINUOUS
 62
    6
 10
811.29751968299172
 20
935.10069188254079
 11
776.29751968299217
 21
900.1006918825417
  0
LINE
  8
_0-0_
  6
CONTINUOUS
 62
    6
 10
825.43965530672415
 20
935.10069188254261
 11
790.43965530672415
 21
900.10069188254261
  0
LINE
  8
_0-0_
  6
CONTINUOUS
 62
    6
 10
839.58179093045385
 20
935.1006918825417
 11
804.58179093045385
 21
900.1006918825417
  0
LINE
  8
_0-0_
  6
CONTINUOUS
 62
    6
 10
853.72392655418446
 20
935.10069188254079
 11
818.72392655418491
 21
900.10069188254261
  0
LINE
  8
_0-0_
  6
CONTINUOUS
 62
    6
 10
867.86606217791689
 20
935.10069188254261
 11
832.86606217791689
 21
900.10069188254261
  0
LINE
  8
_0-0_
  6
CONTINUOUS
 62
    6
 10
882.00819780164659
 20
935.10069188254079
 11
847.00819780164704
 21
900.10069188254079
  0
LINE
  8
_0-0_
  6
CONTINUOUS
 62
    6
 10
896.1503334253772
 20
935.10069188254079
 11
861.1503334253772
 21
900.10069188254079
  0
LINE
  8
_0-0_
  6
CONTINUOUS
 62
    6
 10
910.29246904910963
 20
935.10069188254261
 11
875.29246904910963
 21
900.10069188254261
  0
LINE
  8
_0-0_
  6
CONTINUOUS
 62
    6
 10
924.43460467283933
 20
935.10069188254079
 11
889.43460467283978
 21
900.10069188254079
  0
LINE
  8
_0-0_
  6
CONTINUOUS
 62
    6
 10
938.57674029656994
 20
935.10069188254079
 11
903.57674029657039
 21
900.10069188254261
  0
LINE
  8
_0-0_
  6
CONTINUOUS
 62
    6
 10
952.71887592030237
 20
935.10069188254261
 11
917.71887592030237
 21
900.10069188254261
  0
LINE
  8
_0-0_
  6
CONTINUOUS
 62
    6
 10
966.86101154403207
 20
935.10069188254079
 11
931.86101154403207
 21
900.10069188254079
  0
LINE
  8
_0-0_
  6
CONTINUOUS
 62
    6
 10
981.00314716776268
 20
935.10069188254079
 11
946.00314716776268
 21
900.10069188254079
  0
LINE
  8
_0-0_
  6
CONTINUOUS
 62
    6
 10
989.0843722939095
 20
929.03978138495609
 11
960.14528279149511
 21
900.10069188254261
  0
LINE
  8
_0-0_
  6
CONTINUOUS
 62
    6
 10
989.08437229391041
 20
914.89764576122639
 11
974.28741841522572
 21
900.10069188254079
  0
LINE
  8
_0-0_
  6
CONTINUOUS
 62
    6
 10
989.08437229390995
 20
900.75551013749396
 11
988.42955403895769
 21
900.1006918825417
  0
LINE
  8
_0-0_
  6
CONTINUOUS
 62
    6
 10
989.08437229390995
 20
935.1006918825417
 11
989.08437229390995
 21
900.1006918825417
  0
LINE
  8
_0-0_
  6
CONTINUOUS
 62
    1
 10
1013.08437229391
 20
984.79917669237716
 11
1012.3986399877132
 21
985.48490899857393
  0
LINE
  8
_0-0_
  6
CONTINUOUS
 62
    1
 10
1013.08437229391
 20
984.79917669237716
 11
1012.3986399877132
 21
984.11344438617948
  0
LINE
  8
_0-0_
  6
DASHED1
 62
    1
 10
1012.3986399877132
 20
985.48490899857393
 11
1011.83437229391
 21
986.04917669237716
  0
LINE
  8
_0-0_
  6
DASHED1
 62
    1
 10
1012.3986399877132
 20
984.11344438617948
 11
1011.83437229391
 21
983.54917669237716
  0
LINE
  8
_0-0_
  6
CONTINUOUS
 62
    1
 10
1012.9290602439825
 20
981.835646238462
 11
1013.0466547651587
 21
984.07948337075163
  0
LINE
  8
_0-0_
  6
CONTINUOUS
 62
    1
 10
1013.0466547651587
 20
985.51887001400269
 11
1012.9290602439825
 21
987.7627071462914
  0
LINE
  8
_0-0_
  6
CONTINUOUS
 62
    4
 10
935.82844628467512
 20
952.1006918825417
 11
928.30010104644782
 21
952.1006918825417
  0
LINE
  8
_0-0_
  6
CONTINUOUS
 62
    7
 10
891.97167392170206
 20
942.1006918825417
 11
891.97167392170206
 21
941.1006918825417
  0
LINE
  8
_0-0_
  6
CONTINUOUS
 62
    7
 10
959.97167392170206
 20
943.1006918825417
 11
959.97167392170206
 21
944.1006918825417
  0
LINE
  8
_0-0_
  6
CONTINUOUS
 62
    7
 10
988.08437229390995
 20
1000.3849631300038
 11
986.08437229390995
 21
1000.3849631300038
  0
LINE
  8
_0-0_
  6
CONTINUOUS
 62
    7
 10
987.08437229390995
 20
970.21339025474958
 11
986.08437229390995
 21
970.21339025474958
  0
LINE
  8
_0-0_
  6
CONTINUOUS
 62
    1
 10
1004.08437229391
 20
982.29917669237716
 11
1012.9290602439825
 21
981.835646238462
  0
LINE
  8
_0-0_
  6
CONTINUOUS
 62
    1
 10
987.08437229390995
 20
982.29917669237716
 11
987.08437229390995
 21
977.29917669237716
  0
LINE
  8
_0-0_
  6
CONTINUOUS
 62
    1
 10
987.08437229390995
 20
987.29917669237716
 11
987.08437229390995
 21
992.29917669237716
  0
LINE
  8
_0-0_
  6
CONTINUOUS
 62
    1
 10
985.08437229390995
 20
986.62400545146579
 11
985.08437229390995
 21
982.97434793328671
  0
LINE
  8
_0-0_
  6
CONTINUOUS
 62
    1
 10
987.08437229390995
 20
992.29917669237716
 11
987.08437229390995
 21
992.29917669237716
  0
LINE
  8
_0-0_
  6
CONTINUOUS
 62
    1
 10
987.08437229390995
 20
992.29917669237716
 11
985.61885452630395
 21
989.02483800643063
  0
LINE
  8
_0-0_
  6
CONTINUOUS
 62
    1
 10
985.61885452630395
 20
989.02483800643063
 11
985.08437229390995
 21
986.6240054514667
  0
LINE
  8
_0-0_
  6
CONTINUOUS
 62
    1
 10
985.08437229390995
 20
982.97434793328762
 11
985.08437229390995
 21
982.97434793328762
  0
LINE
  8
_0-0_
  6
CONTINUOUS
 62
    1
 10
985.08437229390995
 20
982.97434793328762
 11
985.96243833609685
 21
979.59856690023435
  0
LINE
  8
_0-0_
  6
CONTINUOUS
 62
    1
 10
985.96243833609685
 20
979.59856690023435
 11
987.08437229390995
 21
977.29917669237716
  0
LINE
  8
_0-0_
  6
CONTINUOUS
 62
    1
 10
985.08437229390995
 20
983.54917669237716
 11
985.08437229390995
 21
983.54917669237716
  0
LINE
  8
_0-0_
  6
CONTINUOUS
 62
    1
 10
985.08437229390995
 20
983.54917669237716
 11
984.91604367433388
 21
983.32046426150293
  0
LINE
  8
_0-0_
  6
CONTINUOUS
 62
    1
 10
984.91604367433388
 20
986.27788912325138
 11
984.91604367433388
 21
986.27788912325138
  0
LINE
  8
_0-0_
  6
CONTINUOUS
 62
    1
 10
984.91604367433388
 20
986.27788912325138
 11
985.08437229390995
 21
986.04917669237716
  0
LINE
  8
_0-0_
  6
CONTINUOUS
 62
    1
 10
984.91604367433376
 20
986.27788912325138
 11
984.91604367433376
 21
986.27788912325138
  0
LINE
  8
_0-0_
  6
CONTINUOUS
 62
    1
 10
984.91604367433376
 20
986.27788912325138
 11
984.88650399943322
 21
986.02158449446893
  0
LINE
  8
_0-0_
  6
CONTINUOUS
 62
    1
 10
984.88650399943322
 20
986.02158449446893
 11
984.8629764525341
 21
985.7281376231881
  0
LINE
  8
_0-0_
  6
CONTINUOUS
 62
    1
 10
984.8629764525341
 20
985.7281376231881
 11
984.84617590624339
 21
985.40646474410153
  0
LINE
  8
_0-0_
  6
CONTINUOUS
 62
    1
 10
984.84617590624339
 20
985.40646474410153
 11
984.83661283665879
 21
985.06633972486588
  0
LINE
  8
_0-0_
  6
CONTINUOUS
 62
    1
 10
984.83661283665879
 20
985.06633972486588
 11
984.83457781281049
 21
984.71809709207912
  0
LINE
  8
_0-0_
  6
CONTINUOUS
 62
    1
 10
984.83457781281049
 20
984.71809709207912
 11
984.84013266786826
 21
984.37231802191911
  0
LINE
  8
_0-0_
  6
CONTINUOUS
 62
    1
 10
984.84013266786826
 20
984.37231802191911
 11
984.85310862037204
 21
984.03950883646007
  0
LINE
  8
_0-0_
  6
CONTINUOUS
 62
    1
 10
984.85310862037204
 20
984.03950883646007
 11
984.87311140257134
 21
983.72978177439256
  0
LINE
  8
_0-0_
  6
CONTINUOUS
 62
    1
 10
984.87311140257134
 20
983.72978177439256
 11
984.89953324005069
 21
983.45254773576812
  0
LINE
  8
_0-0_
  6
CONTINUOUS
 62
    1
 10
984.89953324005069
 20
983.45254773576812
 11
984.91604367433388
 21
983.32046426150282
  0
LINE
  8
_0-0_
  6
DASHED1
 62
    1
 10
985.08437229390995
 20
986.04917669237716
 11
1011.83437229391
 21
986.04917669237716
  0
LINE
  8
_0-0_
  6
DASHED1
 62
    1
 10
985.08437229390995
 20
983.54917669237716
 11
1011.83437229391
 21
983.54917669237716
  0
LINE
  8
_0-0_
  6
CONTINUOUS
 62
    1
 10
1004.08437229391
 20
987.29917669237716
 11
987.08437229390995
 21
987.29917669237716
  0
LINE
  8
_0-0_
  6
CONTINUOUS
 62
    1
 10
1004.08437229391
 20
987.29917669237716
 11
1012.9290602439825
 21
987.7627071462914
  0
LINE
  8
_0-0_
  6
CONTINUOUS
 62
    1
 10
1004.08437229391
 20
985.04917669237716
 11
1013.0466547651587
 21
985.51887001400269
  0
LINE
  8
_0-0_
  6
CONTINUOUS
 62
    1
 10
1004.08437229391
 20
982.29917669237716
 11
987.08437229390995
 21
982.29917669237716
  0
LINE
  8
_0-0_
  6
CONTINUOUS
 62
    1
 10
1004.08437229391
 20
984.54917669237716
 11
1013.0466547651587
 21
984.07948337075163
  0
LINE
  8
_0-0_
  6
CONTINUOUS
 62
    1
 10
1004.08437229391
 20
984.54917669237716
 11
1004.08437229391
 21
985.04917669237716
  0
LINE
  8
_0-0_
  6
CONTINUOUS
 62
    7
 10
986.08437229390995
 20
970.21339025474958
 11
986.08437229390995
 21
977.04945821872775
  0
LINE
  8
_0-0_
  6
CONTINUOUS
 62
    7
 10
986.08437229390995
 20
992.54889516602475
 11
986.08437229390995
 21
1000.3849631300038
  0
LINE
  8
_0-0_
  6
CONTINUOUS
 62
    7
 10
986.08437229390995
 20
992.54889516602566
 11
986.08437229390995
 21
992.54889516602566
  0
LINE
  8
_0-0_
  6
CONTINUOUS
 62
    7
 10
986.08437229390995
 20
992.54889516602566
 11
984.59998171577581
 21
989.10090892266885
  0
LINE
  8
_0-0_
  6
CONTINUOUS
 62
    7
 10
984.59998171577581
 20
989.10090892266885
 11
983.98107493156124
 21
985.52221672227608
  0
LINE
  8
_0-0_
  6
CONTINUOUS
 62
    7
 10
983.98107493156124
 20
985.52221672227608
 11
984.24645711072253
 21
981.92155531645085
  0
LINE
  8
_0-0_
  6
CONTINUOUS
 62
    7
 10
984.24645711072253
 20
981.92155531645085
 11
985.38806475003571
 21
978.40832897998644
  0
LINE
  8
_0-0_
  6
CONTINUOUS
 62
    7
 10
985.38806475003571
 20
978.40832897998644
 11
986.08437229390995
 21
977.04945821872866
  0
LINE
  8
_0-0_
  6
CENTER2
 62
    1
 10
979.59414452890189
 20
984.79917669237716
 11
1017.3711967413457
 21
984.79917669237716
  0
LINE
  8
_0-0_
  6
CONTINUOUS
 62
    4
 10
981.08437229390995
 20
972.69867162898868
 11
981.08437229390995
 21
975.88456114688984
  0
LINE
  8
_0-0_
  6
CONTINUOUS
 62
    4
 10
981.08437229390995
 20
993.71379223786346
 11
981.08437229390995
 21
993.71379223786346
  0
LINE
  8
_0-0_
  6
CONTINUOUS
 62
    4
 10
981.08437229390995
 20
993.71379223786346
 11
979.51406458171448
 21
989.39550360454928
  0
LINE
  8
_0-0_
  6
CONTINUOUS
 62
    4
 10
979.51406458171448
 20
989.39550360454928
 11
978.96377368195863
 21
984.93755790386228
  0
LINE
  8
_0-0_
  6
CONTINUOUS
 62
    4
 10
978.96377368195863
 20
984.93755790386228
 11
979.45021990517102
 21
980.47540756008868
  0
LINE
  8
_0-0_
  6
CONTINUOUS
 62
    4
 10
979.45021990517102
 20
980.47540756008868
 11
980.95862282901294
 21
976.14463275346679
  0
LINE
  8
_0-0_
  6
CONTINUOUS
 62
    4
 10
980.95862282901294
 20
976.14463275346679
 11
981.08437229390995
 21
975.88456114689086
  0
LINE
  8
_0-0_
  6
CONTINUOUS
 62
    4
 10
981.08437229390995
 20
993.71379223786266
 11
981.08437229390995
 21
1001.8849631300038
  0
LINE
  8
_0-0_
  6
CONTINUOUS
 62
    4
 10
981.08437229390995
 20
1001.8849631300038
 11
983.08437229390995
 21
1003.8849631300038
  0
LINE
  8
_0-0_
  6
CONTINUOUS
 62
    7
 10
929.80010104644782
 20
942.1006918825417
 11
929.80010104644782
 21
944.1006918825417
  0
LINE
  8
_0-0_
  6
CONTINUOUS
 62
    7
 10
959.97167392170206
 20
944.1006918825417
 11
953.1356059577239
 21
944.1006918825417
  0
LINE
  8
_0-0_
  6
CONTINUOUS
 62
    7
 10
937.63616901042599
 20
944.1006918825417
 11
929.80010104644782
 21
944.1006918825417
  0
LINE
  8
_0-0_
  6
CONTINUOUS
 62
    7
 10
953.1356059577239
 20
944.1006918825417
 11
953.1356059577239
 21
944.1006918825417
  0
LINE
  8
_0-0_
  6
CONTINUOUS
 62
    7
 10
953.1356059577239
 20
944.1006918825417
 11
949.68761971436709
 21
945.58508246067584
  0
LINE
  8
_0-0_
  6
CONTINUOUS
 62
    7
 10
949.68761971436709
 20
945.58508246067584
 11
946.10892751397444
 21
946.20398924489041
  0
LINE
  8
_0-0_
  6
CONTINUOUS
 62
    7
 10
946.10892751397444
 20
946.20398924489041
 11
942.50826610814909
 21
945.93860706572912
  0
LINE
  8
_0-0_
  6
CONTINUOUS
 62
    7
 10
942.50826610814909
 20
945.93860706572912
 11
938.99503977168467
 21
944.79699942641594
  0
LINE
  8
_0-0_
  6
CONTINUOUS
 62
    7
 10
938.99503977168467
 20
944.79699942641594
 11
937.6361690104269
 21
944.1006918825417
  0
LINE
  8
_0-0_
  6
CONTINUOUS
 62
    4
 10
981.08437229390995
 20
972.69867162898868
 11
960.48639254746297
 21
952.1006918825417
  0
LINE
  8
_0-0_
  6
CONTINUOUS
 62
    4
 10
960.48639254746297
 20
952.1006918825417
 11
954.94332868347476
 21
952.1006918825417
  0
LINE
  8
_0-0_
  6
CONTINUOUS
 62
    4
 10
954.94332868347533
 20
952.1006918825417
 11
954.94332868347533
 21
952.1006918825417
  0
LINE
  8
_0-0_
  6
CONTINUOUS
 62
    4
 10
954.94332868347533
 20
952.1006918825417
 11
950.10168926814674
 21
953.71670134627084
  0
LINE
  8
_0-0_
  6
CONTINUOUS
 62
    4
 10
950.10168926814674
 20
953.71670134627084
 11
945.11676260192007
 21
954.22015189103934
  0
LINE
  8
_0-0_
  6
CONTINUOUS
 62
    4
 10
945.11676260192007
 20
954.22015189103934
 11
940.14001315905386
 21
953.59574642680263
  0
LINE
  8
_0-0_
  6
CONTINUOUS
 62
    4
 10
940.14001315905386
 20
953.59574642680263
 11
935.82844628467546
 21
952.1006918825417
  0
LINE
  8
_0-0_
  6
CONTINUOUS
 62
    4
 10
928.30010104644782
 20
952.1006918825417
 11
926.30010104644782
 21
950.1006918825417
  0
LINE
  8
_0-0_
  6
CONTINUOUS
 62
  136
 10
989.08437229390995
 20
969.38496313000383
 11
960.80010104644782
 21
941.1006918825417
  0
LINE
  8
_0-0_
  6
CONTINUOUS
 62
  136
 10
960.80010104644782
 20
941.1006918825417
 11
930.80010104644782
 21
941.1006918825417
  0
LINE
  8
_0-0_
  6
CONTINUOUS
 62
  136
 10
930.80010104644782
 20
941.1006918825417
 11
930.80010104644782
 21
943.1006918825417
  0
LINE
  8
_0-0_
  6
CONTINUOUS
 62
  136
 10
989.08437229390995
 20
999.38496313000383
 11
989.08437229390995
 21
969.38496313000383
  0
LINE
  8
_0-0_
  6
CONTINUOUS
 62
  136
 10
989.08437229390995
 20
999.38496313000383
 11
987.08437229390995
 21
999.38496313000383
  0
LINE
  8
_0-0_
  6
CONTINUOUS
 62
  136
 10
987.08437229390995
 20
999.38496313000383
 11
987.08437229390995
 21
970.21339025474958
  0
LINE
  8
_0-0_
  6
CONTINUOUS
 62
  136
 10
959.97167392170206
 20
943.1006918825417
 11
930.80010104644782
 21
943.1006918825417
  0
LINE
  8
_0-0_
  6
DASHED1
 62
    1
 10
946.6358874840754
 20
945.1006918825417
 11
946.6358874840754
 21
874.3506918825417
  0
LINE
  8
_0-0_
  6
CONTINUOUS
 62
    1
 10
947.21071624316494
 20
945.1006918825417
 11
943.56105872498586
 21
945.1006918825417
  0
LINE
  8
_0-0_
  6
CONTINUOUS
 62
    1
 10
952.8858874840754
 20
943.1006918825417
 11
952.8858874840754
 21
943.1006918825417
  0
LINE
  8
_0-0_
  6
CONTINUOUS
 62
    1
 10
952.8858874840754
 20
943.1006918825417
 11
949.61154879812887
 21
944.56620965014758
  0
LINE
  8
_0-0_
  6
CONTINUOUS
 62
    1
 10
949.61154879812887
 20
944.56620965014758
 11
947.21071624316494
 21
945.1006918825417
  0
LINE
  8
_0-0_
  6
CONTINUOUS
 62
    1
 10
944.1358874840754
 20
945.1006918825417
 11
944.1358874840754
 21
945.1006918825417
  0
LINE
  8
_0-0_
  6
CONTINUOUS
 62
    1
 10
944.1358874840754
 20
945.1006918825417
 11
943.90717505320117
 21
945.26902050211777
  0
LINE
  8
_0-0_
  6
CONTINUOUS
 62
    1
 10
946.86459991494962
 20
945.26902050211777
 11
946.86459991494962
 21
945.26902050211777
  0
LINE
  8
_0-0_
  6
CONTINUOUS
 62
    1
 10
946.86459991494962
 20
945.26902050211777
 11
946.6358874840754
 21
945.1006918825417
  0
LINE
  8
_0-0_
  6
CONTINUOUS
 62
    1
 10
946.86459991494962
 20
945.26902050211788
 11
946.86459991494962
 21
945.26902050211788
  0
LINE
  8
_0-0_
  6
CONTINUOUS
 62
    1
 10
946.86459991494962
 20
945.26902050211788
 11
946.60829528616716
 21
945.29856017701843
  0
LINE
  8
_0-0_
  6
CONTINUOUS
 62
    1
 10
946.60829528616716
 20
945.29856017701843
 11
946.31484841488634
 21
945.32208772391755
  0
LINE
  8
_0-0_
  6
CONTINUOUS
 62
    1
 10
946.31484841488634
 20
945.32208772391755
 11
945.99317553579976
 21
945.33888827020826
  0
LINE
  8
_0-0_
  6
CONTINUOUS
 62
    1
 10
945.99317553579976
 20
945.33888827020826
 11
945.65305051656412
 21
945.34845133979286
  0
LINE
  8
_0-0_
  6
CONTINUOUS
 62
    1
 10
945.65305051656412
 20
945.34845133979286
 11
945.30480788377736
 21
945.35048636364115
  0
LINE
  8
_0-0_
  6
CONTINUOUS
 62
    1
 10
945.30480788377736
 20
945.35048636364115
 11
944.95902881361735
 21
945.34493150858339
  0
LINE
  8
_0-0_
  6
CONTINUOUS
 62
    1
 10
944.95902881361735
 20
945.34493150858339
 11
944.62621962815831
 21
945.33195555607961
  0
LINE
  8
_0-0_
  6
CONTINUOUS
 62
    1
 10
944.62621962815831
 20
945.33195555607961
 11
944.3164925660908
 21
945.31195277388031
  0
LINE
  8
_0-0_
  6
CONTINUOUS
 62
    1
 10
944.3164925660908
 20
945.31195277388031
 11
944.03925852746636
 21
945.28553093640096
  0
LINE
  8
_0-0_
  6
CONTINUOUS
 62
    1
 10
944.03925852746636
 20
945.28553093640096
 11
943.90717505320106
 21
945.26902050211777
  0
LINE
  8
_0-0_
  6
CONTINUOUS
 62
    1
 10
947.8858874840754
 20
943.07355166434377
 11
947.8858874840754
 21
943.1006918825417
  0
LINE
  8
_0-0_
  6
CONTINUOUS
 62
    1
 10
938.01750926463967
 20
943.17738420500268
 11
938.01750926463967
 21
943.17738420500268
  0
LINE
  8
_0-0_
  6
CONTINUOUS
 62
    1
 10
938.01750926463967
 20
943.17738420500268
 11
937.8858874840754
 21
943.1006918825417
  0
LINE
  8
_0-0_
  6
CONTINUOUS
 62
    1
 10
943.56105872498586
 20
945.1006918825417
 11
943.56105872498586
 21
945.1006918825417
  0
LINE
  8
_0-0_
  6
CONTINUOUS
 62
    1
 10
943.56105872498586
 20
945.1006918825417
 11
940.18527769193258
 21
944.22262584035479
  0
LINE
  8
_0-0_
  6
CONTINUOUS
 62
    1
 10
940.18527769193258
 20
944.22262584035479
 11
938.01750926463967
 21
943.17738420500268
  0
LINE
  8
_0-0_
  6
CONTINUOUS
 62
    1
 10
937.8858874840754
 20
943.1006918825417
 11
952.8858874840754
 21
943.1006918825417
  0
LINE
  8
_0-0_
  6
CONTINUOUS
 62
    1
 10
942.8858874840754
 20
882.1006918825417
 11
942.42235703016024
 21
873.25600393246918
  0
LINE
  8
_0-0_
  6
CONTINUOUS
 62
    1
 10
945.3858874840754
 20
873.1006918825417
 11
946.07161979027217
 21
873.78642418873847
  0
LINE
  8
_0-0_
  6
CONTINUOUS
 62
    1
 10
945.3858874840754
 20
873.1006918825417
 11
944.70015517787817
 21
873.78642418873847
  0
LINE
  8
_0-0_
  6
DASHED1
 62
    1
 10
946.07161979027217
 20
873.78642418873847
 11
946.6358874840754
 21
874.3506918825417
  0
LINE
  8
_0-0_
  6
CONTINUOUS
 62
    1
 10
947.8858874840754
 20
882.1006918825417
 11
948.34941793798964
 21
873.25600393246918
  0
LINE
  8
_0-0_
  6
CONTINUOUS
 62
    1
 10
945.6358874840754
 20
882.1006918825417
 11
946.10558080570092
 21
873.13840941129297
  0
LINE
  8
_0-0_
  6
CONTINUOUS
 62
    1
 10
945.1358874840754
 20
882.1006918825417
 11
944.66619416244987
 21
873.13840941129297
  0
LINE
  8
_0-0_
  6
DASHED1
 62
    1
 10
944.70015517787817
 20
873.78642418873847
 11
944.1358874840754
 21
874.3506918825417
  0
LINE
  8
_0-0_
  6
CONTINUOUS
 62
    1
 10
942.42235703016024
 20
873.25600393246918
 11
944.66619416244987
 21
873.13840941129297
  0
LINE
  8
_0-0_
  6
CONTINUOUS
 62
    1
 10
946.10558080570092
 20
873.13840941129297
 11
948.34941793798964
 21
873.25600393246918
  0
LINE
  8
_0-0_
  6
CONTINUOUS
 62
    1
 10
945.1358874840754
 20
882.1006918825417
 11
945.6358874840754
 21
882.1006918825417
  0
LINE
  8
_0-0_
  6
DASHED1
 62
    1
 10
944.1358874840754
 20
945.1006918825417
 11
944.1358874840754
 21
874.3506918825417
  0
LINE
  8
_0-0_
  6
CENTER2
 62
    1
 10
945.3858874840754
 20
953.65578229403786
 11
945.3858874840754
 21
868.57033864918617
  0
LINE
  8
_0-0_
  6
CONTINUOUS
 62
    1
 10
942.8858874840754
 20
882.1006918825417
 11
942.8858874840754
 21
943.1006918825417
  0
LINE
  8
_0-0_
  6
CONTINUOUS
 62
    1
 10
947.8858874840754
 20
882.1006918825417
 11
947.8858874840754
 21
943.1006918825417
  0
LINE
  8
_0-0_
  6
CONTINUOUS
 62
    7
 10
988.08437229390995
 20
1000.3849631300038
 11
988.08437229390995
 21
1038.2133902547496
  0
LINE
  8
_0-0_
  6
CONTINUOUS
 62
    7
 10
988.08437229390995
 20
1038.2133902547496
 11
989.08437229390995
 21
1038.2133902547496
  0
LINE
  8
_0-0_
  6
CONTINUOUS
 62
    1
 10
940.3858874840754
 20
900.1006918825417
 11
950.3858874840754
 21
900.1006918825417
  0
LINE
  8
_0-0_
  6
CONTINUOUS
 62
    1
 10
950.3858874840754
 20
900.1006918825417
 11
950.3858874840754
 21
935.1006918825417
  0
LINE
  8
_0-0_
  6
CONTINUOUS
 62
    1
 10
950.3858874840754
 20
935.1006918825417
 11
940.3858874840754
 21
935.1006918825417
  0
LINE
  8
_0-0_
  6
CONTINUOUS
 62
    1
 10
940.3858874840754
 20
935.1006918825417
 11
940.3858874840754
 21
900.1006918825417
  0
LINE
  8
_0-0_
  6
CONTINUOUS
 62
    1
 10
949.3858874840754
 20
900.1006918825417
 11
949.3858874840754
 21
935.1006918825417
  0
LINE
  8
_0-0_
  6
CONTINUOUS
 62
    1
 10
941.3858874840754
 20
935.1006918825417
 11
941.3858874840754
 21
900.1006918825417
  0
LINE
  8
_0-0_
  6
CONTINUOUS
 62
    6
 10
758.07299529390923
 20
935.1006918825417
 11
989.08437229390995
 21
935.1006918825417
  0
LINE
  8
_0-0_
  6
CONTINUOUS
 62
    3
 10
989.08437229390995
 20
941.1006918825417
 11
758.07299529390923
 21
941.1006918825417
  0
LINE
  8
_0-0_
  6
CONTINUOUS
 62
    4
 10
926.30010104644782
 20
950.1006918825417
 11
758.07299529390923
 21
950.1006918825417
  0
LINE
  8
_0-0_
  6
CONTINUOUS
 62
    6
 10
761.99924037519179
 20
900.1006918825417
 11
758.07299529390968
 21
904.0269369638238
  0
LINE
  8
_0-0_
  6
CONTINUOUS
 62
    6
 10
768.87111281179898
 20
935.1006918825417
 11
758.072995293909
 21
924.30257436465149
  0
LINE
  8
_0-0_
  6
CONTINUOUS
 62
    6
 10
776.14137599892376
 20
900.10069188254079
 11
758.07299529390923
 21
918.16907258755532
  0
LINE
  8
_0-0_
  6
CONTINUOUS
 62
    6
 10
790.28351162265346
 20
900.10069188254261
 11
758.07299529390923
 21
932.31120821128684
  0
LINE
  8
_0-0_
  6
CONTINUOUS
 62
    6
 10
783.01324843553141
 20
935.10069188254261
 11
758.07299529390878
 21
910.16043874091997
  0
LINE
  8
_0-0_
  6
CONTINUOUS
 62
    4
 10
983.08437229390995
 20
1364.233717678356
 11
983.08437229390995
 21
1003.8849631300038
  0
LINE
  8
_0-0_
  6
CONTINUOUS
 62
    4
 10
1292.1742546358373
 20
548.49698972590909
 11
1292.1742546358373
 21
488.18362232105778
  0
LINE
  8
_0-0_
  6
CONTINUOUS
 62
    7
 10
1412.0638649426269
 20
349.16901201426867
 11
1497.1778259733051
 21
349.16901201426867
  0
LINE
  8
_0-0_
  6
CONTINUOUS
 62
  136
 10
1283.1742546358373
 20
412.42258335173597
 11
1344.1778259733051
 21
351.41901201426867
  0
LINE
  8
_0-0_
  6
CONTINUOUS
 62
    6
 10
1278.674254635836
 20
316.48395795825513
 11
1295.6093086918513
 21
333.41901201427049
  0
LINE
  8
_0-0_
  6
CONTINUOUS
 62
    6
 10
1278.674254635836
 20
284.66415280486058
 11
1327.4291138452459
 21
333.41901201427049
  0
LINE
  8
_0-0_
  6
CONTINUOUS
 62
    6
 10
1280.4989189986368
 20
254.66901201426685
 11
1359.2489189986368
 21
333.41901201426685
  0
LINE
  8
_0-0_
  6
CONTINUOUS
 62
    6
 10
1312.3187241520359
 20
254.66901201427049
 11
1391.0687241520359
 21
333.41901201427049
  0
LINE
  8
_0-0_
  6
CONTINUOUS
 62
    6
 10
1344.1385293054295
 20
254.66901201427049
 11
1422.8885293054295
 21
333.41901201427049
  0
LINE
  8
_0-0_
  6
CONTINUOUS
 62
    6
 10
1375.9583344588214
 20
254.66901201426867
 11
1454.7083344588204
 21
333.41901201426685
  0
LINE
  8
_0-0_
  6
CONTINUOUS
 62
    6
 10
1407.7781396122195
 20
254.66901201427049
 11
1486.5281396122195
 21
333.41901201427049
  0
LINE
  8
_0-0_
  6
CONTINUOUS
 62
    6
 10
1439.5979447656132
 20
254.66901201427049
 11
1518.3479447656132
 21
333.41901201427049
  0
LINE
  8
_0-0_
  6
CONTINUOUS
 62
    6
 10
1471.417749919005
 20
254.66901201426685
 11
1550.167749919005
 21
333.41901201426867
  0
LINE
  8
_0-0_
  6
CONTINUOUS
 62
    6
 10
1487.7758420900359
 20
333.41901201426685
 11
1566.5258420900359
 21
254.66901201426685
  0
LINE
  8
_0-0_
  6
CONTINUOUS
 62
    6
 10
1455.9560369366377
 20
333.41901201427049
 11
1534.7060369366377
 21
254.66901201427049
  0
LINE
  8
_0-0_
  6
CONTINUOUS
 62
    6
 10
1424.1362317832459
 20
333.41901201426685
 11
1502.886231783245
 21
254.66901201426685
  0
LINE
  8
_0-0_
  6
CONTINUOUS
 62
    6
 10
1392.3164266298522
 20
333.41901201426685
 11
1471.0664266298513
 21
254.66901201427049
  0
LINE
  8
_0-0_
  6
CONTINUOUS
 62
    6
 10
1360.496621476454
 20
333.41901201427049
 11
1439.246621476454
 21
254.66901201427049
  0
LINE
  8
_0-0_
  6
CONTINUOUS
 62
    6
 10
1328.6768163230622
 20
333.41901201426685
 11
1407.4268163230622
 21
254.66901201426685
  0
LINE
  8
_0-0_
  6
CONTINUOUS
 62
    6
 10
1296.8570111696686
 20
333.41901201426685
 11
1375.6070111696686
 21
254.66901201426685
  0
LINE
  8
_0-0_
  6
CONTINUOUS
 62
    6
 10
1278.6742546358387
 20
319.78196339470219
 11
1343.7872060162704
 21
254.66901201427049
  0
LINE
  8
_0-0_
  6
CONTINUOUS
 62
    6
 10
1278.674254635836
 20
287.96215824130945
 11
1311.9674008628767
 21
254.66901201426685
  0
LINE
  8
_0-0_
  6
CONTINUOUS
 62
    6
 10
1278.6742546358373
 20
256.14235308791126
 11
1280.1475957094799
 21
254.66901201426867
  0
LINE
  8
_0-0_
  6
CONTINUOUS
 62
    6
 10
1278.6742546358373
 20
333.41901201426867
 11
1278.6742546358373
 21
254.66901201426867
  0
LINE
  8
_0-0_
  6
CONTINUOUS
 62
    1
 10
1224.6742546358373
 20
445.24060283639687
 11
1226.2171523247798
 21
446.78350052534029
  0
LINE
  8
_0-0_
  6
CONTINUOUS
 62
    1
 10
1224.6742546358373
 20
445.24060283639687
 11
1226.2171523247798
 21
443.69770514745346
  0
LINE
  8
_0-0_
  6
DASHED1
 62
    1
 10
1226.2171523247798
 20
446.78350052534029
 11
1227.4867546358373
 21
448.05310283639687
  0
LINE
  8
_0-0_
  6
DASHED1
 62
    1
 10
1226.2171523247798
 20
443.69770514745346
 11
1227.4867546358373
 21
442.42810283639687
  0
LINE
  8
_0-0_
  6
CONTINUOUS
 62
    1
 10
1225.0237067481739
 20
438.57265931508869
 11
1224.7591190755275
 21
443.62129286273944
  0
LINE
  8
_0-0_
  6
CONTINUOUS
 62
    1
 10
1224.7591190755275
 20
446.85991281005431
 11
1225.0237067481739
 21
451.90854635770506
  0
LINE
  8
_0-0_
  6
CONTINUOUS
 62
    4
 10
1398.5000881566157
 20
371.66901201426867
 11
1415.4388649426269
 21
371.66901201426867
  0
LINE
  8
_0-0_
  6
CONTINUOUS
 62
    7
 10
1497.1778259733051
 20
349.16901201426867
 11
1497.1778259733051
 21
346.91901201426867
  0
LINE
  8
_0-0_
  6
CONTINUOUS
 62
    7
 10
1344.1778259733051
 20
351.41901201426867
 11
1344.1778259733051
 21
353.66901201426867
  0
LINE
  8
_0-0_
  6
CONTINUOUS
 62
    7
 10
1280.9242546358373
 20
480.30862232105778
 11
1285.4242546358373
 21
480.30862232105778
  0
LINE
  8
_0-0_
  6
CONTINUOUS
 62
    7
 10
1283.1742546358373
 20
412.42258335173597
 11
1285.4242546358373
 21
412.42258335173597
  0
LINE
  8
_0-0_
  6
CONTINUOUS
 62
    1
 10
1244.9242546358373
 20
439.61560283639687
 11
1225.0237067481739
 21
438.57265931508869
  0
LINE
  8
_0-0_
  6
CONTINUOUS
 62
    1
 10
1283.1742546358373
 20
439.61560283639687
 11
1283.1742546358373
 21
428.36560283639687
  0
LINE
  8
_0-0_
  6
CONTINUOUS
 62
    1
 10
1283.1742546358373
 20
450.86560283639687
 11
1283.1742546358373
 21
462.11560283639687
  0
LINE
  8
_0-0_
  6
CONTINUOUS
 62
    1
 10
1287.6742546358373
 20
449.34646754434857
 11
1287.6742546358373
 21
441.13473812844518
  0
LINE
  8
_0-0_
  6
CONTINUOUS
 62
    1
 10
1287.6742546358373
 20
449.34646754434834
 11
1287.6742546358373
 21
449.34646754434834
  0
LINE
  8
_0-0_
  6
CONTINUOUS
 62
    1
 10
1287.6742546358373
 20
449.34646754434834
 11
1285.6986060409167
 21
456.94197486871826
  0
LINE
  8
_0-0_
  6
CONTINUOUS
 62
    1
 10
1285.6986060409167
 20
456.94197486871826
 11
1283.1742546358373
 21
462.11560283639687
  0
LINE
  8
_0-0_
  6
CONTINUOUS
 62
    1
 10
1283.1742546358373
 20
428.36560283639687
 11
1283.1742546358373
 21
428.36560283639687
  0
LINE
  8
_0-0_
  6
CONTINUOUS
 62
    1
 10
1283.1742546358373
 20
428.36560283639687
 11
1286.4716696129508
 21
435.73286487977663
  0
LINE
  8
_0-0_
  6
CONTINUOUS
 62
    1
 10
1286.4716696129508
 20
435.73286487977663
 11
1287.6742546358373
 21
441.13473812844541
  0
LINE
  8
_0-0_
  6
CONTINUOUS
 62
    1
 10
1288.0529940298836
 20
441.91349986692984
 11
1288.0529940298836
 21
441.91349986692984
  0
LINE
  8
_0-0_
  6
CONTINUOUS
 62
    1
 10
1288.0529940298836
 20
441.91349986692984
 11
1287.6742546358373
 21
442.42810283639687
  0
LINE
  8
_0-0_
  6
CONTINUOUS
 62
    1
 10
1287.6742546358373
 20
448.05310283639687
 11
1287.6742546358373
 21
448.05310283639687
  0
LINE
  8
_0-0_
  6
CONTINUOUS
 62
    1
 10
1287.6742546358373
 20
448.05310283639687
 11
1288.0529940298836
 21
448.56770580586391
  0
LINE
  8
_0-0_
  6
CONTINUOUS
 62
    1
 10
1288.0529940298836
 20
441.91349986692967
 11
1288.0529940298836
 21
441.91349986692967
  0
LINE
  8
_0-0_
  6
CONTINUOUS
 62
    1
 10
1288.0529940298836
 20
441.91349986692967
 11
1288.1194582984101
 21
442.49018528169012
  0
LINE
  8
_0-0_
  6
CONTINUOUS
 62
    1
 10
1288.1194582984101
 20
442.49018528169012
 11
1288.172395278933
 21
443.15044074207191
  0
LINE
  8
_0-0_
  6
CONTINUOUS
 62
    1
 10
1288.172395278933
 20
443.15044074207191
 11
1288.2101965080869
 21
443.87420472001668
  0
LINE
  8
_0-0_
  6
CONTINUOUS
 62
    1
 10
1288.2101965080869
 20
443.87420472001668
 11
1288.2317134146524
 21
444.6394860132969
  0
LINE
  8
_0-0_
  6
CONTINUOUS
 62
    1
 10
1288.2317134146524
 20
444.6394860132969
 11
1288.2362922183111
 21
445.42303193706721
  0
LINE
  8
_0-0_
  6
CONTINUOUS
 62
    1
 10
1288.2362922183111
 20
445.42303193706721
 11
1288.223793794431
 21
446.20103484492722
  0
LINE
  8
_0-0_
  6
CONTINUOUS
 62
    1
 10
1288.223793794431
 20
446.20103484492722
 11
1288.1945979012976
 21
446.94985551221009
  0
LINE
  8
_0-0_
  6
CONTINUOUS
 62
    1
 10
1288.1945979012976
 20
446.94985551221009
 11
1288.1495916413494
 21
447.64674140186196
  0
LINE
  8
_0-0_
  6
CONTINUOUS
 62
    1
 10
1288.1495916413494
 20
447.64674140186196
 11
1288.0901425070208
 21
448.27051798876704
  0
LINE
  8
_0-0_
  6
CONTINUOUS
 62
    1
 10
1288.0901425070208
 20
448.27051798876704
 11
1288.0529940298836
 21
448.56770580586391
  0
LINE
  8
_0-0_
  6
DASHED1
 62
    1
 10
1287.6742546358373
 20
448.05310283639687
 11
1227.4867546358373
 21
448.05310283639687
  0
LINE
  8
_0-0_
  6
DASHED1
 62
    1
 10
1287.6742546358373
 20
442.42810283639687
 11
1227.4867546358373
 21
442.42810283639687
  0
LINE
  8
_0-0_
  6
CONTINUOUS
 62
    1
 10
1244.9242546358373
 20
450.86560283639687
 11
1283.1742546358373
 21
450.86560283639687
  0
LINE
  8
_0-0_
  6
CONTINUOUS
 62
    1
 10
1244.9242546358373
 20
450.86560283639687
 11
1225.0237067481739
 21
451.90854635770506
  0
LINE
  8
_0-0_
  6
CONTINUOUS
 62
    1
 10
1244.9242546358373
 20
445.80310283639687
 11
1224.7591190755275
 21
446.85991281005431
  0
LINE
  8
_0-0_
  6
CONTINUOUS
 62
    1
 10
1244.9242546358373
 20
439.61560283639687
 11
1283.1742546358373
 21
439.61560283639687
  0
LINE
  8
_0-0_
  6
CONTINUOUS
 62
    1
 10
1244.9242546358373
 20
444.67810283639687
 11
1224.7591190755275
 21
443.62129286273944
  0
LINE
  8
_0-0_
  6
CONTINUOUS
 62
    1
 10
1244.9242546358373
 20
444.67810283639687
 11
1244.9242546358373
 21
445.80310283639687
  0
LINE
  8
_0-0_
  6
CONTINUOUS
 62
    7
 10
1285.4242546358373
 20
412.42258335173597
 11
1285.4242546358373
 21
427.80373627068752
  0
LINE
  8
_0-0_
  6
CONTINUOUS
 62
    7
 10
1285.4242546358373
 20
462.67746940210623
 11
1285.4242546358373
 21
480.30862232105778
  0
LINE
  8
_0-0_
  6
CONTINUOUS
 62
    7
 10
1285.4242546358373
 20
427.80373627068775
 11
1285.4242546358373
 21
427.80373627068775
  0
LINE
  8
_0-0_
  6
CONTINUOUS
 62
    7
 10
1285.4242546358373
 20
427.80373627068775
 11
1288.764133436639
 21
435.56170531824057
  0
LINE
  8
_0-0_
  6
CONTINUOUS
 62
    7
 10
1288.764133436639
 20
435.56170531824057
 11
1290.1566737011219
 21
443.61376276912415
  0
LINE
  8
_0-0_
  6
CONTINUOUS
 62
    7
 10
1290.1566737011219
 20
443.61376276912415
 11
1289.5595637980091
 21
451.71525093223102
  0
LINE
  8
_0-0_
  6
CONTINUOUS
 62
    7
 10
1289.5595637980091
 20
451.71525093223102
 11
1286.9909466095544
 21
459.62001018927594
  0
LINE
  8
_0-0_
  6
CONTINUOUS
 62
    7
 10
1286.9909466095544
 20
459.62001018927594
 11
1285.4242546358373
 21
462.677469402106
  0
LINE
  8
_0-0_
  6
CENTER2
 62
    1
 10
1300.0272671071057
 20
445.24060283639687
 11
1215.0288996291065
 21
445.24060283639687
  0
LINE
  8
_0-0_
  6
CONTINUOUS
 62
    4
 10
1296.6742546358373
 20
418.01446644377415
 11
1296.6742546358373
 21
425.18271785905222
  0
LINE
  8
_0-0_
  6
CONTINUOUS
 62
    4
 10
1296.6742546358373
 20
425.18271785905273
 11
1296.6742546358373
 21
425.18271785905273
  0
LINE
  8
_0-0_
  6
CONTINUOUS
 62
    4
 10
1296.6742546358373
 20
425.18271785905273
 11
1300.2074469882773
 21
434.89886728400973
  0
LINE
  8
_0-0_
  6
CONTINUOUS
 62
    4
 10
1300.2074469882773
 20
434.89886728400973
 11
1301.4456015127278
 21
444.92924511055531
  0
LINE
  8
_0-0_
  6
CONTINUOUS
 62
    4
 10
1301.4456015127278
 20
444.92924511055531
 11
1300.3510975104998
 21
454.96908338404603
  0
LINE
  8
_0-0_
  6
CONTINUOUS
 62
    4
 10
1300.3510975104998
 20
454.96908338404603
 11
1296.9571909318556
 21
464.71332669894508
  0
LINE
  8
_0-0_
  6
CONTINUOUS
 62
    4
 10
1296.9571909318556
 20
464.71332669894508
 11
1296.6742546358373
 21
465.29848781374102
  0
LINE
  8
_0-0_
  6
CONTINUOUS
 62
    4
 10
1296.6742546358373
 20
465.29848781374062
 11
1296.6742546358373
 21
483.68362232105778
  0
LINE
  8
_0-0_
  6
CONTINUOUS
 62
    4
 10
1296.6742546358373
 20
483.68362232105778
 11
1292.1742546358373
 21
488.18362232105778
  0
LINE
  8
_0-0_
  6
CONTINUOUS
 62
    7
 10
1412.0638649426269
 20
349.16901201426867
 11
1412.0638649426269
 21
353.66901201426867
  0
LINE
  8
_0-0_
  6
CONTINUOUS
 62
    7
 10
1344.1778259733051
 20
353.66901201426867
 11
1359.5589788922557
 21
353.66901201426867
  0
LINE
  8
_0-0_
  6
CONTINUOUS
 62
    7
 10
1394.4327120236762
 20
353.66901201426867
 11
1412.0638649426269
 21
353.66901201426867
  0
LINE
  8
_0-0_
  6
CONTINUOUS
 62
    7
 10
1394.4327120236742
 20
353.66901201426867
 11
1394.4327120236742
 21
353.66901201426867
  0
LINE
  8
_0-0_
  6
CONTINUOUS
 62
    7
 10
1394.4327120236742
 20
353.66901201426867
 11
1386.6747429761213
 21
357.00889081507046
  0
LINE
  8
_0-0_
  6
CONTINUOUS
 62
    7
 10
1386.6747429761213
 20
357.00889081507046
 11
1378.6226855252378
 21
358.40143107955339
  0
LINE
  8
_0-0_
  6
CONTINUOUS
 62
    7
 10
1378.6226855252378
 20
358.40143107955339
 11
1370.521197362131
 21
357.80432117644045
  0
LINE
  8
_0-0_
  6
CONTINUOUS
 62
    7
 10
1370.521197362131
 20
357.80432117644045
 11
1362.616438105086
 21
355.23570398798569
  0
LINE
  8
_0-0_
  6
CONTINUOUS
 62
    7
 10
1362.616438105086
 20
355.23570398798569
 11
1359.5589788922559
 21
353.66901201426867
  0
LINE
  8
_0-0_
  6
CONTINUOUS
 62
    4
 10
1296.6742546358373
 20
418.01446644377415
 11
1343.0197090653432
 21
371.66901201426867
  0
LINE
  8
_0-0_
  6
CONTINUOUS
 62
    4
 10
1343.0197090653432
 20
371.66901201426867
 11
1355.4916027593167
 21
371.66901201426867
  0
LINE
  8
_0-0_
  6
CONTINUOUS
 62
    4
 10
1398.500088156615
 20
371.66901201426867
 11
1398.500088156615
 21
371.66901201426867
  0
LINE
  8
_0-0_
  6
CONTINUOUS
 62
    4
 10
1398.500088156615
 20
371.66901201426867
 11
1387.6063994721258
 21
375.30503330765919
  0
LINE
  8
_0-0_
  6
CONTINUOUS
 62
    4
 10
1387.6063994721258
 20
375.30503330765919
 11
1376.3903144731155
 21
376.43779703338828
  0
LINE
  8
_0-0_
  6
CONTINUOUS
 62
    4
 10
1376.3903144731155
 20
376.43779703338828
 11
1365.1926282266666
 21
375.0328847388559
  0
LINE
  8
_0-0_
  6
CONTINUOUS
 62
    4
 10
1365.1926282266666
 20
375.0328847388559
 11
1355.4916027593151
 21
371.66901201426867
  0
LINE
  8
_0-0_
  6
CONTINUOUS
 62
    4
 10
1415.4388649426269
 20
371.66901201426867
 11
1419.9388649426269
 21
367.16901201426867
  0
LINE
  8
_0-0_
  6
CONTINUOUS
 62
  136
 10
1278.6742546358373
 20
410.55862232105778
 11
1342.3138649426269
 21
346.91901201426867
  0
LINE
  8
_0-0_
  6
CONTINUOUS
 62
  136
 10
1342.3138649426269
 20
346.91901201426867
 11
1409.8138649426269
 21
346.91901201426867
  0
LINE
  8
_0-0_
  6
CONTINUOUS
 62
  136
 10
1409.8138649426269
 20
346.91901201426867
 11
1409.8138649426269
 21
351.41901201426867
  0
LINE
  8
_0-0_
  6
CONTINUOUS
 62
  136
 10
1278.6742546358373
 20
478.05862232105778
 11
1278.6742546358373
 21
410.55862232105778
  0
LINE
  8
_0-0_
  6
CONTINUOUS
 62
  136
 10
1278.6742546358373
 20
478.05862232105778
 11
1283.1742546358373
 21
478.05862232105778
  0
LINE
  8
_0-0_
  6
CONTINUOUS
 62
  136
 10
1283.1742546358373
 20
478.05862232105778
 11
1283.1742546358373
 21
412.42258335173597
  0
LINE
  8
_0-0_
  6
CONTINUOUS
 62
  136
 10
1344.1778259733051
 20
351.41901201426867
 11
1409.8138649426269
 21
351.41901201426867
  0
LINE
  8
_0-0_
  6
DASHED1
 62
    1
 10
1374.1833454579651
 20
355.91901201426867
 11
1374.1833454579651
 21
196.73151201426867
  0
LINE
  8
_0-0_
  6
CONTINUOUS
 62
    1
 10
1372.8899807500134
 20
355.91901201426867
 11
1381.1017101659168
 21
355.91901201426867
  0
LINE
  8
_0-0_
  6
CONTINUOUS
 62
    1
 10
1372.8899807500136
 20
355.91901201426867
 11
1372.8899807500136
 21
355.91901201426867
  0
LINE
  8
_0-0_
  6
CONTINUOUS
 62
    1
 10
1372.8899807500136
 20
355.91901201426867
 11
1365.2944734256437
 21
353.94336341934815
  0
LINE
  8
_0-0_
  6
CONTINUOUS
 62
    1
 10
1365.2944734256437
 20
353.94336341934815
 11
1360.1208454579651
 21
351.41901201426867
  0
LINE
  8
_0-0_
  6
CONTINUOUS
 62
    1
 10
1380.322948427432
 20
356.29775140831492
 11
1380.322948427432
 21
356.29775140831492
  0
LINE
  8
_0-0_
  6
CONTINUOUS
 62
    1
 10
1380.322948427432
 20
356.29775140831492
 11
1379.8083454579651
 21
355.91901201426867
  0
LINE
  8
_0-0_
  6
CONTINUOUS
 62
    1
 10
1374.1833454579651
 20
355.91901201426867
 11
1374.1833454579651
 21
355.91901201426867
  0
LINE
  8
_0-0_
  6
CONTINUOUS
 62
    1
 10
1374.1833454579651
 20
355.91901201426867
 11
1373.6687424884981
 21
356.29775140831492
  0
LINE
  8
_0-0_
  6
CONTINUOUS
 62
    1
 10
1380.3229484274323
 20
356.29775140831492
 11
1380.3229484274323
 21
356.29775140831492
  0
LINE
  8
_0-0_
  6
CONTINUOUS
 62
    1
 10
1380.3229484274323
 20
356.29775140831492
 11
1379.7462630126718
 21
356.36421567684135
  0
LINE
  8
_0-0_
  6
CONTINUOUS
 62
    1
 10
1379.7462630126718
 20
356.36421567684135
 11
1379.0860075522901
 21
356.41715265736445
  0
LINE
  8
_0-0_
  6
CONTINUOUS
 62
    1
 10
1379.0860075522901
 20
356.41715265736445
 11
1378.3622435743453
 21
356.45495388651835
  0
LINE
  8
_0-0_
  6
CONTINUOUS
 62
    1
 10
1378.3622435743453
 20
356.45495388651835
 11
1377.5969622810651
 21
356.47647079308365
  0
LINE
  8
_0-0_
  6
CONTINUOUS
 62
    1
 10
1377.5969622810651
 20
356.47647079308365
 11
1376.8134163572947
 21
356.48104959674242
  0
LINE
  8
_0-0_
  6
CONTINUOUS
 62
    1
 10
1376.8134163572947
 20
356.48104959674242
 11
1376.0354134494346
 21
356.46855117286248
  0
LINE
  8
_0-0_
  6
CONTINUOUS
 62
    1
 10
1376.0354134494346
 20
356.46855117286248
 11
1375.2865927821517
 21
356.43935527972889
  0
LINE
  8
_0-0_
  6
CONTINUOUS
 62
    1
 10
1375.2865927821517
 20
356.43935527972889
 11
1374.5897068924999
 21
356.39434901978063
  0
LINE
  8
_0-0_
  6
CONTINUOUS
 62
    1
 10
1374.5897068924999
 20
356.39434901978063
 11
1373.9659303055948
 21
356.3348998854521
  0
LINE
  8
_0-0_
  6
CONTINUOUS
 62
    1
 10
1373.9659303055948
 20
356.3348998854521
 11
1373.6687424884981
 21
356.29775140831498
  0
LINE
  8
_0-0_
  6
CONTINUOUS
 62
    1
 10
1371.3708454579651
 20
351.35794652332174
 11
1371.3708454579651
 21
351.41901201426867
  0
LINE
  8
_0-0_
  6
CONTINUOUS
 62
    1
 10
1393.8708454579651
 20
351.41901201426867
 11
1393.8708454579651
 21
351.41901201426867
  0
LINE
  8
_0-0_
  6
CONTINUOUS
 62
    1
 10
1393.8708454579651
 20
351.41901201426867
 11
1393.5746964516954
 21
351.59156973980595
  0
LINE
  8
_0-0_
  6
CONTINUOUS
 62
    1
 10
1393.5746964516954
 20
351.59156973980595
 11
1393.5746964516954
 21
351.59156973980595
  0
LINE
  8
_0-0_
  6
CONTINUOUS
 62
    1
 10
1393.5746964516954
 20
351.59156973980595
 11
1386.1909585429567
 21
354.81289784125244
  0
LINE
  8
_0-0_
  6
CONTINUOUS
 62
    1
 10
1386.1909585429567
 20
354.81289784125244
 11
1381.1017101659165
 21
355.91901201426867
  0
LINE
  8
_0-0_
  6
CONTINUOUS
 62
    1
 10
1393.8708454579651
 20
351.41901201426867
 11
1360.1208454579651
 21
351.41901201426867
  0
LINE
  8
_0-0_
  6
CONTINUOUS
 62
    1
 10
1382.6208454579651
 20
214.16901201426867
 11
1383.6637889792742
 21
194.2684641266062
  0
LINE
  8
_0-0_
  6
CONTINUOUS
 62
    1
 10
1376.9958454579651
 20
193.91901201426867
 11
1375.4529477690226
 21
195.46190970321209
  0
LINE
  8
_0-0_
  6
CONTINUOUS
 62
    1
 10
1376.9958454579651
 20
193.91901201426867
 11
1378.5387431469085
 21
195.46190970321209
  0
LINE
  8
_0-0_
  6
DASHED1
 62
    1
 10
1375.4529477690226
 20
195.46190970321209
 11
1374.1833454579651
 21
196.73151201426867
  0
LINE
  8
_0-0_
  6
CONTINUOUS
 62
    1
 10
1371.3708454579651
 20
214.16901201426867
 11
1370.3279019366578
 21
194.2684641266062
  0
LINE
  8
_0-0_
  6
CONTINUOUS
 62
    1
 10
1376.4333454579651
 20
214.16901201426867
 11
1375.3765354843076
 21
194.00387645395881
  0
LINE
  8
_0-0_
  6
CONTINUOUS
 62
    1
 10
1377.5583454579651
 20
214.16901201426867
 11
1378.6151554316225
 21
194.00387645395881
  0
LINE
  8
_0-0_
  6
DASHED1
 62
    1
 10
1378.5387431469085
 20
195.46190970321209
 11
1379.8083454579651
 21
196.73151201426867
  0
LINE
  8
_0-0_
  6
CONTINUOUS
 62
    1
 10
1383.6637889792742
 20
194.2684641266062
 11
1378.6151554316225
 21
194.00387645395881
  0
LINE
  8
_0-0_
  6
CONTINUOUS
 62
    1
 10
1375.3765354843076
 20
194.00387645395881
 11
1370.3279019366578
 21
194.2684641266062
  0
LINE
  8
_0-0_
  6
CONTINUOUS
 62
    1
 10
1377.5583454579651
 20
214.16901201426867
 11
1376.4333454579651
 21
214.16901201426867
  0
LINE
  8
_0-0_
  6
DASHED1
 62
    1
 10
1379.8083454579651
 20
355.91901201426867
 11
1379.8083454579651
 21
196.73151201426867
  0
LINE
  8
_0-0_
  6
CENTER2
 62
    1
 10
1376.9958454579651
 20
375.16796544013437
 11
1376.9958454579651
 21
183.72571723921851
  0
LINE
  8
_0-0_
  6
CONTINUOUS
 62
    1
 10
1382.6208454579651
 20
214.16901201426867
 11
1382.6208454579651
 21
351.41901201426867
  0
LINE
  8
_0-0_
  6
CONTINUOUS
 62
    1
 10
1371.3708454579651
 20
214.16901201426867
 11
1371.3708454579651
 21
351.41901201426867
  0
LINE
  8
_0-0_
  6
CONTINUOUS
 62
    1
 10
1388.2458454579651
 20
254.66901201426867
 11
1365.7458454579651
 21
254.66901201426867
  0
LINE
  8
_0-0_
  6
CONTINUOUS
 62
    1
 10
1365.7458454579651
 20
254.66901201426867
 11
1365.7458454579651
 21
333.41901201426867
  0
LINE
  8
_0-0_
  6
CONTINUOUS
 62
    1
 10
1365.7458454579651
 20
333.41901201426867
 11
1388.2458454579651
 21
333.41901201426867
  0
LINE
  8
_0-0_
  6
CONTINUOUS
 62
    1
 10
1388.2458454579651
 20
333.41901201426867
 11
1388.2458454579651
 21
254.66901201426867
  0
LINE
  8
_0-0_
  6
CONTINUOUS
 62
    1
 10
1367.9958454579651
 20
254.66901201426867
 11
1367.9958454579651
 21
333.41901201426867
  0
LINE
  8
_0-0_
  6
CONTINUOUS
 62
    1
 10
1385.9958454579651
 20
333.41901201426867
 11
1385.9958454579651
 21
254.66901201426867
  0
LINE
  8
_0-0_
  6
CONTINUOUS
 62
    7
 10
1280.9242546358373
 20
480.30862232105778
 11
1280.9242546358373
 21
548.49698972590909
  0
LINE
  8
_0-0_
  6
CONTINUOUS
 62
    7
 10
1278.6742546358373
 20
254.66901201426867
 11
1278.6742546358373
 21
548.49698972590909
  0
LINE
  8
_0-0_
  6
CONTINUOUS
 62
    4
 10
1419.9388649426269
 20
367.16901201426867
 11
1566.525842090035
 21
367.16901201426867
  0
LINE
  8
_0-0_
  6
CONTINUOUS
 62
    3
 10
1278.6742546358373
 20
346.91901201426867
 11
1566.525842090035
 21
346.91901201426867
  0
LINE
  8
_0-0_
  6
CONTINUOUS
 62
    6
 10
1566.525842090035
 20
333.41901201426867
 11
1278.6742546358373
 21
333.41901201426867
  0
LINE
  8
_0-0_
  6
CONTINUOUS
 62
    6
 10
1278.6742546358373
 20
254.66901201426867
 11
1566.5258420900359
 21
254.66901201426867
  0
LINE
  8
_0-0_
  6
CONTINUOUS
 62
    6
 10
1503.2375550724023
 20
254.66901201426867
 11
1566.525842090035
 21
317.95729903190136
  0
LINE
  8
_0-0_
  6
CONTINUOUS
 62
    6
 10
1551.4154523968214
 20
333.41901201427049
 11
1566.525842090035
 21
318.30862232105596
  0
LINE
  8
_0-0_
  6
CONTINUOUS
 62
    6
 10
1535.0573602257969
 20
254.66901201427049
 11
1566.525842090035
 21
286.13749387850862
  0
LINE
  8
_0-0_
  6
CONTINUOUS
 62
    6
 10
1519.5956472434295
 20
333.41901201426685
 11
1566.525842090035
 21
286.48881716765959
  0
LINE
  8
_0-0_
  6
CONTINUOUS
 62
    7
 10
1278.6742546358373
 20
254.66901201426867
 11
1566.5258420900359
 21
254.66901201426867
  0
LINE
  8
_0-0_
  6
CONTINUOUS
 62
    7
 10
1390.7495723335524
 20
183.72571723921851
 11
1461.6928671086021
 21
254.66901201426867
  0
LINE
  8
_0-0_
  6
CONTINUOUS
 62
    7
 10
1406.6594749102496
 20
183.72571723921851
 11
1477.6027696853002
 21
254.66901201426867
  0
LINE
  8
_0-0_
  6
CONTINUOUS
 62
    7
 10
1422.5693774869469
 20
183.72571723921851
 11
1493.5126722619975
 21
254.66901201426867
  0
LINE
  8
_0-0_
  6
CONTINUOUS
 62
    7
 10
1215.0288996291065
 20
533.03182956578371
 11
1230.4940597892319
 21
548.49698972590909
  0
LINE
  8
_0-0_
  6
CONTINUOUS
 62
    7
 10
1215.0288996291065
 20
517.12192698908643
 11
1246.4039623659291
 21
548.49698972590909
  0
LINE
  8
_0-0_
  6
CONTINUOUS
 62
    7
 10
1215.0288996291065
 20
501.21202441238916
 11
1262.3138649426269
 21
548.49698972590909
  0
LINE
  8
_0-0_
  6
CONTINUOUS
 62
    7
 10
1376.8262968064305
 20
353.67373612830511
 11
1447.6490996930738
 21
476.34242906240638
  0
POINT
  8
_0-0_
 62
    7
 10
1376.8262968064305
 20
353.67373612830511
  0
TEXT
  8
_0-0_
 62
    7
 10
1449.8196107950857
 20
468.89813045694632
 40
21.617968000000001
 41
1
 50
0
  1
ｱﾙﾐｻｽｱﾝｶｰ
  0
LINE
  8
_0-0_
  6
CONTINUOUS
 62
    7
 10
1292.1742546358373
 20
488.18362232105778
 11
1320.3339801187103
 21
536.95769758458687
  0
POINT
  8
_0-0_
 62
    7
 10
1292.1742546358373
 20
488.18362232105778
  0
LINE
  8
_0-0_
  6
CONTINUOUS
 62
    7
 10
1296.6742546358373
 20
465.29848781374153
 11
1319.5699273794844
 21
504.95495627920741
  0
POINT
  8
_0-0_
 62
    7
 10
1296.6742546358373
 20
465.29848781374153
  0
TEXT
  8
_0-0_
 62
    7
 10
1322.3314256327762
 20
494.67230530460915
 40
21.617968000000001
 41
1
 50
0
  1
ｳﾚﾀﾝ防水
  0
TEXT
  8
_0-0_
 62
    7
 10
1320.5709065330252
 20
529.00242774975072
 40
21.617968000000001
 41
1
 50
0
  1
ﾄｯﾌﾟｺｰﾄ
  0
LINE
  8
_0-0_
  6
CONTINUOUS
 62
    7
 10
1285.7165085840606
 20
445.27320019805779
 11
1447.6490996930738
 21
476.34242906240638
  0
POINT
  8
_0-0_
 62
    7
 10
1285.7165085840606
 20
445.27320019805779
  0
LINE
  8
_0-0_
  6
CONTINUOUS
 62
    7
 10
1551.4154523968214
 20
333.41901201427049
 11
1573.4804020598449
 21
371.63662589707587
  0
TEXT
  8
_0-0_
 62
    7
 10
1576.152969623286
 20
361.38423104108938
 40
21.617968000000001
 41
1
 50
0
  1
ﾌﾟﾗｲﾏｰ
  0
LINE
  8
_0-0_
  6
CONTINUOUS
 62
    7
 10
1550.791601157915
 20
270.40325294638774
 11
1585.3810484346454
 21
330.31393303540995
  0
POINT
  8
_0-0_
 62
    7
 10
1550.791601157915
 20
270.40325294638774
  0
TEXT
  8
_0-0_
 62
    7
 10
1586.6819346949273
 20
318.4260535487922
 40
21.617968000000001
 41
1
 50
0
  1
断熱材
  0
POINT
  8
_0-0_
 62
    7
 10
1551.4154523968214
 20
333.41901201427049
  0
LINE
  8
_0-0_
  6
CONTINUOUS
 62
    7
 10
1537.9154523968232
 20
346.91901201426867
 11
1577.2840995783263
 21
415.10750915788435
  0
POINT
  8
_0-0_
 62
    7
 10
1537.9154523968232
 20
346.91901201426867
  0
TEXT
  8
_0-0_
 62
    7
 10
1578.5198630877985
 20
404.93524962404467
 40
21.617968000000001
 41
1
 50
0
  1
ﾗﾝｽﾛｯｸｼｰﾄ
  0
POINT
  8
_0-0_
 62
    7
 10
1456.8367104344511
 20
347.95561800683959
  0
LINE
  8
_0-0_
  6
CONTINUOUS
 62
    7
 10
1456.8367104344511
 20
347.95561800683959
 11
1485.7503558456601
 21
398.03552089108439
  0
TEXT
  8
_0-0_
 62
    7
 10
1487.8890058379161
 20
388.65275125953144
 40
21.617968000000001
 41
1
 50
0
  1
FJﾃｰﾌﾟ
  0
TEXT
  8
_0-0_
 62
    7
 10
1447.0642953649958
 20
418.45478990476317
 40
21.617968000000001
 41
1
 50
0
  1
ﾗﾝｽﾛｯｸｷｬﾝﾄ
  0
LINE
  8
_0-0_
  6
CONTINUOUS
 62
    7
 10
1399.707631216409
 20
349.4610292055288
 11
1445.2303870138653
 21
428.30875514727472
  0
POINT
  8
_0-0_
 62
    7
 10
1399.707631216409
 20
349.4610292055288
  0
CIRCLE
  8
_0-0_
  6
DASHED2
 62
    1
 10
1394.1990867970931
 20
951.53035893939091
 40
100
  0
TEXT
  8
_0-0_
 62
    7
 10
1388.2210868912821
 20
1038.2113575736551
 40
24
 41
1
 50
0
  1
Ｂ
  0
LINE
  8
_0-0_
  6
CONTINUOUS
 62
    7
 10
672.13606690525205
 20
1633.3565543671114
 11
1706.8525777203686
 21
1633.3565543671114
  0
LINE
  8
_0-0_
  6
CONTINUOUS
 62
    7
 10
672.13606690525205
 20
1553.3565543671114
 11
1706.8525777203686
 21
1553.3565543671114
  0
LINE
  8
_0-0_
  6
CONTINUOUS
 62
    7
 10
672.13606690525205
 20
1473.3565543671114
 11
1706.8525777203686
 21
1473.3565543671114
  0
LINE
  8
_0-0_
  6
CONTINUOUS
 62
    7
 10
1189.4943223128103
 20
1633.3565543671114
 11
1189.4943223128103
 21
1473.3565543671114
  0
TEXT
  8
_0-0_
 62
    7
 10
696.13606690525205
 20
1497.3565543671114
 40
20
 41
1
 50
0
  1
施工部位：ハト小屋
  0
TEXT
  8
_0-0_
 62
    7
 10
1213.4943223128103
 20
1577.3565543671114
 40
20
 41
1
 50
0
  1
構造：ＲＣ造
  0
TEXT
  8
_0-0_
 62
    7
 10
1213.4943223128103
 20
1497.3565543671114
 40
20
 41
1
 50
0
  1
下地：コンクリートスラブ
  0
TEXT
  8
_0-0_
 62
    7
 10
696.13606690525205
 20
1577.3565543671114
 40
20
 41
1
 50
0
  1
図面番号：dan-kikai-SP-hato-01
  0
ENDSEC
  0
EOF
