  0
SECTION
  2
HEADER
  9
$ACADVER
  1
AC1009
  9
$INSBASE
 10
0
 20
0
 30
0
  9
$EXTMIN
 10
0
 20
0
  9
$EXTMAX
 10
2378
 20
1682
  9
$LIMMIN
 10
0
 20
0
  9
$LIMMAX
 10
2378
 20
1682
  9
$LTSCALE
 40
1
  0
ENDSEC
  0
SECTION
  2
TABLES
  0
TABLE
  2
LTYPE
 70
     9
  0
LTYPE
  2
CONTINUOUS
 70
    64
  3
実線
 72
    65
 73
     0
 40
0.0
  0
LTYPE
  2
DASHED1
 70
    64
  3
--  --  --  --  --  --  --  --  
 72
    65
 73
     2
 40
2.5
 49
1.25
 49
-1.25
  0
LTYPE
  2
DASHED2
 70
    64
  3
----    ----    ----    ----    
 72
    65
 73
     2
 40
5.0
 49
2.5
 49
-2.5
  0
LTYPE
  2
DASHED3
 70
    64
  3
------  ------  ------  ------  
 72
    65
 73
     2
 40
5.0
 49
3.75
 49
-1.25
  0
LTYPE
  2
CENTER1
 70
    64
  3
----- - ----- - ----- - ----- - 
 72
    65
 73
     4
 40
10.0
 49
6.25
 49
-1.25
 49
1.25
 49
-1.25
  0
LTYPE
  2
CENTER2
 70
    64
  3
----------  --  ----------  --  
 72
    65
 73
     4
 40
20.0
 49
12.5
 49
-2.5
 49
2.5
 49
-2.5
  0
LTYPE
  2
PHANTOM1
 70
    64
  3
--- - - --- - - --- - - --- - - 
 72
    65
 73
     6
 40
10.0
 49
3.25
 49
-1.25
 49
1.25
 49
-1.25
 49
1.25
 49
-1.25
  0
LTYPE
  2
PHANTOM2
 70
    64
  3
--------  -  -  --------  -  -  
 72
    65
 73
     6
 40
20.0
 49
10.0
 49
-2.5
 49
1.25
 49
-2.5
 49
1.25
 49
-2.5
  0
LTYPE
  2
DOT
 70
    64
  3
-   -   -   -   -   -   -   -   
 72
    65
 73
     2
 40
2.5
 49
0.625
 49
-1.875
  0
LTYPE
  2
DUMMY
 70
    64
  3
ダミー
 72
    65
 73
     0
 40
0.0
  0
LTYPE
  2
RAND1
 70
    64
  3
ランダム線1
 72
    65
 73
     4
 40
10.0
 49
1.0
 49
-2.0
 49
3.0
 49
-4.0
  0
LTYPE
  2
RAND2
 70
    64
  3
ランダム線2
 72
    65
 73
     4
 40
14.0
 49
2.0
 49
-3.0
 49
4.0
 49
-5.0
  0
LTYPE
  2
RAND3
 70
    64
  3
ランダム線3
 72
    65
 73
     4
 40
18.0
 49
3.0
 49
-4.0
 49
5.0
 49
-6.0
  0
LTYPE
  2
RAND4
 70
    64
  3
ランダム線4
 72
    65
 73
     4
 40
22.0
 49
4.0
 49
-5.0
 49
6.0
 49
-7.0
  0
LTYPE
  2
RAND5
 70
    64
  3
ランダム線5
 72
    65
 73
     4
 40
26.0
 49
5.0
 49
-6.0
 49
7.0
 49
-8.0
  0
LTYPE
  2
LONG1
 70
    64
  3
----------  --  ----------  --  
 72
    65
 73
     4
 40
40.0
 49
32.5
 49
-2.5
 49
2.5
 49
-2.5
  0
LTYPE
  2
LONG2
 70
    64
  3
--------  -  -  --------  -  -  
 72
    65
 73
     6
 40
40.0
 49
30.0
 49
-2.5
 49
1.25
 49
-2.5
 49
1.25
 49
-2.5
  0
LTYPE
  2
LONG3
 70
    64
  3
+++++++++++++++..+++++++++++++++
 72
    65
 73
     2
 40
40.0
 49
37.5
 49
-2.5
  0
LTYPE
  2
LONG4
 70
    64
  3
+++++++++++++++..+++++++++++++++
 72
    65
 73
     2
 40
80.0
 49
75.0
 49
-5.0
  0
LTYPE
  2
LONG5
 70
    64
  3
----------  --  ----------  --  
 72
    65
 73
     4
 40
60.0
 49
37.5
 49
-7.5
 49
7.5
 49
-7.5
  0
LTYPE
  2
dashed
 70
   64
  3
-------   -------------   ------
 72
   65
 73
    2
 40
7.5
 49
6
 49
-1.5
  0
LTYPE
  2
dashed_spaced
 70
   64
  3
----        --------        ----
 72
   65
 73
    2
 40
12
 49
6
 49
-6
  0
LTYPE
  2
long_dashed_dotted
 70
   64
  3
------------- --- --------------
 72
   65
 73
    4
 40
15.25
 49
12
 49
-1.5
 49
0.25
 49
-1.5
  0
LTYPE
  2
long_dashed_double-dotted
 70
   64
  3
----------- --- --- ------------
 72
   65
 73
    6
 40
17
 49
12
 49
-1.5
 49
0.25
 49
-1.5
 49
0.25
 49
-1.5
  0
LTYPE
  2
long_dashed_triplicate-dotted
 70
   64
  3
--------- --- --- --- ----------
 72
   65
 73
    8
 40
18.75
 49
12
 49
-1.5
 49
0.25
 49
-1.5
 49
0.25
 49
-1.5
 49
0.25
 49
-1.5
  0
LTYPE
  2
dotted
 70
   64
  3
   -       -       -       -    
 72
   65
 73
    2
 40
1.75
 49
0.25
 49
-1.5
  0
LTYPE
  2
chain
 70
   64
  3
-------------- -- --------------
 72
   65
 73
    4
 40
18.5
 49
12
 49
-1.5
 49
3.5
 49
-1.5
  0
LTYPE
  2
chain_double_dash
 70
   64
  3
------------ -- -- -------------
 72
   65
 73
    6
 40
23.5
 49
12
 49
-1.5
 49
3.5
 49
-1.5
 49
3.5
 49
-1.5
  0
LTYPE
  2
dashed_dotted
 70
   64
  3
-----------     -     ----------
 72
   65
 73
    4
 40
9.25
 49
6
 49
-1.5
 49
0.25
 49
-1.5
  0
LTYPE
  2
double-dashed_dotted
 70
   64
  3
------   -----------   -   -----
 72
   65
 73
    6
 40
16.75
 49
6
 49
-1.5
 49
6
 49
-1.5
 49
0.25
 49
-1.5
  0
LTYPE
  2
dashed_double-dotted
 70
   64
  3
---------    -    -    ---------
 72
   65
 73
    6
 40
11
 49
6
 49
-1.5
 49
0.25
 49
-1.5
 49
0.25
 49
-1.5
  0
LTYPE
  2
double-dashed_double-dotted
 70
   64
  3
-----   ---------   -   -   ----
 72
   65
 73
    8
 40
18.5
 49
6
 49
-1.5
 49
6
 49
-1.5
 49
0.25
 49
-1.5
 49
0.25
 49
-1.5
  0
LTYPE
  2
dashed_triplicate-dotted
 70
   64
  3
-------    -    -    -    ------
 72
   65
 73
    8
 40
12.75
 49
6
 49
-1.5
 49
0.25
 49
-1.5
 49
0.25
 49
-1.5
 49
0.25
 49
-1.5
  0
LTYPE
  2
double-dashed_triplicate-dotted
 70
   64
  3
-----  ---------  -  -  -  -----
 72
   65
 73
   10
 40
20.25
 49
6
 49
-1.5
 49
6
 49
-1.5
 49
0.25
 49
-1.5
 49
0.25
 49
-1.5
 49
0.25
 49
-1.5
  0
LTYPE
  2
undefined
 70
   64
  3
--------------------------------
 72
   65
 73
    0
 40
0
  0
ENDTAB
  0
TABLE
  2
STYLE
  5
3
100
AcDbSymbolTable
 70
     1
  0
STYLE
  5
10
100
AcDbSymbolTableRecord
100
AcDbTextStyleTableRecord
  2
STANDARD
 70
     0
 40
0.0
 41
1.0
 50
0.0
 71
     0
 42
0.2
  3
txt
  4
bigfont.shx
  0
STYLE
  5
26
100
AcDbSymbolTableRecord
100
AcDbTextStyleTableRecord
  2
TATEGAKI
 70
    68
 40
0.0
 41
1.0
 50
0.0
 71
     0
 42
1.0
  3
txt
  4
bigfont.shx
  0
ENDTAB
  0
TABLE
  2
LAYER
 70
    2
  0
LAYER
  2
_0-0_
 70
   64
 62
    7
  6
CONTINUOUS
  0
LAYER
  2
ADD_LINE
 70
   64
 62
    7
  6
CONTINUOUS
  0
ENDTAB
  0
ENDSEC
  0
SECTION
  2
BLOCKS
  0
ENDSEC
  0
SECTION
  2
ENTITIES
  0
LINE
  8
_0-0_
  6
CONTINUOUS
 62
    7
 10
672.13606690525205
 20
167.53106997205509
 11
1706.8525777203668
 21
167.53106997205509
  0
LINE
  8
_0-0_
  6
CONTINUOUS
 62
    7
 10
672.13606690525205
 20
1633.3565543671132
 11
672.13606690525205
 21
167.53106997205509
  0
LINE
  8
_0-0_
  6
CONTINUOUS
 62
    7
 10
1706.8525777203668
 20
1633.3565543671132
 11
1706.8525777203668
 21
167.53106997205509
  0
LINE
  8
_0-0_
  6
CONTINUOUS
 62
    7
 10
672.13606690525205
 20
627.53106997205509
 11
1706.8525777203668
 21
627.53106997205509
  0
TEXT
  8
_0-0_
 62
    7
 10
1230.9638392592096
 20
1309.36385291589
 40
30
 41
1
 50
0
  1
ｼｰﾘﾝｸﾞ
  0
POINT
  8
_0-0_
 62
    7
 10
1152.9076287889111
 20
1197.2267618177168
  0
LINE
  8
_0-0_
  6
CONTINUOUS
 62
    7
 10
1152.9076287889111
 20
1197.2267618177168
 11
1226.0832292464002
 21
1323.9706196844447
  0
LINE
  8
_0-0_
  6
CONTINUOUS
 62
    4
 10
990.02115052564488
 20
1225.2423591847084
 11
1123.7785098385284
 21
1225.2423591847084
  0
LINE
  8
_0-0_
  6
CONTINUOUS
 62
    7
 10
981.8998301820867
 20
1128.6370751970746
 11
1072.5051141697186
 21
1219.2423591847066
  0
LINE
  8
_0-0_
  6
CONTINUOUS
 62
    7
 10
981.8998301820867
 20
1121.5660073852116
 11
1079.5761819815816
 21
1219.2423591847066
  0
LINE
  8
_0-0_
  6
CONTINUOUS
 62
    7
 10
981.8998301820867
 20
1114.4949395733449
 11
1086.6472497934483
 21
1219.2423591847066
  0
LINE
  8
_0-0_
  6
CONTINUOUS
 62
    7
 10
981.8998301820867
 20
902.36290521738124
 11
1131.8998301820866
 21
1052.3629052173812
  0
LINE
  8
_0-0_
  6
CONTINUOUS
 62
    7
 10
981.8998301820867
 20
895.29183740551457
 11
1131.8998301820866
 21
1045.2918374055146
  0
LINE
  8
_0-0_
  6
CONTINUOUS
 62
    7
 10
981.8998301820867
 20
888.22076959364972
 11
1131.8998301820866
 21
1038.2207695936515
  0
LINE
  8
_0-0_
  6
CONTINUOUS
 62
    7
 10
954.66532786150867
 20
1292.776250828095
 11
959.66532786150867
 21
1297.694830725831
  0
LINE
  8
_0-0_
  6
CONTINUOUS
 62
    7
 10
954.66532786150867
 20
1297.694830725831
 11
959.66532786150867
 21
1292.776250828095
  0
LINE
  8
_0-0_
  6
CONTINUOUS
 62
    7
 10
954.66532786150867
 20
1284.776250828095
 11
954.66532786150867
 21
1279.776250828095
  0
LINE
  8
_0-0_
  6
CONTINUOUS
 62
    7
 10
954.66532786150867
 20
1297.694830725831
 11
954.66532786150867
 21
1292.776250828095
  0
LINE
  8
_0-0_
  6
CONTINUOUS
 62
    7
 10
959.66532786150867
 20
1292.776250828095
 11
959.66532786150867
 21
1297.694830725831
  0
LINE
  8
_0-0_
  6
CONTINUOUS
 62
    7
 10
959.66532786150867
 20
1284.776250828095
 11
954.66532786150867
 21
1279.776250828095
  0
LINE
  8
_0-0_
  6
CONTINUOUS
 62
    7
 10
954.66532786150867
 20
1284.776250828095
 11
959.66532786150867
 21
1279.776250828095
  0
LINE
  8
_0-0_
  6
CONTINUOUS
 62
    7
 10
959.66532786150867
 20
1284.776250828095
 11
959.66532786150867
 21
1274.776250828095
  0
LINE
  8
_0-0_
  6
CONTINUOUS
 62
    7
 10
943.66532786150867
 20
1279.776250828095
 11
943.66532786150867
 21
1274.776250828095
  0
LINE
  8
_0-0_
  6
CONTINUOUS
 62
    7
 10
959.66532786150867
 20
1279.776250828095
 11
943.66532786150867
 21
1279.776250828095
  0
LINE
  8
_0-0_
  6
CONTINUOUS
 62
    7
 10
981.8998301820867
 20
1314.6519986116048
 11
969.8998301820867
 21
1274.776250828095
  0
LINE
  8
_0-0_
  6
CONTINUOUS
 62
    7
 10
969.8998301820867
 20
1314.6519986116048
 11
981.8998301820867
 21
1274.776250828095
  0
LINE
  8
_0-0_
  6
CONTINUOUS
 62
    7
 10
969.8998301820867
 20
1274.776250828095
 11
969.8998301820867
 21
1314.6519986116048
  0
LINE
  8
_0-0_
  6
CONTINUOUS
 62
    7
 10
969.8998301820867
 20
1314.6519986116048
 11
981.8998301820867
 21
1314.6519986116048
  0
LINE
  8
_0-0_
  6
CONTINUOUS
 62
    7
 10
969.8998301820867
 20
1299.694830725831
 11
969.8998301820867
 21
1297.694830725831
  0
LINE
  8
_0-0_
  6
CONTINUOUS
 62
    7
 10
943.66532786150867
 20
1299.694830725831
 11
943.66532786150867
 21
1297.694830725831
  0
LINE
  8
_0-0_
  6
CONTINUOUS
 62
    7
 10
956.66532786150867
 20
1297.694830725831
 11
943.66532786150867
 21
1297.694830725831
  0
LINE
  8
_0-0_
  6
CONTINUOUS
 62
    7
 10
969.8998301820867
 20
1299.694830725831
 11
943.66532786150867
 21
1299.694830725831
  0
LINE
  8
_0-0_
  6
CONTINUOUS
 62
    2
 10
1137.899830182083
 20
1208.8873265477134
 11
1138.5101997697129
 21
1209.4976961353416
  0
LINE
  8
_0-0_
  6
CONTINUOUS
 62
    2
 10
1137.899830182083
 20
1206.0588994229686
 11
1139.544945229427
 21
1207.7040144703089
  0
LINE
  8
_0-0_
  6
CONTINUOUS
 62
    2
 10
1137.8998301820866
 20
1203.2304722982219
 11
1140.8361383480624
 21
1206.1667804642013
  0
LINE
  8
_0-0_
  6
CONTINUOUS
 62
    2
 10
1137.8998301820866
 20
1200.4020451734752
 11
1142.3721011324596
 21
1204.8743161238483
  0
LINE
  8
_0-0_
  6
CONTINUOUS
 62
    2
 10
1137.8998301820866
 20
1197.5736180487304
 11
1144.1643870118751
 21
1203.8381748785171
  0
LINE
  8
_0-0_
  6
CONTINUOUS
 62
    2
 10
1137.8998301820866
 20
1194.7451909239837
 11
1146.2540741517951
 21
1203.099434893694
  0
LINE
  8
_0-0_
  6
CONTINUOUS
 62
    2
 10
1139.7049687820727
 20
1193.721902399225
 11
1148.7410393836399
 21
1202.7579730007922
  0
LINE
  8
_0-0_
  6
CONTINUOUS
 62
    2
 10
1160.3606854609789
 20
1211.5491919533845
 11
1160.7139313220723
 21
1211.9024378144779
  0
LINE
  8
_0-0_
  6
CONTINUOUS
 62
    2
 10
1143.0720754203103
 20
1194.2605819127159
 11
1151.9180092696915
 21
1203.1065157620972
  0
LINE
  8
_0-0_
  6
CONTINUOUS
 62
    2
 10
1146.1882733792954
 20
1194.5483527469544
 11
1160.7139313220723
 21
1209.0740106897313
  0
LINE
  8
_0-0_
  6
CONTINUOUS
 62
    2
 10
1149.1113528377791
 20
1194.6430050806914
 11
1160.7139313220723
 21
1206.2455835649846
  0
LINE
  8
_0-0_
  6
CONTINUOUS
 62
    2
 10
1151.8757307212945
 20
1194.5789558394601
 11
1160.7139313220723
 21
1203.4171564402379
  0
LINE
  8
_0-0_
  6
CONTINUOUS
 62
    2
 10
1154.5035052909589
 20
1194.3783032843778
 11
1160.7139313220723
 21
1200.5887293154913
  0
LINE
  8
_0-0_
  6
CONTINUOUS
 62
    2
 10
1157.0094714230399
 20
1194.0558422917159
 11
1160.7139313220723
 21
1197.7603021907464
  0
LINE
  8
_0-0_
  6
CONTINUOUS
 62
    2
 10
1159.4036797038243
 20
1193.6216234477536
 11
1160.7139313220723
 21
1194.9318750659997
  0
LINE
  8
_0-0_
  6
CONTINUOUS
 62
    2
 10
1160.7139313220723
 20
1193.3285028563819
 11
1160.7139313220723
 21
1193.3285028563819
  0
LINE
  8
_0-0_
  6
CONTINUOUS
 62
    2
 10
1160.7139313220723
 20
1193.3285028563819
 11
1155.5756054566705
 21
1194.2563608297166
  0
LINE
  8
_0-0_
  6
CONTINUOUS
 62
    2
 10
1155.5756054566705
 20
1194.2563608297166
 11
1150.2468075632476
 21
1194.6347660018794
  0
LINE
  8
_0-0_
  6
CONTINUOUS
 62
    2
 10
1150.2468075632476
 20
1194.6347660018794
 11
1144.889450469293
 21
1194.4522207231962
  0
LINE
  8
_0-0_
  6
CONTINUOUS
 62
    2
 10
1144.889450469293
 20
1194.4522207231962
 11
1139.6663147591535
 21
1193.7142715395876
  0
LINE
  8
_0-0_
  6
CONTINUOUS
 62
    2
 10
1139.6663147591535
 20
1193.7142715395876
 11
1137.8998301820866
 21
1193.3285028563819
  0
CIRCLE
  8
_0-0_
  6
CONTINUOUS
 62
    7
 10
1149.0719244408756
 20
1214.3952767822004
 40
11.642006881197926
  0
LINE
  8
_0-0_
  6
CONTINUOUS
 62
    7
 10
976.8998301820867
 20
1227.2423591847084
 11
1089.3710398695766
 21
1227.2423591847084
  0
LINE
  8
_0-0_
  6
CONTINUOUS
 62
    1
 10
1014.6192363332158
 20
1241.1535009080083
 11
1014.6192363332158
 21
1163.6504608463795
  0
ARC
  8
_0-0_
  6
CONTINUOUS
 62
    1
 10
1016.8292363332149
 20
1164.5394481495234
 40
3.8160843806184368
 50
211.60750224624888
 51
328.39249775375112
  0
ARC
  8
_0-0_
  6
CONTINUOUS
 62
    1
 10
1023.3292363332149
 20
1164.5394481495234
 40
3.8160843806184368
 50
211.60750224624888
 51
328.39249775376271
  0
ARC
  8
_0-0_
  6
CONTINUOUS
 62
    1
 10
1016.8292363332149
 20
1160.5394481495234
 40
3.8160843806184368
 50
31.607502246248899
 51
148.39249775375112
  0
LINE
  8
_0-0_
  6
CONTINUOUS
 62
    1
 10
1025.5392363332176
 20
1239.0024882111531
 11
1025.5392363332176
 21
1161.4994481495262
  0
ARC
  8
_0-0_
  6
CONTINUOUS
 62
    1
 10
1023.3292363332149
 20
1238.1135009080092
 40
3.8160843806184368
 50
31.607502246248899
 51
148.39249775375112
  0
ARC
  8
_0-0_
  6
CONTINUOUS
 62
    1
 10
1023.3292363332149
 20
1242.1135009080092
 40
3.8160843806184368
 50
211.60750224624888
 51
328.39249775375112
  0
ARC
  8
_0-0_
  6
CONTINUOUS
 62
    1
 10
1016.8292363332149
 20
1238.1135009080092
 40
3.8160843806184368
 50
31.607502246248899
 51
148.39249775375112
  0
LINE
  8
_0-0_
  6
CONTINUOUS
 62
    1
 10
1026.5792363332148
 20
1162.5394481495252
 11
1026.5792363332148
 21
1240.1135009080092
  0
LINE
  8
_0-0_
  6
CONTINUOUS
 62
    1
 10
1013.5792363332149
 20
1240.1135009080092
 11
1013.5792363332149
 21
1162.5394481495234
  0
LINE
  8
_0-0_
  6
CONTINUOUS
 62
    7
 10
1160.7139313220723
 20
1193.3285028563798
 11
1162.7139313220723
 21
1193.3285028563798
  0
LINE
  8
_0-0_
  6
CONTINUOUS
 62
    7
 10
1162.7139313220723
 20
1224.8631568323392
 11
1162.7139313220723
 21
1193.3285028563798
  0
LINE
  8
_0-0_
  6
CONTINUOUS
 62
    7
 10
983.8998301820867
 20
1272.776250828095
 11
1162.7139313220723
 21
1224.8631568323392
  0
LINE
  8
_0-0_
  6
CONTINUOUS
 62
    7
 10
1160.7139313220723
 20
1223.3285028563798
 11
1160.7139313220723
 21
1193.3285028563798
  0
LINE
  8
_0-0_
  6
CONTINUOUS
 62
    7
 10
1080.4835280220213
 20
1244.826174629053
 11
1160.7139313220723
 21
1223.3285028563798
  0
LINE
  8
_0-0_
  6
CONTINUOUS
 62
    2
 10
948.83986266242221
 20
1270.2825816005636
 11
942.58986266242221
 21
1270.2825816005636
  0
LINE
  8
_0-0_
  6
CONTINUOUS
 62
    7
 10
981.8998301820867
 20
1314.6519986116048
 11
981.8998301820867
 21
1274.776250828095
  0
LINE
  8
_0-0_
  6
CONTINUOUS
 62
    7
 10
1102.098870437163
 20
1324.6519986116048
 11
1122.098870437163
 21
1290.0109824602271
  0
LINE
  8
_0-0_
  6
CONTINUOUS
 62
    7
 10
1104.9856217831111
 20
1329.6519986116048
 11
1126.4289974560852
 21
1292.5109824602271
  0
ARC
  8
_0-0_
  6
CONTINUOUS
 62
    1
 10
1006.199830182086
 20
1321.0189448037265
 40
21.113053807878593
 50
72.412046226006396
 51
107.5879537739936
  0
LINE
  8
_0-0_
  6
CONTINUOUS
 62
    1
 10
1013.0248301820867
 20
1329.6519986116048
 11
1013.0248301820867
 21
1331.7319986116047
  0
LINE
  8
_0-0_
  6
CONTINUOUS
 62
    1
 10
1012.579550656632
 20
1331.7319986116047
 11
1012.579550656632
 21
1341.1450524194836
  0
LINE
  8
_0-0_
  6
CONTINUOUS
 62
    1
 10
1017.2498301820852
 20
1342.1319986116043
 11
1012.579550656632
 21
1341.1450524194836
  0
LINE
  8
_0-0_
  6
CONTINUOUS
 62
    1
 10
1017.2498301820852
 20
1342.1319986116043
 11
995.1498301820867
 21
1342.1319986116043
  0
LINE
  8
_0-0_
  6
CONTINUOUS
 62
    1
 10
993.44038923299388
 20
1331.7319986116047
 11
1018.9592711311744
 21
1331.7319986116047
  0
LINE
  8
_0-0_
  6
CONTINUOUS
 62
    1
 10
1018.9592711311744
 20
1331.7319986116047
 11
1018.9592711311744
 21
1341.1450524194836
  0
LINE
  8
_0-0_
  6
CONTINUOUS
 62
    1
 10
1018.9592711311744
 20
1341.1450524194836
 11
1017.2498301820852
 21
1342.1319986116043
  0
LINE
  8
_0-0_
  6
CONTINUOUS
 62
    1
 10
1020.4998301820852
 20
1331.7319986116047
 11
1020.4998301820852
 21
1329.6519986116048
  0
LINE
  8
_0-0_
  6
CONTINUOUS
 62
    1
 10
1020.4998301820852
 20
1329.6519986116048
 11
991.8998301820867
 21
1329.6519986116048
  0
LINE
  8
_0-0_
  6
CONTINUOUS
 62
    1
 10
991.8998301820867
 20
1331.7319986116047
 11
1020.4998301820852
 21
1331.7319986116047
  0
LINE
  8
_0-0_
  6
CONTINUOUS
 62
    1
 10
999.37483018208525
 20
1329.6519986116048
 11
999.37483018208525
 21
1331.7319986116047
  0
LINE
  8
_0-0_
  6
CONTINUOUS
 62
    1
 10
991.8998301820867
 20
1331.7319986116047
 11
991.8998301820867
 21
1329.6519986116048
  0
LINE
  8
_0-0_
  6
CONTINUOUS
 62
    1
 10
993.44038923299388
 20
1341.1450524194836
 11
993.44038923299388
 21
1331.7319986116047
  0
LINE
  8
_0-0_
  6
CONTINUOUS
 62
    1
 10
999.82010970753993
 20
1341.1450524194836
 11
999.82010970753993
 21
1331.7319986116047
  0
LINE
  8
_0-0_
  6
CONTINUOUS
 62
    1
 10
995.1498301820867
 20
1342.1319986116043
 11
993.44038923299388
 21
1341.1450524194836
  0
LINE
  8
_0-0_
  6
CONTINUOUS
 62
    1
 10
1018.9592711311744
 20
1341.1450524194836
 11
993.44038923299388
 21
1341.1450524194836
  0
LINE
  8
_0-0_
  6
CONTINUOUS
 62
    1
 10
999.82010970753993
 20
1341.1450524194836
 11
995.1498301820867
 21
1342.1319986116043
  0
LINE
  8
_0-0_
  6
CONTINUOUS
 62
    7
 10
991.8998301820867
 20
1324.6519986116048
 11
991.8998301820867
 21
1314.6519986116048
  0
LINE
  8
_0-0_
  6
CONTINUOUS
 62
    7
 10
1020.4998301820852
 20
1324.6519986116048
 11
1020.4998301820852
 21
1314.6519986116048
  0
LINE
  8
_0-0_
  6
CONTINUOUS
 62
    7
 10
1030.4998301820851
 20
1304.6519986116048
 11
1026.4998301820851
 21
1306.6519986116048
  0
LINE
  8
_0-0_
  6
CONTINUOUS
 62
    7
 10
1026.4998301820851
 20
1306.6519986116048
 11
1028.4998301820851
 21
1306.6519986116048
  0
LINE
  8
_0-0_
  6
CONTINUOUS
 62
    7
 10
1028.4998301820851
 20
1312.6519986116048
 11
1028.4998301820851
 21
1306.6519986116048
  0
LINE
  8
_0-0_
  6
CONTINUOUS
 62
    7
 10
1030.4998301820851
 20
1314.6519986116048
 11
1030.4998301820851
 21
1304.6519986116048
  0
LINE
  8
_0-0_
  6
CONTINUOUS
 62
    1
 10
999.82010970753993
 20
1312.6519986116048
 11
999.82010970753993
 21
1305.0849448037254
  0
LINE
  8
_0-0_
  6
CONTINUOUS
 62
    1
 10
1012.579550656632
 20
1305.0849448037254
 11
1012.579550656632
 21
1312.6519986116048
  0
LINE
  8
_0-0_
  6
CONTINUOUS
 62
    1
 10
995.1498301820867
 20
1304.0979986116047
 11
999.82010970753993
 21
1305.0849448037254
  0
ARC
  8
_0-0_
  6
CONTINUOUS
 62
    1
 10
1006.199830182086
 20
1325.2110524194825
 40
21.113053807878593
 50
252.41204622600637
 51
287.5879537739936
  0
LINE
  8
_0-0_
  6
CONTINUOUS
 62
    1
 10
1012.579550656632
 20
1305.0849448037254
 11
1017.2498301820852
 21
1304.0979986116047
  0
LINE
  8
_0-0_
  6
CONTINUOUS
 62
    1
 10
993.44038923299388
 20
1312.6519986116048
 11
993.44038923299388
 21
1305.0849448037254
  0
LINE
  8
_0-0_
  6
CONTINUOUS
 62
    1
 10
993.44038923299388
 20
1305.0849448037254
 11
995.1498301820867
 21
1304.0979986116047
  0
LINE
  8
_0-0_
  6
CONTINUOUS
 62
    1
 10
995.1498301820867
 20
1304.0979986116047
 11
1017.2498301820852
 21
1304.0979986116047
  0
LINE
  8
_0-0_
  6
CONTINUOUS
 62
    1
 10
1017.2498301820852
 20
1304.0979986116047
 11
1018.9592711311744
 21
1305.0849448037254
  0
LINE
  8
_0-0_
  6
CONTINUOUS
 62
    1
 10
1018.9592711311744
 20
1305.0849448037254
 11
1018.9592711311744
 21
1312.6519986116048
  0
LINE
  8
_0-0_
  6
CONTINUOUS
 62
    1
 10
1018.9592711311744
 20
1312.6519986116048
 11
993.44038923299388
 21
1312.6519986116048
  0
LINE
  8
_0-0_
  6
CONTINUOUS
 62
    1
 10
999.69983018208598
 20
1329.6519986116048
 11
999.69983018208598
 21
1312.6519986116048
  0
LINE
  8
_0-0_
  6
CONTINUOUS
 62
    1
 10
1000.7398301820832
 20
1329.6519986116048
 11
1000.7398301820832
 21
1312.6519986116048
  0
LINE
  8
_0-0_
  6
CONTINUOUS
 62
    1
 10
1011.6598301820851
 20
1329.6519986116048
 11
1011.6598301820851
 21
1312.6519986116048
  0
LINE
  8
_0-0_
  6
CONTINUOUS
 62
    1
 10
1012.699830182086
 20
1312.6519986116048
 11
1012.699830182086
 21
1329.6519986116048
  0
LINE
  8
_0-0_
  6
CONTINUOUS
 62
    1
 10
1000.7398301820832
 20
1304.0979986116047
 11
1000.7398301820832
 21
1290.0109824602271
  0
LINE
  8
_0-0_
  6
CONTINUOUS
 62
    1
 10
1011.6598301820851
 20
1304.0979986116047
 11
1011.6598301820851
 21
1290.0109824602271
  0
LINE
  8
_0-0_
  6
CONTINUOUS
 62
    1
 10
1000.7398301820832
 20
1290.0109824602271
 11
1011.6598301820851
 21
1290.0109824602271
  0
LINE
  8
_0-0_
  6
CONTINUOUS
 62
    1
 10
999.69983018208598
 20
1304.0979986116047
 11
999.69983018208598
 21
1291.0509824602261
  0
LINE
  8
_0-0_
  6
CONTINUOUS
 62
    1
 10
1012.699830182086
 20
1291.0509824602279
 11
1012.699830182086
 21
1304.0979986116047
  0
LINE
  8
_0-0_
  6
CONTINUOUS
 62
    1
 10
1011.6598301820851
 20
1290.0109824602271
 11
1012.699830182086
 21
1291.0509824602279
  0
LINE
  8
_0-0_
  6
CONTINUOUS
 62
    1
 10
1000.7398301820832
 20
1290.0109824602271
 11
999.69983018208598
 21
1291.0509824602261
  0
LINE
  8
_0-0_
  6
CONTINUOUS
 62
    7
 10
981.8998301820867
 20
1314.6519986116048
 11
1030.4998301820851
 21
1314.6519986116048
  0
LINE
  8
_0-0_
  6
CONTINUOUS
 62
    7
 10
983.8998301820867
 20
1312.6519986116048
 11
1028.4998301820851
 21
1312.6519986116048
  0
LINE
  8
_0-0_
  6
CONTINUOUS
 62
    1
 10
999.69983018208598
 20
1293.5144844600429
 11
1012.699830182086
 21
1294.6518370858805
  0
LINE
  8
_0-0_
  6
CONTINUOUS
 62
    1
 10
999.69983018208598
 20
1295.5221241351312
 11
1012.699830182086
 21
1296.659476760967
  0
LINE
  8
_0-0_
  6
CONTINUOUS
 62
    1
 10
999.69983018208598
 20
1297.5297638102177
 11
1012.699830182086
 21
1298.6671164360553
  0
LINE
  8
_0-0_
  6
CONTINUOUS
 62
    1
 10
999.69983018208598
 20
1299.5374034853041
 11
1012.699830182086
 21
1300.6747561111399
  0
LINE
  8
_0-0_
  6
CONTINUOUS
 62
    1
 10
999.69983018208598
 20
1327.6443589365183
 11
1012.699830182086
 21
1328.7817115623541
  0
LINE
  8
_0-0_
  6
CONTINUOUS
 62
    1
 10
999.69983018208598
 20
1321.6214399112571
 11
1012.699830182086
 21
1322.7587925370947
  0
LINE
  8
_0-0_
  6
CONTINUOUS
 62
    1
 10
999.69983018208598
 20
1319.6138002361706
 11
1012.699830182086
 21
1320.7511528620082
  0
LINE
  8
_0-0_
  6
CONTINUOUS
 62
    1
 10
999.69983018208598
 20
1317.6061605610842
 11
1012.699830182086
 21
1318.7435131869199
  0
LINE
  8
_0-0_
  6
CONTINUOUS
 62
    1
 10
999.69983018208598
 20
1315.5985208859977
 11
1012.699830182086
 21
1316.7358735118353
  0
LINE
  8
_0-0_
  6
CONTINUOUS
 62
    1
 10
999.69983018208598
 20
1313.5908812109112
 11
1012.699830182086
 21
1314.728233836747
  0
LINE
  8
_0-0_
  6
CONTINUOUS
 62
    1
 10
999.69983018208598
 20
1301.5450431603906
 11
1012.699830182086
 21
1302.6823957862282
  0
LINE
  8
_0-0_
  6
CONTINUOUS
 62
    1
 10
999.69983018208598
 20
1323.6290795863454
 11
1012.699830182086
 21
1324.7664322121811
  0
LINE
  8
_0-0_
  6
CONTINUOUS
 62
    1
 10
999.69983018208598
 20
1325.63671926143
 11
1012.699830182086
 21
1326.7740718872676
  0
LINE
  8
_0-0_
  6
CONTINUOUS
 62
    1
 10
999.69983018208598
 20
1291.5068447849565
 11
1012.699830182086
 21
1292.644197410794
  0
LINE
  8
_0-0_
  6
CONTINUOUS
 62
    1
 10
1012.699830182086
 20
1295.1654425689078
 11
1012.699830182086
 21
1295.1841294809049
  0
LINE
  8
_0-0_
  6
CONTINUOUS
 62
    1
 10
1011.9157794572021
 20
1312.6519986116048
 11
1012.699830182086
 21
1312.7205941616623
  0
LINE
  8
_0-0_
  6
CONTINUOUS
 62
    1
 10
999.69983018208598
 20
1303.5526828354771
 11
1005.9497477108454
 21
1304.0994797672167
  0
LINE
  8
_0-0_
  6
CONTINUOUS
 62
    1
 10
1005.549472064031
 20
1290.0109824602271
 11
1012.2456717426722
 21
1290.5968240208142
  0
LINE
  8
_0-0_
  6
CONTINUOUS
 62
    7
 10
983.8998301820867
 20
1270.7056984672738
 11
983.8998301820867
 21
1229.2423591847084
  0
LINE
  8
_0-0_
  6
CONTINUOUS
 62
    7
 10
981.8998301820867
 20
1272.776250828095
 11
981.8998301820867
 21
1227.2423591847084
  0
LINE
  8
_0-0_
  6
CONTINUOUS
 62
    7
 10
993.8998301820867
 20
1229.2423591847084
 11
983.8998301820867
 21
1229.2423591847084
  0
LINE
  8
_0-0_
  6
CONTINUOUS
 62
    7
 10
993.8998301820867
 20
1227.2423591847084
 11
981.8998301820867
 21
1227.2423591847084
  0
LINE
  8
_0-0_
  6
CONTINUOUS
 62
    7
 10
993.8998301820867
 20
1229.2423591847084
 11
993.8998301820867
 21
1227.2423591847084
  0
LINE
  8
_0-0_
  6
CONTINUOUS
 62
    7
 10
1078.4835280220213
 20
1229.2423591847084
 11
1068.4835280220213
 21
1229.2423591847084
  0
LINE
  8
_0-0_
  6
CONTINUOUS
 62
    7
 10
1068.4835280220213
 20
1229.2423591847084
 11
1068.4835280220213
 21
1227.2423591847084
  0
LINE
  8
_0-0_
  6
CONTINUOUS
 62
    7
 10
1078.4835280220213
 20
1245.3620730139148
 11
1078.4835280220213
 21
1229.2423591847084
  0
LINE
  8
_0-0_
  6
CONTINUOUS
 62
    7
 10
983.8998301820867
 20
1270.7056984672738
 11
1078.4835280220213
 21
1245.3620730139148
  0
LINE
  8
_0-0_
  6
CONTINUOUS
 62
    7
 10
1080.4835280220213
 20
1244.826174629053
 11
1080.4835280220213
 21
1227.2423591847084
  0
LINE
  8
_0-0_
  6
CONTINUOUS
 62
    7
 10
1068.4835280220213
 20
1227.2423591847084
 11
1080.4835280220213
 21
1227.2423591847084
  0
LINE
  8
_0-0_
  6
CONTINUOUS
 62
    7
 10
1089.3710398695766
 20
1227.2423591847084
 11
1089.3710398695766
 21
1225.2423591847084
  0
LINE
  8
_0-0_
  6
CONTINUOUS
 62
    7
 10
1089.3710398695766
 20
1225.2423591847084
 11
974.8998301820867
 21
1225.2423591847084
  0
LINE
  8
_0-0_
  6
CONTINUOUS
 62
    7
 10
974.8998301820867
 20
1270.776250828095
 11
974.8998301820867
 21
1225.2423591847084
  0
LINE
  8
_0-0_
  6
CONTINUOUS
 62
    7
 10
966.8998301820867
 20
1274.776250828095
 11
966.8998301820867
 21
1272.776250828095
  0
LINE
  8
_0-0_
  6
CONTINUOUS
 62
    7
 10
976.8998301820867
 20
1272.776250828095
 11
925.90495537368054
 21
1272.776250828095
  0
LINE
  8
_0-0_
  6
CONTINUOUS
 62
    7
 10
974.8998301820867
 20
1270.776250828095
 11
923.90495537368054
 21
1270.776250828095
  0
LINE
  8
_0-0_
  6
CONTINUOUS
 62
    7
 10
959.86752787379021
 20
1324.6519986116048
 11
1102.098870437163
 21
1324.6519986116048
  0
LINE
  8
_0-0_
  6
CONTINUOUS
 62
    7
 10
962.73338643960972
 20
1329.6519986116048
 11
1104.9856217831111
 21
1329.6519986116048
  0
LINE
  8
_0-0_
  6
CONTINUOUS
 62
    7
 10
925.90495537368054
 20
1282.776250828095
 11
923.90495537368054
 21
1282.776250828095
  0
LINE
  8
_0-0_
  6
CONTINUOUS
 62
    7
 10
923.90495537368054
 20
1270.776250828095
 11
923.90495537368054
 21
1282.776250828095
  0
LINE
  8
_0-0_
  6
CONTINUOUS
 62
    7
 10
925.90495537368054
 20
1272.776250828095
 11
925.90495537368054
 21
1282.776250828095
  0
LINE
  8
_0-0_
  6
CONTINUOUS
 62
    7
 10
981.8998301820867
 20
1274.776250828095
 11
933.43082554093428
 21
1274.776250828095
  0
LINE
  8
_0-0_
  6
CONTINUOUS
 62
    7
 10
931.43082554093428
 20
1272.776250828095
 11
981.8998301820867
 21
1272.776250828095
  0
LINE
  8
_0-0_
  6
CONTINUOUS
 62
    7
 10
931.43082554093428
 20
1272.776250828095
 11
931.43082554093428
 21
1283.776250828095
  0
LINE
  8
_0-0_
  6
CONTINUOUS
 62
    7
 10
933.43082554093428
 20
1274.776250828095
 11
933.43082554093428
 21
1283.776250828095
  0
LINE
  8
_0-0_
  6
CONTINUOUS
 62
    7
 10
933.43082554093428
 20
1283.776250828095
 11
931.43082554093428
 21
1283.776250828095
  0
LINE
  8
_0-0_
  6
CONTINUOUS
 62
    7
 10
959.66532786150867
 20
1284.776250828095
 11
959.66532786150867
 21
1292.776250828095
  0
LINE
  8
_0-0_
  6
CONTINUOUS
 62
    7
 10
969.8998301820867
 20
1297.694830725831
 11
956.66532786150867
 21
1297.694830725831
  0
LINE
  8
_0-0_
  6
CONTINUOUS
 62
    7
 10
969.8998301820867
 20
1297.694830725831
 11
969.8998301820867
 21
1274.776250828095
  0
LINE
  8
_0-0_
  6
CONTINUOUS
 62
    7
 10
985.8998301820867
 20
1306.6519986116048
 11
983.8998301820867
 21
1306.6519986116048
  0
LINE
  8
_0-0_
  6
CONTINUOUS
 62
    7
 10
983.8998301820867
 20
1312.6519986116048
 11
983.8998301820867
 21
1306.6519986116048
  0
LINE
  8
_0-0_
  6
CONTINUOUS
 62
    7
 10
983.8998301820867
 20
1305.6519986116048
 11
983.8998301820867
 21
1272.776250828095
  0
LINE
  8
_0-0_
  6
CONTINUOUS
 62
    7
 10
983.8998301820867
 20
1305.6519986116048
 11
985.8998301820867
 21
1306.6519986116048
  0
LINE
  8
_0-0_
  6
CONTINUOUS
 62
    4
 10
981.8998301820867
 20
1208.6357574669103
 11
981.8998301820867
 21
1217.1210388411484
  0
LINE
  8
_0-0_
  6
CONTINUOUS
 62
    7
 10
992.50643189988489
 20
1219.2423591847084
 11
981.8998301820867
 21
1208.6357574669103
  0
LINE
  8
_0-0_
  6
CONTINUOUS
 62
    7
 10
1121.2932284642884
 20
1219.2423591847084
 11
1131.8998301820866
 21
1208.6357574669103
  0
LINE
  8
_0-0_
  6
CONTINUOUS
 62
    4
 10
1123.7785098385284
 20
1225.2423591847084
 11
1137.8998301820866
 21
1211.1210388411484
  0
LINE
  8
_0-0_
  6
CONTINUOUS
 62
    7
 10
992.50643189988489
 20
1219.2423591847084
 11
1121.2932284642884
 21
1219.2423591847084
  0
LINE
  8
_0-0_
  6
CONTINUOUS
 62
    7
 10
976.8998301820867
 20
1272.776250828095
 11
976.8998301820867
 21
1227.2423591847084
  0
LINE
  8
_0-0_
  6
CONTINUOUS
 62
    4
 10
990.02115052564488
 20
1225.2423591847084
 11
981.8998301820867
 21
1217.1210388411484
  0
LINE
  8
_0-0_
  6
CONTINUOUS
 62
    7
 10
1293.8913427610132
 20
1038.7579831123651
 11
1137.8998301820866
 21
1038.7579831123651
  0
LINE
  8
_0-0_
  6
CONTINUOUS
 62
    6
 10
1421.5535045957295
 20
921.75798311236508
 11
1453.03869791123
 21
953.24317642786559
  0
LINE
  8
_0-0_
  6
CONTINUOUS
 62
    6
 10
1428.8237677828511
 20
956.75798311236508
 11
1453.03869791123
 21
932.54305298398617
  0
LINE
  8
_0-0_
  6
CONTINUOUS
 62
    6
 10
1435.6956402194555
 20
921.75798311236508
 11
1453.03869791123
 21
939.10104080413953
  0
LINE
  8
_0-0_
  6
CONTINUOUS
 62
    6
 10
1442.9659034065771
 20
956.75798311236508
 11
1453.03869791123
 21
946.68518860771223
  0
LINE
  8
_0-0_
  6
CONTINUOUS
 62
    6
 10
1449.8377758431889
 20
921.75798311236508
 11
1453.03869791123
 21
924.95890518040619
  0
LINE
  8
_0-0_
  6
CONTINUOUS
 62
    6
 10
1137.8998301820866
 20
956.75798311236508
 11
1453.03869791123
 21
956.75798311236508
  0
LINE
  8
_0-0_
  6
CONTINUOUS
 62
    6
 10
1137.8998301820866
 20
921.75798311236508
 11
1453.03869791123
 21
921.75798311236508
  0
LINE
  8
_0-0_
  6
CONTINUOUS
 62
    4
 10
1137.8998301820866
 20
920.75798311236508
 11
1453.03869791123
 21
920.75798311236508
  0
LINE
  8
_0-0_
  6
CONTINUOUS
 62
    7
 10
1453.03869791123
 20
956.75798311236508
 11
1137.8998301820866
 21
956.75798311236508
  0
LINE
  8
_0-0_
  6
CONTINUOUS
 62
    5
 10
1137.8998301820866
 20
957.75798311236326
 11
1453.03869791123
 21
957.75798311236326
  0
LINE
  8
_0-0_
  6
CONTINUOUS
 62
    7
 10
1137.8998301820866
 20
958.75798311236326
 11
1453.03869791123
 21
958.75798311236326
  0
LINE
  8
_0-0_
  6
CONTINUOUS
 62
    7
 10
1321.8913427610132
 20
1038.7579831123651
 11
1453.03869791123
 21
1038.7579831123651
  0
TEXT
  8
_0-0_
 62
    7
 10
1205.6848866257133
 20
1124.2975595320852
 40
30
 41
1
 50
0
  1
成型緩衝材
  0
POINT
  8
_0-0_
 62
    7
 10
1145.9236622798853
 20
1032.1234677444511
  0
LINE
  8
_0-0_
  6
CONTINUOUS
 62
    7
 10
1145.9236622798853
 20
1032.1234677444511
 11
1205.2800714820623
 21
1134.9317842374724
  0
TEXT
  8
_0-0_
 62
    7
 10
1384.9685596632044
 20
1147.5943080058853
 40
30
 41
1
 50
0
  1
伸縮目地
  0
POINT
  8
_0-0_
 62
    7
 10
1304.9492931662462
 20
1027.0589572066667
  0
LINE
  8
_0-0_
  6
CONTINUOUS
 62
    7
 10
1304.9492931662462
 20
1027.0589572066667
 11
1382.6363095982924
 21
1161.6168167554126
  0
TEXT
  8
_0-0_
 62
    7
 10
1468.0265324828288
 20
1102.0137131658441
 40
30
 41
1
 50
0
  1
断熱材
  0
POINT
  8
_0-0_
 62
    7
 10
1366.7363217271886
 20
940.96227806437059
  0
LINE
  8
_0-0_
  6
CONTINUOUS
 62
    7
 10
1366.7363217271886
 20
940.96227806437059
 11
1466.399146495678
 21
1113.5833541892273
  0
LINE
  8
_0-0_
  6
CONTINUOUS
 62
    7
 10
1337.5461414946585
 20
1038.7579831123651
 11
1417.5461414946585
 21
958.75798311236326
  0
LINE
  8
_0-0_
  6
CONTINUOUS
 62
    7
 10
1344.6172093065215
 20
1038.7579831123651
 11
1424.6172093065215
 21
958.75798311236508
  0
LINE
  8
_0-0_
  6
CONTINUOUS
 62
    7
 10
1351.6882771183882
 20
1038.7579831123651
 11
1431.6882771183919
 21
958.75798311236508
  0
LINE
  8
_0-0_
  6
CONTINUOUS
 62
    5
 10
1316.1054278596202
 20
958.75798311236508
 11
1316.1054278596202
 21
1035.2579831123651
  0
LINE
  8
_0-0_
  6
CONTINUOUS
 62
    5
 10
1312.3554278596202
 20
958.75798311236508
 11
1312.3554278596202
 21
1035.2579831123651
  0
LINE
  8
_0-0_
  6
CONTINUOUS
 62
    5
 10
1308.6054278596202
 20
958.75798311236508
 11
1308.6054278596202
 21
1035.2579831123651
  0
LINE
  8
_0-0_
  6
CONTINUOUS
 62
    5
 10
1304.8554278596202
 20
958.75798311236508
 11
1304.8554278596202
 21
1035.2579831123651
  0
LINE
  8
_0-0_
  6
CONTINUOUS
 62
    5
 10
1301.1054278596202
 20
958.75798311236508
 11
1301.1054278596202
 21
1035.2579831123651
  0
LINE
  8
_0-0_
  6
CONTINUOUS
 62
    5
 10
1320.3913427610132
 20
1038.2579831123651
 11
1320.8913427610132
 21
1038.7579831123651
  0
LINE
  8
_0-0_
  6
CONTINUOUS
 62
    5
 10
1320.8913427610132
 20
1038.7579831123651
 11
1321.8913427610132
 21
1038.7579831123651
  0
LINE
  8
_0-0_
  6
CONTINUOUS
 62
    5
 10
1321.8913427610132
 20
1038.7579831123651
 11
1321.8913427610132
 21
1035.7579831123651
  0
LINE
  8
_0-0_
  6
CONTINUOUS
 62
    5
 10
1321.8913427610132
 20
1035.7579831123651
 11
1321.3913427610132
 21
1035.7579831123651
  0
LINE
  8
_0-0_
  6
CONTINUOUS
 62
    5
 10
1321.3913427610132
 20
1035.7579831123651
 11
1321.3913427610132
 21
1020.7579831123651
  0
LINE
  8
_0-0_
  6
CONTINUOUS
 62
    5
 10
1321.3913427610132
 20
1020.7579831123651
 11
1321.8913427610169
 21
1020.7579831123651
  0
LINE
  8
_0-0_
  6
CONTINUOUS
 62
    5
 10
1321.8913427610169
 20
1020.7579831123651
 11
1321.8913427610132
 21
1018.7579831123651
  0
LINE
  8
_0-0_
  6
CONTINUOUS
 62
    5
 10
1321.8913427610132
 20
1018.7579831123651
 11
1320.3913427610132
 21
1018.7579831123651
  0
LINE
  8
_0-0_
  6
CONTINUOUS
 62
    5
 10
1320.3913427610132
 20
1018.7579831123651
 11
1320.3913427610132
 21
1037.2579831123651
  0
LINE
  8
_0-0_
  6
CONTINUOUS
 62
    5
 10
1320.3913427610132
 20
1037.2579831123651
 11
1295.3913427610132
 21
1037.2579831123651
  0
LINE
  8
_0-0_
  6
CONTINUOUS
 62
    5
 10
1295.3913427610132
 20
1037.2579831123651
 11
1295.3913427610132
 21
1018.7579831123651
  0
LINE
  8
_0-0_
  6
CONTINUOUS
 62
    5
 10
1295.3913427610132
 20
1018.7579831123651
 11
1293.8913427610132
 21
1018.7579831123651
  0
LINE
  8
_0-0_
  6
CONTINUOUS
 62
    5
 10
1293.8913427610132
 20
1018.7579831123651
 11
1293.8913427610059
 21
1020.7579831123651
  0
LINE
  8
_0-0_
  6
CONTINUOUS
 62
    5
 10
1293.8913427610059
 20
1020.7579831123651
 11
1294.3913427610132
 21
1020.7579831123651
  0
LINE
  8
_0-0_
  6
CONTINUOUS
 62
    5
 10
1294.3913427610132
 20
1020.7579831123651
 11
1294.3913427610132
 21
1035.7579831123651
  0
LINE
  8
_0-0_
  6
CONTINUOUS
 62
    5
 10
1294.3913427610132
 20
1035.7579831123651
 11
1293.8913427610132
 21
1035.7579831123651
  0
LINE
  8
_0-0_
  6
CONTINUOUS
 62
    5
 10
1293.8913427610132
 20
1035.7579831123651
 11
1293.8913427610132
 21
1038.7579831123651
  0
LINE
  8
_0-0_
  6
CONTINUOUS
 62
    5
 10
1293.8913427610132
 20
1038.7579831123651
 11
1294.8913427610132
 21
1038.7579831123651
  0
LINE
  8
_0-0_
  6
CONTINUOUS
 62
    5
 10
1294.8913427610132
 20
1038.7579831123651
 11
1295.3913427610132
 21
1038.2579831123651
  0
LINE
  8
_0-0_
  6
CONTINUOUS
 62
    5
 10
1295.3913427610132
 20
1038.2579831123651
 11
1307.8913427610132
 21
1038.2579831123651
  0
LINE
  8
_0-0_
  6
CONTINUOUS
 62
    5
 10
1307.8913427610132
 20
1038.2579831123651
 11
1320.3913427610132
 21
1038.2579831123651
  0
LINE
  8
_0-0_
  6
CONTINUOUS
 62
    5
 10
1318.8913427610132
 20
1036.7579831123651
 11
1318.8913427610132
 21
1035.7579831123651
  0
LINE
  8
_0-0_
  6
CONTINUOUS
 62
    5
 10
1318.8913427610132
 20
1035.7579831123651
 11
1316.8913427610132
 21
1035.7579831123651
  0
LINE
  8
_0-0_
  6
CONTINUOUS
 62
    5
 10
1316.8913427610132
 20
1035.7579831123651
 11
1316.8913427610132
 21
1035.2579831123651
  0
LINE
  8
_0-0_
  6
CONTINUOUS
 62
    5
 10
1316.8913427610132
 20
1035.2579831123651
 11
1318.8913427610132
 21
1035.2579831123651
  0
LINE
  8
_0-0_
  6
CONTINUOUS
 62
    5
 10
1318.8913427610132
 20
1035.2579831123651
 11
1318.8913427610132
 21
1023.7579831123651
  0
LINE
  8
_0-0_
  6
CONTINUOUS
 62
    5
 10
1318.8913427610132
 20
1023.7579831123651
 11
1318.3913427610132
 21
1023.7579831123651
  0
LINE
  8
_0-0_
  6
CONTINUOUS
 62
    5
 10
1318.3913427610132
 20
1023.7579831123651
 11
1318.8913427610132
 21
1022.7579831123651
  0
LINE
  8
_0-0_
  6
CONTINUOUS
 62
    5
 10
1318.8913427610132
 20
1022.7579831123651
 11
1318.8913427610132
 21
1009.7579831123651
  0
LINE
  8
_0-0_
  6
CONTINUOUS
 62
    5
 10
1318.8913427610132
 20
1009.7579831123651
 11
1318.3913427610132
 21
1009.7579831123651
  0
LINE
  8
_0-0_
  6
CONTINUOUS
 62
    5
 10
1318.3913427610132
 20
1009.7579831123651
 11
1318.8913427610132
 21
1008.7579831123651
  0
LINE
  8
_0-0_
  6
CONTINUOUS
 62
    5
 10
1318.8913427610132
 20
1008.7579831123651
 11
1319.8913427610132
 21
1008.7579831123651
  0
LINE
  8
_0-0_
  6
CONTINUOUS
 62
    5
 10
1319.8913427610132
 20
1008.7579831123651
 11
1319.8913427610132
 21
1035.2579831123651
  0
LINE
  8
_0-0_
  6
CONTINUOUS
 62
    5
 10
1319.8913427610132
 20
1035.2579831123651
 11
1320.3913427610132
 21
1035.2579831123651
  0
LINE
  8
_0-0_
  6
CONTINUOUS
 62
    5
 10
1320.3913427610132
 20
1035.2579831123651
 11
1320.3913427610132
 21
1037.2579831123651
  0
LINE
  8
_0-0_
  6
CONTINUOUS
 62
    5
 10
1320.3913427610132
 20
1037.2579831123651
 11
1295.3913427610132
 21
1037.2579831123651
  0
LINE
  8
_0-0_
  6
CONTINUOUS
 62
    5
 10
1295.3913427610132
 20
1037.2579831123651
 11
1295.3913427610132
 21
1035.2579831123651
  0
LINE
  8
_0-0_
  6
CONTINUOUS
 62
    5
 10
1295.3913427610132
 20
1035.2579831123651
 11
1295.8913427610132
 21
1035.2579831123651
  0
LINE
  8
_0-0_
  6
CONTINUOUS
 62
    5
 10
1295.8913427610132
 20
1035.2579831123651
 11
1295.8913427610132
 21
1008.7579831123651
  0
LINE
  8
_0-0_
  6
CONTINUOUS
 62
    5
 10
1295.8913427610132
 20
1008.7579831123651
 11
1296.8913427610132
 21
1008.7579831123651
  0
LINE
  8
_0-0_
  6
CONTINUOUS
 62
    5
 10
1296.8913427610132
 20
1008.7579831123651
 11
1297.3913427610132
 21
1009.7579831123651
  0
LINE
  8
_0-0_
  6
CONTINUOUS
 62
    5
 10
1297.3913427610132
 20
1009.7579831123651
 11
1296.8913427610132
 21
1009.7579831123651
  0
LINE
  8
_0-0_
  6
CONTINUOUS
 62
    5
 10
1296.8913427610132
 20
1009.7579831123651
 11
1296.8913427610132
 21
1022.7579831123651
  0
LINE
  8
_0-0_
  6
CONTINUOUS
 62
    5
 10
1296.8913427610132
 20
1022.7579831123651
 11
1297.3913427610132
 21
1023.7579831123651
  0
LINE
  8
_0-0_
  6
CONTINUOUS
 62
    5
 10
1297.3913427610132
 20
1023.7579831123651
 11
1296.8913427610132
 21
1023.7579831123651
  0
LINE
  8
_0-0_
  6
CONTINUOUS
 62
    5
 10
1296.8913427610132
 20
1023.7579831123651
 11
1296.8913427610132
 21
1035.2579831123651
  0
LINE
  8
_0-0_
  6
CONTINUOUS
 62
    5
 10
1296.8913427610132
 20
1035.2579831123651
 11
1298.8913427610132
 21
1035.2579831123651
  0
LINE
  8
_0-0_
  6
CONTINUOUS
 62
    5
 10
1298.8913427610132
 20
1035.2579831123651
 11
1298.8913427610132
 21
1035.7579831123651
  0
LINE
  8
_0-0_
  6
CONTINUOUS
 62
    5
 10
1298.8913427610132
 20
1035.7579831123651
 11
1296.8913427610132
 21
1035.7579831123651
  0
LINE
  8
_0-0_
  6
CONTINUOUS
 62
    5
 10
1296.8913427610132
 20
1035.7579831123651
 11
1296.8913427610132
 21
1036.7579831123651
  0
LINE
  8
_0-0_
  6
CONTINUOUS
 62
    5
 10
1296.8913427610132
 20
1036.7579831123651
 11
1318.8913427610132
 21
1036.7579831123651
  0
LINE
  8
_0-0_
  6
CONTINUOUS
 62
    5
 10
1297.8913427610132
 20
958.75798311236508
 11
1297.8913427610132
 21
1035.2579831123651
  0
LINE
  8
_0-0_
  6
CONTINUOUS
 62
    5
 10
1297.8913427610132
 20
1035.2579831123651
 11
1317.8913427610132
 21
1035.2579831123651
  0
LINE
  8
_0-0_
  6
CONTINUOUS
 62
    5
 10
1317.8913427610132
 20
1035.2579831123651
 11
1317.8913427610132
 21
958.75798311236508
  0
LINE
  8
_0-0_
  6
CONTINUOUS
 62
    7
 10
1157.8998301820866
 20
977.98798882151209
 11
1177.1298358912318
 21
958.75798311236326
  0
LINE
  8
_0-0_
  6
CONTINUOUS
 62
    7
 10
1157.8998301820866
 20
970.91692100964542
 11
1170.0587680793651
 21
958.75798311236508
  0
LINE
  8
_0-0_
  6
CONTINUOUS
 62
    7
 10
1157.8998301820866
 20
963.84585319778239
 11
1162.9877002675021
 21
958.75798311236508
  0
LINE
  8
_0-0_
  6
CONTINUOUS
 62
    5
 10
1157.8998301820866
 20
1038.7579831123651
 11
1137.8998301820866
 21
1038.7579831123651
  0
LINE
  8
_0-0_
  6
CONTINUOUS
 62
    5
 10
1137.8998301820866
 20
963.18786501072941
 11
1142.3297120804491
 21
958.75798311236326
  0
LINE
  8
_0-0_
  6
CONTINUOUS
 62
    5
 10
1137.8998301820866
 20
968.84471926022275
 11
1147.9865663299424
 21
958.75798311236508
  0
LINE
  8
_0-0_
  6
CONTINUOUS
 62
    5
 10
1137.8998301820866
 20
974.50157350971608
 11
1153.6434205794358
 21
958.75798311236508
  0
LINE
  8
_0-0_
  6
CONTINUOUS
 62
    5
 10
1137.8998301820866
 20
980.15842775920942
 11
1157.8998301820866
 21
960.15842775920942
  0
LINE
  8
_0-0_
  6
CONTINUOUS
 62
    5
 10
1137.8998301820866
 20
985.81528200870093
 11
1157.8998301820866
 21
965.81528200870093
  0
LINE
  8
_0-0_
  6
CONTINUOUS
 62
    5
 10
1137.8998301820866
 20
991.47213625819245
 11
1157.8998301820866
 21
971.47213625819245
  0
LINE
  8
_0-0_
  6
CONTINUOUS
 62
    5
 10
1137.8998301820866
 20
997.12899050768578
 11
1157.8998301820866
 21
977.12899050768578
  0
LINE
  8
_0-0_
  6
CONTINUOUS
 62
    5
 10
1137.8998301820866
 20
1002.7858447571773
 11
1157.8998301820866
 21
982.7858447571773
  0
LINE
  8
_0-0_
  6
CONTINUOUS
 62
    5
 10
1137.8998301820866
 20
1008.4426990066688
 11
1157.8998301820866
 21
988.44269900666882
  0
LINE
  8
_0-0_
  6
CONTINUOUS
 62
    5
 10
1137.8998301820866
 20
1014.0995532561603
 11
1157.8998301820866
 21
994.09955325616215
  0
LINE
  8
_0-0_
  6
CONTINUOUS
 62
    5
 10
1137.8998301820866
 20
1019.7564075056555
 11
1157.8998301820866
 21
999.75640750565367
  0
LINE
  8
_0-0_
  6
CONTINUOUS
 62
    5
 10
1137.8998301820866
 20
1025.4132617551488
 11
1157.8998301820866
 21
1005.4132617551488
  0
LINE
  8
_0-0_
  6
CONTINUOUS
 62
    5
 10
1137.8998301820866
 20
1031.0701160046403
 11
1157.8998301820866
 21
1011.0701160046403
  0
LINE
  8
_0-0_
  6
CONTINUOUS
 62
    5
 10
1137.8998301820866
 20
1036.7269702541319
 11
1157.8998301820866
 21
1016.7269702541319
  0
LINE
  8
_0-0_
  6
CONTINUOUS
 62
    5
 10
1141.5256715733449
 20
1038.7579831123651
 11
1157.8998301820866
 21
1022.3838245036234
  0
LINE
  8
_0-0_
  6
CONTINUOUS
 62
    5
 10
1147.1825258228346
 20
1038.7579831123651
 11
1157.8998301820866
 21
1028.0406787531149
  0
LINE
  8
_0-0_
  6
CONTINUOUS
 62
    5
 10
1152.8393800723279
 20
1038.7579831123651
 11
1157.8998301820866
 21
1033.6975330026082
  0
LINE
  8
_0-0_
  6
CONTINUOUS
 62
    5
 10
1157.8998301820866
 20
1038.7579831123651
 11
1157.8998301820866
 21
958.75798311236508
  0
LINE
  8
_0-0_
  6
CONTINUOUS
 62
    6
 10
1137.899830182083
 20
949.2312924208029
 11
1145.426520873647
 21
956.75798311236508
  0
LINE
  8
_0-0_
  6
CONTINUOUS
 62
    6
 10
1137.899830182083
 20
935.08915679707138
 11
1159.5686564973767
 21
956.75798311236508
  0
LINE
  8
_0-0_
  6
CONTINUOUS
 62
    6
 10
1138.7107921211064
 20
921.75798311236326
 11
1173.7107921211064
 21
956.75798311236326
  0
LINE
  8
_0-0_
  6
CONTINUOUS
 62
    6
 10
1152.8529277448397
 20
921.75798311236508
 11
1187.8529277448397
 21
956.75798311236508
  0
LINE
  8
_0-0_
  6
CONTINUOUS
 62
    6
 10
1166.995063368573
 20
921.75798311236508
 11
1201.995063368573
 21
956.75798311236508
  0
LINE
  8
_0-0_
  6
CONTINUOUS
 62
    6
 10
1181.1371989922991
 20
921.75798311236508
 11
1216.1371989922991
 21
956.75798311236326
  0
LINE
  8
_0-0_
  6
CONTINUOUS
 62
    6
 10
1195.2793346160324
 20
921.75798311236508
 11
1230.2793346160324
 21
956.75798311236508
  0
LINE
  8
_0-0_
  6
CONTINUOUS
 62
    6
 10
1209.4214702397621
 20
921.75798311236508
 11
1244.4214702397621
 21
956.75798311236508
  0
LINE
  8
_0-0_
  6
CONTINUOUS
 62
    6
 10
1223.5636058634918
 20
921.75798311236326
 11
1258.5636058634918
 21
956.75798311236508
  0
LINE
  8
_0-0_
  6
CONTINUOUS
 62
    6
 10
1237.7057414872252
 20
921.75798311236508
 11
1272.7057414872252
 21
956.75798311236508
  0
LINE
  8
_0-0_
  6
CONTINUOUS
 62
    6
 10
1251.8478771109585
 20
921.75798311236508
 11
1286.8478771109585
 21
956.75798311236508
  0
LINE
  8
_0-0_
  6
CONTINUOUS
 62
    6
 10
1265.9900127346846
 20
921.75798311236508
 11
1300.9900127346846
 21
956.75798311236326
  0
LINE
  8
_0-0_
  6
CONTINUOUS
 62
    6
 10
1280.1321483584179
 20
921.75798311236508
 11
1315.1321483584179
 21
956.75798311236508
  0
LINE
  8
_0-0_
  6
CONTINUOUS
 62
    6
 10
1294.2742839821476
 20
921.75798311236508
 11
1329.2742839821476
 21
956.75798311236508
  0
LINE
  8
_0-0_
  6
CONTINUOUS
 62
    6
 10
1308.4164196058773
 20
921.75798311236508
 11
1343.4164196058773
 21
956.75798311236508
  0
LINE
  8
_0-0_
  6
CONTINUOUS
 62
    6
 10
1322.5585552296106
 20
921.75798311236508
 11
1357.5585552296106
 21
956.75798311236508
  0
LINE
  8
_0-0_
  6
CONTINUOUS
 62
    6
 10
1336.700690853344
 20
921.75798311236508
 11
1371.700690853344
 21
956.75798311236508
  0
LINE
  8
_0-0_
  6
CONTINUOUS
 62
    6
 10
1350.84282647707
 20
921.75798311236326
 11
1385.84282647707
 21
956.75798311236326
  0
LINE
  8
_0-0_
  6
CONTINUOUS
 62
    6
 10
1364.9849621008034
 20
921.75798311236508
 11
1399.9849621008034
 21
956.75798311236508
  0
LINE
  8
_0-0_
  6
CONTINUOUS
 62
    6
 10
1379.1270977245331
 20
921.75798311236508
 11
1414.1270977245331
 21
956.75798311236508
  0
LINE
  8
_0-0_
  6
CONTINUOUS
 62
    6
 10
1393.2692333482628
 20
921.75798311236508
 11
1428.2692333482628
 21
956.75798311236326
  0
LINE
  8
_0-0_
  6
CONTINUOUS
 62
    6
 10
1407.4113689719961
 20
921.75798311236508
 11
1442.4113689719961
 21
956.75798311236508
  0
LINE
  8
_0-0_
  6
CONTINUOUS
 62
    6
 10
1414.6816321591177
 20
956.75798311236508
 11
1449.6816321591177
 21
921.75798311236508
  0
LINE
  8
_0-0_
  6
CONTINUOUS
 62
    6
 10
1400.539496535388
 20
956.75798311236508
 11
1435.539496535388
 21
921.75798311236508
  0
LINE
  8
_0-0_
  6
CONTINUOUS
 62
    6
 10
1386.3973609116547
 20
956.75798311236508
 11
1421.3973609116583
 21
921.75798311236508
  0
LINE
  8
_0-0_
  6
CONTINUOUS
 62
    6
 10
1372.255225287925
 20
956.75798311236508
 11
1407.255225287925
 21
921.75798311236508
  0
LINE
  8
_0-0_
  6
CONTINUOUS
 62
    6
 10
1358.1130896641953
 20
956.75798311236508
 11
1393.1130896641916
 21
921.75798311236508
  0
LINE
  8
_0-0_
  6
CONTINUOUS
 62
    6
 10
1343.9709540404656
 20
956.75798311236508
 11
1378.9709540404656
 21
921.75798311236508
  0
LINE
  8
_0-0_
  6
CONTINUOUS
 62
    6
 10
1329.8288184167322
 20
956.75798311236508
 11
1364.8288184167322
 21
921.75798311236508
  0
LINE
  8
_0-0_
  6
CONTINUOUS
 62
    6
 10
1315.6866827930025
 20
956.75798311236326
 11
1350.6866827930025
 21
921.75798311236508
  0
LINE
  8
_0-0_
  6
CONTINUOUS
 62
    6
 10
1301.5445471692692
 20
956.75798311236508
 11
1336.5445471692692
 21
921.75798311236508
  0
LINE
  8
_0-0_
  6
CONTINUOUS
 62
    6
 10
1287.4024115455395
 20
956.75798311236508
 11
1322.4024115455395
 21
921.75798311236508
  0
LINE
  8
_0-0_
  6
CONTINUOUS
 62
    6
 10
1273.2602759218098
 20
956.75798311236326
 11
1308.2602759218062
 21
921.75798311236508
  0
LINE
  8
_0-0_
  6
CONTINUOUS
 62
    6
 10
1259.1181402980801
 20
956.75798311236508
 11
1294.1181402980801
 21
921.75798311236508
  0
LINE
  8
_0-0_
  6
CONTINUOUS
 62
    6
 10
1244.9760046743468
 20
956.75798311236326
 11
1279.9760046743468
 21
921.75798311236326
  0
LINE
  8
_0-0_
  6
CONTINUOUS
 62
    6
 10
1230.8338690506171
 20
956.75798311236326
 11
1265.8338690506171
 21
921.75798311236326
  0
LINE
  8
_0-0_
  6
CONTINUOUS
 62
    6
 10
1216.6917334268837
 20
956.75798311236508
 11
1251.6917334268837
 21
921.75798311236508
  0
LINE
  8
_0-0_
  6
CONTINUOUS
 62
    6
 10
1202.549597803154
 20
956.75798311236326
 11
1237.549597803154
 21
921.75798311236326
  0
LINE
  8
_0-0_
  6
CONTINUOUS
 62
    6
 10
1188.4074621794243
 20
956.75798311236326
 11
1223.4074621794207
 21
921.75798311236508
  0
LINE
  8
_0-0_
  6
CONTINUOUS
 62
    6
 10
1174.2653265556946
 20
956.75798311236508
 11
1209.2653265556946
 21
921.75798311236508
  0
LINE
  8
_0-0_
  6
CONTINUOUS
 62
    6
 10
1160.1231909319613
 20
956.75798311236326
 11
1195.1231909319613
 21
921.75798311236326
  0
LINE
  8
_0-0_
  6
CONTINUOUS
 62
    6
 10
1145.9810553082316
 20
956.75798311236326
 11
1180.9810553082316
 21
921.75798311236326
  0
LINE
  8
_0-0_
  6
CONTINUOUS
 62
    6
 10
1137.8998301820866
 20
950.69707261477856
 11
1166.8389196844983
 21
921.75798311236508
  0
LINE
  8
_0-0_
  6
CONTINUOUS
 62
    6
 10
1137.899830182083
 20
936.55493699104886
 11
1152.6967840607686
 21
921.75798311236326
  0
LINE
  8
_0-0_
  6
CONTINUOUS
 62
    6
 10
1137.8998301820866
 20
922.41280136731734
 11
1138.5546484370352
 21
921.75798311236508
  0
LINE
  8
_0-0_
  6
CONTINUOUS
 62
    6
 10
1137.8998301820866
 20
956.75798311236508
 11
1137.8998301820866
 21
921.75798311236508
  0
TEXT
  8
_0-0_
 62
    7
 10
1542.9008149260408
 20
1065.6448478682662
 40
30
 41
1
 50
0
  1
防水層
  0
LINE
  8
_0-0_
  6
CONTINUOUS
 62
    7
 10
1445.0929145123264
 20
916.08612826659851
 11
1538.430894933299
 21
1077.7522526315909
  0
POINT
  8
_0-0_
 62
    7
 10
1445.0929145123264
 20
916.08612826659851
  0
LINE
  8
_0-0_
  6
CONTINUOUS
 62
    7
 10
1131.8998301820866
 20
911.75798311236508
 11
1453.03869791123
 21
911.75798311236508
  0
LINE
  8
_0-0_
  6
CONTINUOUS
 62
    4
 10
1137.8998301820866
 20
1211.1210388411484
 11
1137.8998301820866
 21
920.75798311236508
  0
LINE
  8
_0-0_
  6
CONTINUOUS
 62
    7
 10
1131.8998301820866
 20
1208.6357574669103
 11
1131.8998301820866
 21
911.75798311236508
  0
LINE
  8
_0-0_
  6
CONTINUOUS
 62
    7
 10
1331.8998301820866
 20
731.75798311236508
 11
1453.03869791123
 21
731.75798311236508
  0
LINE
  8
_0-0_
  6
CONTINUOUS
 62
    7
 10
1331.8998301820866
 20
731.75798311236508
 11
1331.8998301820866
 21
682.75798311236508
  0
LINE
  8
_0-0_
  6
CONTINUOUS
 62
    2
 10
942.58986266242221
 20
1270.2825816005636
 11
942.58986266242221
 21
682.75798311236508
  0
LINE
  8
_0-0_
  6
CONTINUOUS
 62
    2
 10
945.71486266242221
 20
1270.2825816005636
 11
945.71486266242221
 21
682.75798311236508
  0
LINE
  8
_0-0_
  6
CONTINUOUS
 62
    2
 10
948.83986266242221
 20
1270.2825816005636
 11
948.83986266242221
 21
682.75798311236508
  0
LINE
  8
_0-0_
  6
CONTINUOUS
 62
    7
 10
981.8998301820867
 20
1208.6357574669103
 11
981.8998301820867
 21
682.75798311236508
  0
LINE
  8
_0-0_
  6
CONTINUOUS
 62
    7
 10
988.56907805676758
 20
682.75798311236508
 11
1217.5690780567675
 21
911.75798311236508
  0
LINE
  8
_0-0_
  6
CONTINUOUS
 62
    7
 10
995.64014586863061
 20
682.75798311236508
 11
1224.6401458686305
 21
911.75798311236508
  0
LINE
  8
_0-0_
  6
CONTINUOUS
 62
    7
 10
1002.7112136804973
 20
682.75798311236508
 11
1231.7112136804935
 21
911.75798311236508
  0
LINE
  8
_0-0_
  6
CONTINUOUS
 62
    7
 10
1214.8432480364609
 20
682.75798311236508
 11
1443.8432480364609
 21
911.75798311236508
  0
LINE
  8
_0-0_
  6
CONTINUOUS
 62
    7
 10
1228.9853836601906
 20
682.75798311236508
 11
1453.03869791123
 21
906.81129736340631
  0
LINE
  8
_0-0_
  6
CONTINUOUS
 62
    7
 10
1221.9143158483275
 20
682.75798311236508
 11
1450.9143158483239
 21
911.75798311236508
  0
ARC
  8
_0-0_
  6
CONTINUOUS
 62
    7
 10
642.12162907481991
 20
1140.1864067368836
 40
372.40986757197703
 50
30.580973923580547
 51
53.700633007173963
  0
ARC
  8
_0-0_
  6
CONTINUOUS
 62
    7
 10
642.12162907481991
 20
1140.1864067368836
 40
367.40986757197703
 50
30.137066432173206
 51
53.125752717063492
  0
LINE
  8
_0-0_
  6
CONTINUOUS
 62
    7
 10
959.66532786150867
 20
1292.776250828095
 11
862.58986266242221
 21
1292.776250828095
  0
LINE
  8
_0-0_
  6
CONTINUOUS
 62
    7
 10
959.66532786150867
 20
1284.776250828095
 11
862.58986266242221
 21
1284.776250828095
  0
LINE
  8
_0-0_
  6
CONTINUOUS
 62
    7
 10
672.13606690525205
 20
567.53106997205509
 11
1706.8525777203668
 21
567.53106997205509
  0
LINE
  8
_0-0_
  6
CONTINUOUS
 62
    7
 10
1189.4943223128084
 20
167.53106997205509
 11
1189.4943223128084
 21
627.53106997205509
  0
TEXT
  8
_0-0_
 62
    7
 10
921.45028994483266
 20
578.0973168505127
 40
40
 41
1
 50
0
  1
Ａ
  0
TEXT
  8
_0-0_
 62
    7
 10
1426.9837863713292
 20
580.2303695780513
 40
40
 41
1
 50
0
  1
Ｂ
  0
LINE
  8
_0-0_
  6
CONTINUOUS
 62
    2
 10
983.15716209872346
 20
421.61168051709978
 11
984.53049367089091
 21
422.98501208926177
  0
LINE
  8
_0-0_
  6
CONTINUOUS
 62
    2
 10
983.15716209872346
 20
415.24771948642342
 11
986.85867095524748
 21
418.94922834293834
  0
LINE
  8
_0-0_
  6
CONTINUOUS
 62
    2
 10
983.15716209873074
 20
408.88375845574342
 11
989.76385547217808
 21
415.49045182919804
  0
LINE
  8
_0-0_
  6
CONTINUOUS
 62
    2
 10
983.15716209873074
 20
402.51979742506342
 11
993.21977173707103
 21
412.58240706340371
  0
LINE
  8
_0-0_
  6
CONTINUOUS
 62
    2
 10
983.15716209873074
 20
396.15583639438705
 11
997.25241496575484
 21
410.25108926140751
  0
LINE
  8
_0-0_
  6
CONTINUOUS
 62
    2
 10
983.15716209873074
 20
389.79187536370705
 11
1001.9542110305757
 21
408.58892429555567
  0
LINE
  8
_0-0_
  6
CONTINUOUS
 62
    2
 10
987.21872394869945
 20
387.4894761829994
 11
1007.5498828022265
 21
407.82063503652648
  0
LINE
  8
_0-0_
  6
CONTINUOUS
 62
    2
 10
1033.69408647624
 20
427.60087767985829
 11
1034.4888896636985
 21
428.39568086732038
  0
LINE
  8
_0-0_
  6
CONTINUOUS
 62
    2
 10
994.79471388473405
 20
388.70150508835582
 11
1014.6980650458428
 21
408.60485624946273
  0
LINE
  8
_0-0_
  6
CONTINUOUS
 62
    2
 10
1001.8061592924515
 20
389.34898946539147
 11
1034.4888896636985
 21
422.03171983663856
  0
LINE
  8
_0-0_
  6
CONTINUOUS
 62
    2
 10
1008.3830880740389
 20
389.5619572163007
 11
1034.4888896636985
 21
415.66775880596037
  0
LINE
  8
_0-0_
  6
CONTINUOUS
 62
    2
 10
1014.6029383119495
 20
389.41784642352945
 11
1034.4888896636985
 21
409.30379777527855
  0
LINE
  8
_0-0_
  6
CONTINUOUS
 62
    2
 10
1020.5154310936942
 20
388.96637817459418
 11
1034.4888896636985
 21
402.93983674460037
  0
LINE
  8
_0-0_
  6
CONTINUOUS
 62
    2
 10
1026.1538548908757
 20
388.24084094110481
 11
1034.4888896636985
 21
396.57587571392401
  0
LINE
  8
_0-0_
  6
CONTINUOUS
 62
    2
 10
1031.5408235226423
 20
387.26384854218963
 11
1034.4888896636985
 21
390.211914683244
  0
LINE
  8
_0-0_
  6
CONTINUOUS
 62
    2
 10
1034.4888896636985
 20
386.60432721160271
 11
1034.4888896636985
 21
386.60432721160271
  0
LINE
  8
_0-0_
  6
CONTINUOUS
 62
    2
 10
1034.4888896636985
 20
386.60432721160271
 11
1022.9276564665446
 21
388.69200765160588
  0
LINE
  8
_0-0_
  6
CONTINUOUS
 62
    2
 10
1022.9276564665446
 20
388.69200765160588
 11
1010.9378612063427
 21
389.54341928897202
  0
LINE
  8
_0-0_
  6
CONTINUOUS
 62
    2
 10
1010.9378612063427
 20
389.54341928897202
 11
998.88380774494533
 21
389.13269241193484
  0
LINE
  8
_0-0_
  6
CONTINUOUS
 62
    2
 10
998.88380774494533
 20
389.13269241193484
 11
987.13175239713121
 21
387.4723067488153
  0
LINE
  8
_0-0_
  6
CONTINUOUS
 62
    2
 10
987.13175239713121
 20
387.4723067488153
 11
983.15716209873074
 21
386.60432721160271
  0
CIRCLE
  8
_0-0_
  6
CONTINUOUS
 62
    7
 10
1008.2943741810069
 20
434.00456854469599
 40
26.194515482695333
  0
LINE
  8
_0-0_
  6
CONTINUOUS
 62
    7
 10
1034.4888896636985
 20
386.60432721159964
 11
1038.9888896636985
 21
386.60432721159964
  0
LINE
  8
_0-0_
  6
CONTINUOUS
 62
    7
 10
1038.9888896636985
 20
457.55729865750732
 11
1038.9888896636985
 21
386.60432721159964
  0
LINE
  8
_0-0_
  6
CONTINUOUS
 62
    7
 10
1034.4888896636985
 20
454.10432721159964
 11
1034.4888896636985
 21
386.60432721159964
  0
LINE
  8
_0-0_
  6
CONTINUOUS
 62
    7
 10
853.97048223858485
 20
502.47408870011282
 11
1034.4888896636985
 21
454.10432721159964
  0
LINE
  8
_0-0_
  6
CONTINUOUS
 62
    7
 10
849.47048223858485
 20
467.41050395033858
 11
826.97048223858485
 21
467.41050395033858
  0
LINE
  8
_0-0_
  6
CONTINUOUS
 62
    7
 10
826.97048223858485
 20
467.41050395033858
 11
826.97048223858485
 21
462.91050395033858
  0
LINE
  8
_0-0_
  6
CONTINUOUS
 62
    7
 10
849.47048223858485
 20
503.67986006605247
 11
849.47048223858485
 21
467.41050395033858
  0
LINE
  8
_0-0_
  6
CONTINUOUS
 62
    7
 10
853.97048223858485
 20
502.47408870011282
 11
853.97048223858485
 21
462.91050395033858
  0
LINE
  8
_0-0_
  6
CONTINUOUS
 62
    7
 10
826.97048223858485
 20
462.91050395033858
 11
853.97048223858485
 21
462.91050395033858
  0
LINE
  8
_0-0_
  6
CONTINUOUS
 62
    7
 10
873.96738389558425
 20
462.91050395033858
 11
873.96738389558425
 21
458.41050395033858
  0
LINE
  8
_0-0_
  6
CONTINUOUS
 62
    7
 10
945.79230823368573
 20
444.91050395033858
 11
969.65716209873074
 21
421.04565008529175
  0
LINE
  8
_0-0_
  6
CONTINUOUS
 62
    4
 10
951.38419132572574
 20
458.41050395033858
 11
983.15716209873074
 21
426.63753317732812
  0
LINE
  8
_0-0_
  6
CONTINUOUS
 62
    7
 10
771.83518774891502
 20
524.48217452871108
 11
849.47048223858485
 21
503.67986006605247
  0
LINE
  8
_0-0_
  6
CONTINUOUS
 62
    7
 10
771.83518774891502
 20
529.14091734055842
 11
1038.9888896636985
 21
457.55729865750732
  0
LINE
  8
_0-0_
  6
CONTINUOUS
 62
    4
 10
771.83518774891502
 20
458.41050395033858
 11
951.38419132572574
 21
458.41050395033858
  0
LINE
  8
_0-0_
  6
CONTINUOUS
 62
    7
 10
771.83518774891502
 20
462.91050395033858
 11
873.96738389558425
 21
462.91050395033858
  0
LINE
  8
_0-0_
  6
CONTINUOUS
 62
    7
 10
771.83518774891502
 20
444.91050395033858
 11
945.79230823368573
 21
444.91050395033858
  0
LINE
  8
_0-0_
  6
CONTINUOUS
 62
    7
 10
771.83518774891502
 20
380.72664062834451
 11
836.01905107090363
 21
444.91050395033312
  0
LINE
  8
_0-0_
  6
CONTINUOUS
 62
    7
 10
771.83518774891502
 20
364.81673805165269
 11
851.92895364759545
 21
444.91050395033312
  0
LINE
  8
_0-0_
  6
CONTINUOUS
 62
    7
 10
771.83518774891502
 20
348.9068354749536
 11
867.83885622429455
 21
444.91050395033312
  0
LINE
  8
_0-0_
  6
CONTINUOUS
 62
    7
 10
969.65716209873074
 20
421.04565008529175
 11
969.65716209873074
 21
208.2091362219137
  0
LINE
  8
_0-0_
  6
CONTINUOUS
 62
    4
 10
983.15716209873074
 20
426.63753317732812
 11
983.15716209873074
 21
208.2091362219137
  0
LINE
  8
_0-0_
  6
CONTINUOUS
 62
    7
 10
1006.7200602191953
 20
401.00961087578003
 11
1047.1013463078616
 21
331.06717169523586
  0
TEXT
  8
_0-0_
 62
    7
 10
1050.1452709311961
 20
313.83117134754798
 40
21.617968000000001
 41
1
 50
0
  1
ｼｰﾘﾝｸﾞ
  0
POINT
  8
_0-0_
 62
    7
 10
1006.7200602191953
 20
401.00961087578003
  0
LINE
  8
_0-0_
  6
CONTINUOUS
 62
    7
 10
1008.5423448890252
 20
428.50541748474393
 11
1048.7196983677732
 21
498.09463502358926
  0
POINT
  8
_0-0_
 62
    7
 10
1008.5423448890252
 20
428.50541748474393
  0
TEXT
  8
_0-0_
 62
    7
 10
1052.1912722538964
 20
491.79636216381118
 40
21.617968000000001
 41
1
 50
0
  1
ﾊﾞｯｸｱｯﾌﾟ材
  0
LINE
  8
_0-0_
  6
CONTINUOUS
 62
    7
 10
1605.9389126226088
 20
502.03980130456625
 11
1254.9580093200238
 21
502.03980130456625
  0
LINE
  8
_0-0_
  6
CONTINUOUS
 62
    6
 10
1254.9580093200238
 20
317.53980130456625
 11
1254.9580093200238
 21
238.78980130456625
  0
LINE
  8
_0-0_
  6
CONTINUOUS
 62
    6
 10
1254.9580093200238
 20
240.26314237820884
 11
1256.4313503936592
 21
238.78980130456625
  0
LINE
  8
_0-0_
  6
CONTINUOUS
 62
    6
 10
1254.9580093200148
 20
272.08294753160521
 11
1288.2511555470574
 21
238.78980130456262
  0
LINE
  8
_0-0_
  6
CONTINUOUS
 62
    6
 10
1254.9580093200238
 20
303.90275268499613
 11
1320.0709607004501
 21
238.78980130456625
  0
LINE
  8
_0-0_
  6
CONTINUOUS
 62
    6
 10
1273.1407658538501
 20
317.53980130456262
 11
1351.8907658538501
 21
238.78980130456262
  0
LINE
  8
_0-0_
  6
CONTINUOUS
 62
    6
 10
1304.960571007241
 20
317.53980130456262
 11
1383.710571007241
 21
238.78980130456262
  0
LINE
  8
_0-0_
  6
CONTINUOUS
 62
    6
 10
1336.7803761606428
 20
317.53980130456625
 11
1415.5303761606428
 21
238.78980130456625
  0
LINE
  8
_0-0_
  6
CONTINUOUS
 62
    6
 10
1368.6001813140338
 20
317.53980130456262
 11
1447.3501813140265
 21
238.78980130456625
  0
LINE
  8
_0-0_
  6
CONTINUOUS
 62
    6
 10
1400.4199864674247
 20
317.53980130456262
 11
1479.1699864674247
 21
238.78980130456262
  0
LINE
  8
_0-0_
  6
CONTINUOUS
 62
    6
 10
1432.2397916208174
 20
317.53980130456625
 11
1510.9897916208174
 21
238.78980130456625
  0
LINE
  8
_0-0_
  6
CONTINUOUS
 62
    6
 10
1464.0595967742174
 20
317.53980130456262
 11
1542.8095967742174
 21
238.78980130456262
  0
LINE
  8
_0-0_
  6
CONTINUOUS
 62
    6
 10
1495.8794019276083
 20
317.53980130456262
 11
1574.6294019276083
 21
238.78980130456262
  0
LINE
  8
_0-0_
  6
CONTINUOUS
 62
    6
 10
1511.3411149099866
 20
238.78980130456625
 11
1590.0911149099866
 21
317.53980130456625
  0
LINE
  8
_0-0_
  6
CONTINUOUS
 62
    6
 10
1479.5213097565847
 20
238.78980130456625
 11
1558.2713097565847
 21
317.53980130456625
  0
LINE
  8
_0-0_
  6
CONTINUOUS
 62
    6
 10
1447.7015046031865
 20
238.78980130456262
 11
1526.4515046031865
 21
317.53980130456625
  0
LINE
  8
_0-0_
  6
CONTINUOUS
 62
    6
 10
1415.8816994497938
 20
238.78980130456625
 11
1494.6316994497938
 21
317.53980130456625
  0
LINE
  8
_0-0_
  6
CONTINUOUS
 62
    6
 10
1384.0618942964011
 20
238.78980130456625
 11
1462.8118942964011
 21
317.53980130456625
  0
LINE
  8
_0-0_
  6
CONTINUOUS
 62
    6
 10
1352.2420891430029
 20
238.78980130456625
 11
1430.9920891430029
 21
317.53980130456262
  0
LINE
  8
_0-0_
  6
CONTINUOUS
 62
    6
 10
1320.4222839896192
 20
238.78980130456625
 11
1399.1722839896192
 21
317.53980130456625
  0
LINE
  8
_0-0_
  6
CONTINUOUS
 62
    6
 10
1288.6024788362174
 20
238.78980130456625
 11
1367.3524788362174
 21
317.53980130456625
  0
LINE
  8
_0-0_
  6
CONTINUOUS
 62
    6
 10
1256.7826736828192
 20
238.78980130456262
 11
1335.5326736828192
 21
317.53980130456262
  0
LINE
  8
_0-0_
  6
CONTINUOUS
 62
    6
 10
1254.9580093200148
 20
268.78494209515634
 11
1303.7128685294265
 21
317.53980130456625
  0
LINE
  8
_0-0_
  6
CONTINUOUS
 62
    6
 10
1254.9580093200148
 20
300.60474724855089
 11
1271.8930633760338
 21
317.53980130456625
  0
LINE
  8
_0-0_
  6
CONTINUOUS
 62
    5
 10
1299.9580093200238
 20
502.03980130456625
 11
1299.9580093200238
 21
322.03980130456625
  0
LINE
  8
_0-0_
  6
CONTINUOUS
 62
    5
 10
1288.5719965730659
 20
502.03980130456625
 11
1299.9580093200238
 21
490.65378855761378
  0
LINE
  8
_0-0_
  6
CONTINUOUS
 62
    5
 10
1275.8440745117059
 20
502.03980130456443
 11
1299.9580093200238
 21
477.92586649625378
  0
LINE
  8
_0-0_
  6
CONTINUOUS
 62
    5
 10
1263.116152450355
 20
502.03980130456625
 11
1299.9580093200238
 21
465.19794443489559
  0
LINE
  8
_0-0_
  6
CONTINUOUS
 62
    5
 10
1254.9580093200238
 20
497.47002237354286
 11
1299.9580093200238
 21
452.47002237354286
  0
LINE
  8
_0-0_
  6
CONTINUOUS
 62
    5
 10
1254.9580093200238
 20
484.74210031218649
 11
1299.9580093200238
 21
439.74210031218649
  0
LINE
  8
_0-0_
  6
CONTINUOUS
 62
    5
 10
1254.9580093200238
 20
472.01417825083013
 11
1299.9580093200238
 21
427.01417825083013
  0
LINE
  8
_0-0_
  6
CONTINUOUS
 62
    5
 10
1254.9580093200238
 20
459.28625618947012
 11
1299.9580093200238
 21
414.28625618946649
  0
LINE
  8
_0-0_
  6
CONTINUOUS
 62
    5
 10
1254.9580093200238
 20
446.5583341281083
 11
1299.9580093200238
 21
401.55833412811012
  0
LINE
  8
_0-0_
  6
CONTINUOUS
 62
    5
 10
1254.9580093200238
 20
433.83041206675011
 11
1299.9580093200238
 21
388.83041206675011
  0
LINE
  8
_0-0_
  6
CONTINUOUS
 62
    5
 10
1254.9580093200238
 20
421.10249000539193
 11
1299.9580093200238
 21
376.10249000539375
  0
LINE
  8
_0-0_
  6
CONTINUOUS
 62
    5
 10
1254.9580093200238
 20
408.37456794403738
 11
1299.9580093200238
 21
363.3745679440392
  0
LINE
  8
_0-0_
  6
CONTINUOUS
 62
    5
 10
1254.9580093200238
 20
395.64664588267738
 11
1299.9580093200238
 21
350.64664588267919
  0
LINE
  8
_0-0_
  6
CONTINUOUS
 62
    5
 10
1254.9580093200238
 20
382.91872382132283
 11
1299.9580093200238
 21
337.91872382132283
  0
LINE
  8
_0-0_
  6
CONTINUOUS
 62
    5
 10
1254.9580093200238
 20
370.19080175996646
 11
1299.9580093200238
 21
325.19080175996646
  0
LINE
  8
_0-0_
  6
CONTINUOUS
 62
    5
 10
1254.9580093200238
 20
357.46287969860646
 11
1290.3810877140586
 21
322.03980130456625
  0
LINE
  8
_0-0_
  6
CONTINUOUS
 62
    5
 10
1254.9580093200238
 20
344.73495763724645
 11
1277.6531656526986
 21
322.03980130456625
  0
LINE
  8
_0-0_
  6
CONTINUOUS
 62
    5
 10
1254.9580093200238
 20
332.00703557588645
 11
1264.9252435913386
 21
322.03980130456262
  0
LINE
  8
_0-0_
  6
CONTINUOUS
 62
    5
 10
1299.9580093200238
 20
502.03980130456625
 11
1254.9580093200238
 21
502.03980130456625
  0
LINE
  8
_0-0_
  6
CONTINUOUS
 62
    7
 10
1241.4580093200238
 20
216.28980130456625
 11
1241.4580093200238
 21
522.03980130456625
  0
LINE
  8
_0-0_
  6
CONTINUOUS
 62
    4
 10
1254.9580093200238
 20
522.03980130456625
 11
1254.9580093200238
 21
236.53980130456625
  0
LINE
  8
_0-0_
  6
CONTINUOUS
 62
    7
 10
1201.4580093200238
 20
416.90936551598429
 11
1241.4580093200238
 21
456.90936551598429
  0
LINE
  8
_0-0_
  6
CONTINUOUS
 62
    7
 10
1201.4580093200238
 20
400.99946293928519
 11
1241.4580093200238
 21
440.99946293928519
  0
LINE
  8
_0-0_
  6
CONTINUOUS
 62
    7
 10
1201.4580093200238
 20
385.08956036258792
 11
1241.4580093200238
 21
425.08956036258792
  0
LINE
  8
_0-0_
  6
CONTINUOUS
 62
    7
 10
1469.9553275629187
 20
176.28980130456625
 11
1509.9553275629205
 21
216.28980130456807
  0
LINE
  8
_0-0_
  6
CONTINUOUS
 62
    7
 10
1485.8652301396178
 20
176.28980130456625
 11
1525.8652301396178
 21
216.28980130456625
  0
LINE
  8
_0-0_
  6
CONTINUOUS
 62
    7
 10
1501.7751327163169
 20
176.28980130456625
 11
1541.7751327163169
 21
216.28980130456625
  0
LINE
  8
_0-0_
  6
CONTINUOUS
 62
    7
 10
1299.9580093200238
 20
457.17989711407358
 11
1435.0981051295348
 21
322.03980130456262
  0
LINE
  8
_0-0_
  6
CONTINUOUS
 62
    7
 10
1299.9580093200202
 20
473.0897996907745
 11
1451.0080077062339
 21
322.0398013045608
  0
LINE
  8
_0-0_
  6
CONTINUOUS
 62
    7
 10
1299.9580093200238
 20
488.99970226746814
 11
1466.9179102829294
 21
322.03980130456262
  0
LINE
  8
_0-0_
  6
CONTINUOUS
 62
    7
 10
1241.4580093200238
 20
216.28980130456625
 11
1605.9389126226088
 21
216.28980130456625
  0
LINE
  8
_0-0_
  6
CONTINUOUS
 62
    6
 10
1559.5190122344011
 20
317.53980130456262
 11
1605.9389126226088
 21
271.11990091635312
  0
LINE
  8
_0-0_
  6
CONTINUOUS
 62
    6
 10
1574.9807252167684
 20
238.78980130456625
 11
1605.9389126226088
 21
269.74798871040662
  0
LINE
  8
_0-0_
  6
CONTINUOUS
 62
    6
 10
1254.9580093200238
 20
238.78980130456625
 11
1605.9389126226088
 21
238.78980130456625
  0
LINE
  8
_0-0_
  6
CONTINUOUS
 62
    6
 10
1527.6992070810102
 20
317.53980130456625
 11
1605.9389126226088
 21
239.30009576296766
  0
LINE
  8
_0-0_
  6
CONTINUOUS
 62
    4
 10
1254.9580093200238
 20
236.53980130456625
 11
1605.9389126226088
 21
236.53980130456625
  0
LINE
  8
_0-0_
  6
CONTINUOUS
 62
    6
 10
1543.1609200633702
 20
238.78980130456625
 11
1605.9389126226088
 21
301.56779386380117
  0
LINE
  8
_0-0_
  6
CONTINUOUS
 62
    6
 10
1591.338817387792
 20
317.53980130456625
 11
1605.9389126226088
 21
302.93970606974949
  0
LINE
  8
_0-0_
  6
CONTINUOUS
 62
    6
 10
1254.9580093200238
 20
317.53980130456625
 11
1605.9389126226088
 21
317.53980130456625
  0
LINE
  8
_0-0_
  6
CONTINUOUS
 62
    5
 10
1254.9580093200238
 20
319.78980130456262
 11
1605.9389126226088
 21
319.78980130456262
  0
LINE
  8
_0-0_
  6
CONTINUOUS
 62
    7
 10
1254.9580093200238
 20
322.03980130456262
 11
1605.9389126226088
 21
322.03980130456262
  0
LINE
  8
_0-0_
  6
CONTINUOUS
 62
    7
 10
1580.4412313683315
 20
216.28980130456625
 11
1623.2393413116042
 21
290.41830219423287
  0
POINT
  8
_0-0_
 62
    7
 10
1580.4412313683315
 20
216.28980130456625
  0
TEXT
  8
_0-0_
 62
    7
 10
1268.3303244215513
 20
537.00669676662187
 40
21.617968000000001
 41
1
 50
0
  1
ﾄｯﾌﾟｺｰﾄ(露出部のみ)
  0
LINE
  8
_0-0_
  6
CONTINUOUS
 62
    7
 10
1517.2820979556
 20
237.76307620412013
 11
1586.4842200639832
 21
357.62466768742638
  0
POINT
  8
_0-0_
 62
    7
 10
1517.2820979556
 20
237.76307620412013
  0
TEXT
  8
_0-0_
 62
    7
 10
1517.9574236994758
 20
509.97148415834749
 40
21.617968000000001
 41
1
 50
0
  1
保護ｺﾝｸﾘｰﾄ
  0
LINE
  8
_0-0_
  6
CONTINUOUS
 62
    7
 10
1485.1759481492045
 20
319.78980130456262
 11
1530.9692999527797
 21
399.10621327723243
  0
POINT
  8
_0-0_
 62
    7
 10
1485.1759481492045
 20
319.78980130456262
  0
TEXT
  8
_0-0_
 62
    7
 10
1366.0469260225473
 20
508.20508302256826
 40
21.617968000000001
 41
1
 50
0
  1
成型緩衝材
  0
LINE
  8
_0-0_
  6
CONTINUOUS
 62
    7
 10
1464.0821890582392
 20
433.13303475199359
 11
1514.074774017965
 21
519.7227319039423
  0
POINT
  8
_0-0_
 62
    7
 10
1464.0821890582392
 20
433.13303475199359
  0
TEXT
  8
_0-0_
 62
    7
 10
1533.4085617766013
 20
390.05525769025667
 40
21.617968000000001
 41
1
 50
0
  1
絶縁ﾌｨﾙﾑ
  0
TEXT
  8
_0-0_
 62
    7
 10
1590.5968343164659
 20
350.90310145236913
 40
21.617968000000001
 41
1
 50
0
  1
ｳﾚﾀﾝ防水
  0
LINE
  8
_0-0_
  6
CONTINUOUS
 62
    7
 10
1364.9602705467678
 20
517.86872235720989
 11
1291.8910059679092
 21
391.30904363493323
  0
POINT
  8
_0-0_
 62
    7
 10
1291.8910059679092
 20
391.30904363493323
  0
LINE
  8
_0-0_
  6
CONTINUOUS
 62
    7
 10
1254.9580093200238
 20
513.16008699563758
 11
1268.6865494945341
 21
536.93861609163946
  0
TEXT
  8
_0-0_
 62
    7
 10
1625.857951730768
 20
282.1653933856353
 40
21.617968000000001
 41
1
 50
0
  1
ﾌﾟﾗｲﾏｰ
  0
POINT
  8
_0-0_
 62
    7
 10
1254.9580093200238
 20
513.16008699563758
  0
LINE
  8
_0-0_
  6
CONTINUOUS
 62
    7
 10
672.13606690525205
 20
1633.3565543671132
 11
1706.8525777203668
 21
1633.3565543671132
  0
LINE
  8
_0-0_
  6
CONTINUOUS
 62
    7
 10
672.13606690525205
 20
1553.3565543671132
 11
1706.8525777203668
 21
1553.3565543671132
  0
LINE
  8
_0-0_
  6
CONTINUOUS
 62
    7
 10
672.13606690525205
 20
1473.3565543671132
 11
1706.8525777203668
 21
1473.3565543671132
  0
LINE
  8
_0-0_
  6
CONTINUOUS
 62
    7
 10
1189.4943223128103
 20
1633.3565543671132
 11
1189.4943223128103
 21
1473.3565543671132
  0
TEXT
  8
_0-0_
 62
    7
 10
696.13606690525023
 20
1497.3565543671132
 40
20
 41
1
 50
0
  1
施工部位：トップライト
  0
TEXT
  8
_0-0_
 62
    7
 10
1213.4943223128103
 20
1577.3565543671132
 40
20
 41
1
 50
0
  1
構造：ＲＣ造
  0
TEXT
  8
_0-0_
 62
    7
 10
1213.4943223128103
 20
1497.3565543671132
 40
20
 41
1
 50
0
  1
下地：コンクリートスラブ
  0
TEXT
  8
_0-0_
 62
    7
 10
696.13606690525023
 20
1577.3565543671132
 40
20
 41
1
 50
0
  1
図面番号：UPM-10CF-top-01
  0
TEXT
  8
_0-0_
 62
    7
 10
1112.3935408706202
 20
1270.06489869866
 40
24
 41
1
 50
0
  1
Ａ
  0
CIRCLE
  8
_0-0_
  6
DASHED2
 62
    1
 10
1160.1841014295487
 20
963.75798311236611
 40
80
  0
LINE
  8
_0-0_
  6
CONTINUOUS
 62
    7
 10
1122.098870437163
 20
1290.0109824602271
 11
1126.4289974560852
 21
1292.5109824602271
  0
CIRCLE
  8
_0-0_
  6
DASHED2
 62
    1
 10
1124.6852862297746
 20
1214.7530104263108
 40
67.350194333739935
  0
TEXT
  8
_0-0_
 62
    7
 10
1139.9005524055633
 20
1046.5750215258231
 40
20
 41
1
 50
0
  1
Ｂ
  0
ENDSEC
  0
EOF
