  0
SECTION
  2
HEADER
  9
$ACADVER
  1
AC1009
  9
$INSBASE
 10
0
 20
0
 30
0
  9
$EXTMIN
 10
0
 20
0
  9
$EXTMAX
 10
2378
 20
1682
  9
$LIMMIN
 10
0
 20
0
  9
$LIMMAX
 10
2378
 20
1682
  9
$LTSCALE
 40
1
  0
ENDSEC
  0
SECTION
  2
TABLES
  0
TABLE
  2
LTYPE
 70
     9
  0
LTYPE
  2
CONTINUOUS
 70
    64
  3
実線
 72
    65
 73
     0
 40
0.0
  0
LTYPE
  2
DASHED1
 70
    64
  3
--  --  --  --  --  --  --  --  
 72
    65
 73
     2
 40
2.5
 49
1.25
 49
-1.25
  0
LTYPE
  2
DASHED2
 70
    64
  3
----    ----    ----    ----    
 72
    65
 73
     2
 40
5.0
 49
2.5
 49
-2.5
  0
LTYPE
  2
DASHED3
 70
    64
  3
------  ------  ------  ------  
 72
    65
 73
     2
 40
5.0
 49
3.75
 49
-1.25
  0
LTYPE
  2
CENTER1
 70
    64
  3
----- - ----- - ----- - ----- - 
 72
    65
 73
     4
 40
10.0
 49
6.25
 49
-1.25
 49
1.25
 49
-1.25
  0
LTYPE
  2
CENTER2
 70
    64
  3
----------  --  ----------  --  
 72
    65
 73
     4
 40
20.0
 49
12.5
 49
-2.5
 49
2.5
 49
-2.5
  0
LTYPE
  2
PHANTOM1
 70
    64
  3
--- - - --- - - --- - - --- - - 
 72
    65
 73
     6
 40
10.0
 49
3.25
 49
-1.25
 49
1.25
 49
-1.25
 49
1.25
 49
-1.25
  0
LTYPE
  2
PHANTOM2
 70
    64
  3
--------  -  -  --------  -  -  
 72
    65
 73
     6
 40
20.0
 49
10.0
 49
-2.5
 49
1.25
 49
-2.5
 49
1.25
 49
-2.5
  0
LTYPE
  2
DOT
 70
    64
  3
-   -   -   -   -   -   -   -   
 72
    65
 73
     2
 40
2.5
 49
0.625
 49
-1.875
  0
LTYPE
  2
DUMMY
 70
    64
  3
ダミー
 72
    65
 73
     0
 40
0.0
  0
LTYPE
  2
RAND1
 70
    64
  3
ランダム線1
 72
    65
 73
     4
 40
10.0
 49
1.0
 49
-2.0
 49
3.0
 49
-4.0
  0
LTYPE
  2
RAND2
 70
    64
  3
ランダム線2
 72
    65
 73
     4
 40
14.0
 49
2.0
 49
-3.0
 49
4.0
 49
-5.0
  0
LTYPE
  2
RAND3
 70
    64
  3
ランダム線3
 72
    65
 73
     4
 40
18.0
 49
3.0
 49
-4.0
 49
5.0
 49
-6.0
  0
LTYPE
  2
RAND4
 70
    64
  3
ランダム線4
 72
    65
 73
     4
 40
22.0
 49
4.0
 49
-5.0
 49
6.0
 49
-7.0
  0
LTYPE
  2
RAND5
 70
    64
  3
ランダム線5
 72
    65
 73
     4
 40
26.0
 49
5.0
 49
-6.0
 49
7.0
 49
-8.0
  0
LTYPE
  2
LONG1
 70
    64
  3
----------  --  ----------  --  
 72
    65
 73
     4
 40
40.0
 49
32.5
 49
-2.5
 49
2.5
 49
-2.5
  0
LTYPE
  2
LONG2
 70
    64
  3
--------  -  -  --------  -  -  
 72
    65
 73
     6
 40
40.0
 49
30.0
 49
-2.5
 49
1.25
 49
-2.5
 49
1.25
 49
-2.5
  0
LTYPE
  2
LONG3
 70
    64
  3
+++++++++++++++..+++++++++++++++
 72
    65
 73
     2
 40
40.0
 49
37.5
 49
-2.5
  0
LTYPE
  2
LONG4
 70
    64
  3
+++++++++++++++..+++++++++++++++
 72
    65
 73
     2
 40
80.0
 49
75.0
 49
-5.0
  0
LTYPE
  2
LONG5
 70
    64
  3
----------  --  ----------  --  
 72
    65
 73
     4
 40
60.0
 49
37.5
 49
-7.5
 49
7.5
 49
-7.5
  0
LTYPE
  2
dashed
 70
   64
  3
-------   -------------   ------
 72
   65
 73
    2
 40
7.5
 49
6
 49
-1.5
  0
LTYPE
  2
dashed_spaced
 70
   64
  3
----        --------        ----
 72
   65
 73
    2
 40
12
 49
6
 49
-6
  0
LTYPE
  2
long_dashed_dotted
 70
   64
  3
------------- --- --------------
 72
   65
 73
    4
 40
15.25
 49
12
 49
-1.5
 49
0.25
 49
-1.5
  0
LTYPE
  2
long_dashed_double-dotted
 70
   64
  3
----------- --- --- ------------
 72
   65
 73
    6
 40
17
 49
12
 49
-1.5
 49
0.25
 49
-1.5
 49
0.25
 49
-1.5
  0
LTYPE
  2
long_dashed_triplicate-dotted
 70
   64
  3
--------- --- --- --- ----------
 72
   65
 73
    8
 40
18.75
 49
12
 49
-1.5
 49
0.25
 49
-1.5
 49
0.25
 49
-1.5
 49
0.25
 49
-1.5
  0
LTYPE
  2
dotted
 70
   64
  3
   -       -       -       -    
 72
   65
 73
    2
 40
1.75
 49
0.25
 49
-1.5
  0
LTYPE
  2
chain
 70
   64
  3
-------------- -- --------------
 72
   65
 73
    4
 40
18.5
 49
12
 49
-1.5
 49
3.5
 49
-1.5
  0
LTYPE
  2
chain_double_dash
 70
   64
  3
------------ -- -- -------------
 72
   65
 73
    6
 40
23.5
 49
12
 49
-1.5
 49
3.5
 49
-1.5
 49
3.5
 49
-1.5
  0
LTYPE
  2
dashed_dotted
 70
   64
  3
-----------     -     ----------
 72
   65
 73
    4
 40
9.25
 49
6
 49
-1.5
 49
0.25
 49
-1.5
  0
LTYPE
  2
double-dashed_dotted
 70
   64
  3
------   -----------   -   -----
 72
   65
 73
    6
 40
16.75
 49
6
 49
-1.5
 49
6
 49
-1.5
 49
0.25
 49
-1.5
  0
LTYPE
  2
dashed_double-dotted
 70
   64
  3
---------    -    -    ---------
 72
   65
 73
    6
 40
11
 49
6
 49
-1.5
 49
0.25
 49
-1.5
 49
0.25
 49
-1.5
  0
LTYPE
  2
double-dashed_double-dotted
 70
   64
  3
-----   ---------   -   -   ----
 72
   65
 73
    8
 40
18.5
 49
6
 49
-1.5
 49
6
 49
-1.5
 49
0.25
 49
-1.5
 49
0.25
 49
-1.5
  0
LTYPE
  2
dashed_triplicate-dotted
 70
   64
  3
-------    -    -    -    ------
 72
   65
 73
    8
 40
12.75
 49
6
 49
-1.5
 49
0.25
 49
-1.5
 49
0.25
 49
-1.5
 49
0.25
 49
-1.5
  0
LTYPE
  2
double-dashed_triplicate-dotted
 70
   64
  3
-----  ---------  -  -  -  -----
 72
   65
 73
   10
 40
20.25
 49
6
 49
-1.5
 49
6
 49
-1.5
 49
0.25
 49
-1.5
 49
0.25
 49
-1.5
 49
0.25
 49
-1.5
  0
LTYPE
  2
undefined
 70
   64
  3
--------------------------------
 72
   65
 73
    0
 40
0
  0
ENDTAB
  0
TABLE
  2
STYLE
  5
3
100
AcDbSymbolTable
 70
     1
  0
STYLE
  5
10
100
AcDbSymbolTableRecord
100
AcDbTextStyleTableRecord
  2
STANDARD
 70
     0
 40
0.0
 41
1.0
 50
0.0
 71
     0
 42
0.2
  3
txt
  4
bigfont.shx
  0
STYLE
  5
26
100
AcDbSymbolTableRecord
100
AcDbTextStyleTableRecord
  2
TATEGAKI
 70
    68
 40
0.0
 41
1.0
 50
0.0
 71
     0
 42
1.0
  3
txt
  4
bigfont.shx
  0
ENDTAB
  0
TABLE
  2
LAYER
 70
    2
  0
LAYER
  2
_0-0_
 70
   64
 62
    7
  6
CONTINUOUS
  0
LAYER
  2
ADD_LINE
 70
   64
 62
    7
  6
CONTINUOUS
  0
ENDTAB
  0
ENDSEC
  0
SECTION
  2
BLOCKS
  0
ENDSEC
  0
SECTION
  2
ENTITIES
  0
LINE
  8
_0-0_
  6
CONTINUOUS
 62
    2
 10
1226.1615646437822
 20
956.41720478095635
 11
1226.1615646437822
 21
1338.8643903984896
  0
LINE
  8
_0-0_
  6
CONTINUOUS
 62
    7
 10
1217.4321806447151
 20
372.7095500301723
 11
1467.4321806447151
 21
622.7095500301723
  0
LINE
  8
_0-0_
  6
CONTINUOUS
 62
    7
 10
672.13606690525205
 20
167.53106997205509
 11
1706.8525777203686
 21
167.53106997205509
  0
LINE
  8
_0-0_
  6
CONTINUOUS
 62
    7
 10
672.13606690525205
 20
1633.3565543671132
 11
672.13606690525205
 21
167.53106997205509
  0
LINE
  8
_0-0_
  6
CONTINUOUS
 62
    7
 10
1706.8525777203686
 20
1633.3565543671132
 11
1706.8525777203686
 21
167.53106997205509
  0
ARC
  8
_0-0_
  6
CONTINUOUS
 62
    1
 10
1094.4024757245643
 20
562.7095500301723
 40
30
 50
180
 51
0
  0
ARC
  8
_0-0_
  6
CONTINUOUS
 62
    1
 10
1094.4024757245643
 20
562.7095500301723
 40
15
 50
180
 51
0
  0
LINE
  8
_0-0_
  6
CONTINUOUS
 62
    1
 10
1079.4024757245643
 20
572.7095500301723
 11
1064.4024757245643
 21
572.7095500301723
  0
LINE
  8
_0-0_
  6
CONTINUOUS
 62
    1
 10
1079.4024757245643
 20
562.7095500301723
 11
1079.4024757245643
 21
572.7095500301723
  0
LINE
  8
_0-0_
  6
CONTINUOUS
 62
    1
 10
1064.4024757245643
 20
562.7095500301723
 11
1064.4024757245643
 21
572.7095500301723
  0
ARC
  8
_0-0_
  6
CONTINUOUS
 62
    1
 10
1139.4024757245643
 20
682.7095500301723
 40
30
 50
0
 51
180
  0
ARC
  8
_0-0_
  6
CONTINUOUS
 62
    1
 10
1139.4024757245643
 20
682.7095500301723
 40
15
 50
0
 51
180
  0
LINE
  8
_0-0_
  6
CONTINUOUS
 62
    1
 10
1154.4024757245643
 20
672.7095500301723
 11
1169.4024757245643
 21
672.7095500301723
  0
LINE
  8
_0-0_
  6
CONTINUOUS
 62
    1
 10
1154.4024757245643
 20
682.7095500301723
 11
1154.4024757245643
 21
672.7095500301723
  0
LINE
  8
_0-0_
  6
CONTINUOUS
 62
    1
 10
1169.4024757245643
 20
682.7095500301723
 11
1169.4024757245643
 21
672.7095500301723
  0
LINE
  8
_0-0_
  6
CONTINUOUS
 62
    1
 10
1109.4024757245643
 20
562.7095500301723
 11
1109.4024757245643
 21
682.7095500301723
  0
LINE
  8
_0-0_
  6
CONTINUOUS
 62
    1
 10
1124.4024757245643
 20
682.7095500301723
 11
1124.4024757245643
 21
562.7095500301723
  0
ARC
  8
_0-0_
  6
CONTINUOUS
 62
    1
 10
1268.4664960931641
 20
562.7095500301723
 40
30
 50
180
 51
0
  0
ARC
  8
_0-0_
  6
CONTINUOUS
 62
    1
 10
1268.4664960931641
 20
562.7095500301723
 40
15
 50
180
 51
0
  0
LINE
  8
_0-0_
  6
CONTINUOUS
 62
    1
 10
1253.4664960931641
 20
572.7095500301723
 11
1238.4664960931641
 21
572.7095500301723
  0
LINE
  8
_0-0_
  6
CONTINUOUS
 62
    1
 10
1253.4664960931641
 20
562.7095500301723
 11
1253.4664960931641
 21
572.7095500301723
  0
LINE
  8
_0-0_
  6
CONTINUOUS
 62
    1
 10
1238.4664960931641
 20
562.7095500301723
 11
1238.4664960931641
 21
572.7095500301723
  0
ARC
  8
_0-0_
  6
CONTINUOUS
 62
    1
 10
1313.4664960931641
 20
682.7095500301723
 40
30
 50
0
 51
180
  0
ARC
  8
_0-0_
  6
CONTINUOUS
 62
    1
 10
1313.4664960931641
 20
682.7095500301723
 40
15
 50
0
 51
180
  0
LINE
  8
_0-0_
  6
CONTINUOUS
 62
    1
 10
1328.4664960931659
 20
672.7095500301723
 11
1343.4664960931659
 21
672.7095500301723
  0
LINE
  8
_0-0_
  6
CONTINUOUS
 62
    1
 10
1328.4664960931659
 20
682.7095500301723
 11
1328.4664960931659
 21
672.7095500301723
  0
LINE
  8
_0-0_
  6
CONTINUOUS
 62
    1
 10
1343.4664960931659
 20
682.7095500301723
 11
1343.4664960931659
 21
672.7095500301723
  0
LINE
  8
_0-0_
  6
CONTINUOUS
 62
    1
 10
1283.4664960931641
 20
562.7095500301723
 11
1283.4664960931641
 21
682.7095500301723
  0
LINE
  8
_0-0_
  6
CONTINUOUS
 62
    1
 10
1298.4664960931641
 20
682.7095500301723
 11
1298.4664960931641
 21
562.7095500301723
  0
LINE
  8
_0-0_
  6
CONTINUOUS
 62
    7
 10
1224.2143464923938
 20
622.7095500301723
 11
1377.9985062774631
 21
776.49370981524157
  0
LINE
  8
_0-0_
  6
CONTINUOUS
 62
    7
 10
1208.3044439156947
 20
622.7095500301723
 11
1377.9985062774631
 21
792.40361239193885
  0
LINE
  8
_0-0_
  6
CONTINUOUS
 62
    7
 10
1192.3945413389993
 20
622.7095500301723
 11
1377.9985062774631
 21
808.31351496863613
  0
LINE
  8
_0-0_
  6
CONTINUOUS
 62
    7
 10
1683.7987526051547
 20
622.7095500301723
 11
699.51184760648187
 21
622.7095500301723
  0
LINE
  8
_0-0_
  6
CONTINUOUS
 62
    2
 10
1181.7074071739462
 20
1338.8642899041636
 11
1181.7074071739462
 21
956.41720478095635
  0
LINE
  8
_0-0_
  6
CONTINUOUS
 62
    7
 10
1053.7353194053103
 20
1037.1713179917399
 11
1029.8704655402635
 21
1013.3064641266949
  0
LINE
  8
_0-0_
  6
CONTINUOUS
 62
    4
 10
1048.1434363132739
 20
1050.6713179917399
 11
1016.3704655402636
 21
1018.8983472187294
  0
LINE
  8
_0-0_
  6
CONTINUOUS
 62
    2
 10
1204.8697089423222
 20
1340.252708828911
 11
1205.9791493506345
 21
1341.5096597181994
  0
LINE
  8
_0-0_
  6
CONTINUOUS
 62
    2
 10
1182.6425589423216
 20
1337.4757542868767
 11
1181.7074071739462
 21
1338.8642899041636
  0
LINE
  8
_0-0_
  6
CONTINUOUS
 62
    2
 10
1183.7519993506339
 20
1336.2188033975883
 11
1182.6425589423216
 21
1337.4757542868767
  0
LINE
  8
_0-0_
  6
CONTINUOUS
 62
    2
 10
1185.0153405455458
 20
1335.1168368684641
 11
1183.7519993506339
 21
1336.2188033975883
  0
LINE
  8
_0-0_
  6
CONTINUOUS
 62
    2
 10
1186.4110833162213
 20
1334.1886588684004
 11
1185.0153405455458
 21
1335.1168368684641
  0
LINE
  8
_0-0_
  6
CONTINUOUS
 62
    2
 10
1187.9158502576465
 20
1333.4498172888245
 11
1186.4110833162213
 21
1334.1886588684004
  0
LINE
  8
_0-0_
  6
CONTINUOUS
 62
    2
 10
1189.5039301140587
 20
1332.9129593780865
 11
1187.9158502576465
 21
1333.4498172888245
  0
LINE
  8
_0-0_
  6
CONTINUOUS
 62
    2
 10
1191.1481557513707
 20
1332.5872038244754
 11
1189.5039301140587
 21
1332.9129593780865
  0
LINE
  8
_0-0_
  6
CONTINUOUS
 62
    2
 10
1192.8209821739474
 20
1332.4779851661635
 11
1191.1481557513707
 21
1332.5872038244754
  0
LINE
  8
_0-0_
  6
CONTINUOUS
 62
    2
 10
1194.4938030397334
 20
1332.5872038244754
 11
1192.8209821739474
 21
1332.4779851661635
  0
LINE
  8
_0-0_
  6
CONTINUOUS
 62
    2
 10
1196.1380286770454
 20
1332.9129593780865
 11
1194.4938030397334
 21
1332.5872038244754
  0
LINE
  8
_0-0_
  6
CONTINUOUS
 62
    2
 10
1197.7261085334594
 20
1333.4498172888245
 11
1196.1380286770454
 21
1332.9129593780865
  0
LINE
  8
_0-0_
  6
CONTINUOUS
 62
    2
 10
1199.2308754748829
 20
1334.1886588684004
 11
1197.7261085334594
 21
1333.4498172888245
  0
LINE
  8
_0-0_
  6
CONTINUOUS
 62
    2
 10
1200.6266182455583
 20
1335.1168368684641
 11
1199.2308754748829
 21
1334.1886588684004
  0
LINE
  8
_0-0_
  6
CONTINUOUS
 62
    2
 10
1201.8899594404702
 20
1336.2188033975883
 11
1200.6266182455583
 21
1335.1168368684641
  0
LINE
  8
_0-0_
  6
CONTINUOUS
 62
    2
 10
1202.9993998487826
 20
1337.4757542868767
 11
1201.8899594404702
 21
1336.2188033975883
  0
LINE
  8
_0-0_
  6
CONTINUOUS
 62
    2
 10
1203.934557173945
 20
1338.8642899041636
 11
1202.9993998487826
 21
1337.4757542868767
  0
LINE
  8
_0-0_
  6
CONTINUOUS
 62
    2
 10
1202.9993998487826
 20
1340.252708828911
 11
1203.934557173945
 21
1338.8641787684112
  0
LINE
  8
_0-0_
  6
CONTINUOUS
 62
    2
 10
1201.8899594404702
 20
1341.5096597181994
 11
1202.9993998487826
 21
1340.252708828911
  0
LINE
  8
_0-0_
  6
CONTINUOUS
 62
    2
 10
1200.6266182455583
 20
1342.6116262473236
 11
1201.8899594404702
 21
1341.5096597181994
  0
LINE
  8
_0-0_
  6
CONTINUOUS
 62
    2
 10
1199.2308754748829
 20
1343.5398042473873
 11
1200.6266182455583
 21
1342.6116262473236
  0
LINE
  8
_0-0_
  6
CONTINUOUS
 62
    2
 10
1197.7261085334594
 20
1344.2786458269632
 11
1199.2308754748829
 21
1343.5398042473873
  0
LINE
  8
_0-0_
  6
CONTINUOUS
 62
    2
 10
1196.1380286770454
 20
1344.8155037377012
 11
1197.7261085334594
 21
1344.2786458269632
  0
LINE
  8
_0-0_
  6
CONTINUOUS
 62
    2
 10
1194.4938030397334
 20
1345.1412592913123
 11
1196.1380286770454
 21
1344.8155037377012
  0
LINE
  8
_0-0_
  6
CONTINUOUS
 62
    2
 10
1192.8209821739474
 20
1345.2504835064112
 11
1194.4938030397334
 21
1345.1412592913123
  0
LINE
  8
_0-0_
  6
CONTINUOUS
 62
    2
 10
1191.1481557513707
 20
1345.1412592913123
 11
1192.8209821739474
 21
1345.2504835064112
  0
LINE
  8
_0-0_
  6
CONTINUOUS
 62
    2
 10
1189.5039301140587
 20
1344.8155037377012
 11
1191.1481557513707
 21
1345.1412592913123
  0
LINE
  8
_0-0_
  6
CONTINUOUS
 62
    2
 10
1187.9158502576465
 20
1344.2786458269632
 11
1189.5039301140587
 21
1344.8155037377012
  0
LINE
  8
_0-0_
  6
CONTINUOUS
 62
    2
 10
1186.4110833162213
 20
1343.5398042473873
 11
1187.9158502576465
 21
1344.2786458269632
  0
LINE
  8
_0-0_
  6
CONTINUOUS
 62
    2
 10
1185.0153405455458
 20
1342.6116262473236
 11
1186.4110833162213
 21
1343.5398042473873
  0
LINE
  8
_0-0_
  6
CONTINUOUS
 62
    2
 10
1183.7519993506339
 20
1341.5096597181994
 11
1185.0153405455458
 21
1342.6116262473236
  0
LINE
  8
_0-0_
  6
CONTINUOUS
 62
    2
 10
1182.6425589423216
 20
1340.252708828911
 11
1183.7519993506339
 21
1341.5096597181994
  0
LINE
  8
_0-0_
  6
CONTINUOUS
 62
    2
 10
1181.7074071739462
 20
1338.8641787684112
 11
1182.6425589423216
 21
1340.252708828911
  0
LINE
  8
_0-0_
  6
CONTINUOUS
 62
    2
 10
1224.1171094404708
 20
1341.5096597181994
 11
1225.2265498487832
 21
1340.252708828911
  0
LINE
  8
_0-0_
  6
CONTINUOUS
 62
    2
 10
1222.853768245559
 20
1342.6116262473236
 11
1224.1171094404708
 21
1341.5096597181994
  0
LINE
  8
_0-0_
  6
CONTINUOUS
 62
    2
 10
1221.4580254748835
 20
1343.5398042473873
 11
1222.853768245559
 21
1342.6116262473236
  0
LINE
  8
_0-0_
  6
CONTINUOUS
 62
    2
 10
1219.9532585334582
 20
1344.2786458269632
 11
1221.4580254748835
 21
1343.5398042473873
  0
LINE
  8
_0-0_
  6
CONTINUOUS
 62
    2
 10
1218.3651786770461
 20
1344.8155037377012
 11
1219.9532585334582
 21
1344.2786458269632
  0
LINE
  8
_0-0_
  6
CONTINUOUS
 62
    2
 10
1216.720953039734
 20
1345.1412592913123
 11
1218.3651786770461
 21
1344.8155037377012
  0
LINE
  8
_0-0_
  6
CONTINUOUS
 62
    2
 10
1215.0481321739462
 20
1345.2504835064112
 11
1216.720953039734
 21
1345.1412592913123
  0
LINE
  8
_0-0_
  6
CONTINUOUS
 62
    2
 10
1213.3753057513713
 20
1345.1412592913123
 11
1215.0481321739462
 21
1345.2504835064112
  0
LINE
  8
_0-0_
  6
CONTINUOUS
 62
    2
 10
1211.7310801140593
 20
1344.8155037377012
 11
1213.3753057513713
 21
1345.1412592913123
  0
LINE
  8
_0-0_
  6
CONTINUOUS
 62
    2
 10
1210.1430002576453
 20
1344.2786458269632
 11
1211.7310801140593
 21
1344.8155037377012
  0
LINE
  8
_0-0_
  6
CONTINUOUS
 62
    2
 10
1208.6382333162219
 20
1343.5398042473873
 11
1210.1430002576453
 21
1344.2786458269632
  0
LINE
  8
_0-0_
  6
CONTINUOUS
 62
    2
 10
1207.2424905455464
 20
1342.6116262473236
 11
1208.6382333162219
 21
1343.5398042473873
  0
LINE
  8
_0-0_
  6
CONTINUOUS
 62
    2
 10
1205.9791493506345
 20
1341.5096597181994
 11
1207.2424905455464
 21
1342.6116262473236
  0
LINE
  8
_0-0_
  6
CONTINUOUS
 62
    2
 10
1203.934557173945
 20
1338.8641787684112
 11
1204.8697089423222
 21
1340.252708828911
  0
LINE
  8
_0-0_
  6
CONTINUOUS
 62
    2
 10
1225.2265498487832
 20
1340.252708828911
 11
1226.1615646437822
 21
1338.8643903984896
  0
LINE
  8
_0-0_
  6
CONTINUOUS
 62
    2
 10
1135.9500478610644
 20
956.41720478095635
 11
1181.7074071739462
 21
956.41720478095635
  0
LINE
  8
_0-0_
  6
CONTINUOUS
 62
    2
 10
1135.9500478610644
 20
956.41720478095635
 11
1131.7074071739462
 21
952.17456409383635
  0
LINE
  8
_0-0_
  6
CONTINUOUS
 62
    2
 10
1131.7074071739462
 20
916.20568799823855
 11
1131.7074071739462
 21
952.17456409383635
  0
LINE
  8
_0-0_
  6
CONTINUOUS
 62
    2
 10
1131.7074071739462
 20
916.20568799823855
 11
1135.9500478610644
 21
911.96304731112036
  0
LINE
  8
_0-0_
  6
CONTINUOUS
 62
    2
 10
1271.9189239566622
 20
956.41720478095635
 11
1226.1615646437822
 21
956.41720478095635
  0
LINE
  8
_0-0_
  6
CONTINUOUS
 62
    2
 10
1271.9189239566622
 20
956.41720478095635
 11
1276.1615646437822
 21
952.17456409383635
  0
LINE
  8
_0-0_
  6
CONTINUOUS
 62
    2
 10
1276.1615646437822
 20
916.20568799823855
 11
1276.1615646437822
 21
952.17456409383635
  0
LINE
  8
_0-0_
  6
CONTINUOUS
 62
    2
 10
1271.9189239566622
 20
911.96304731112036
 11
1135.9500478610644
 21
911.96304731112036
  0
LINE
  8
_0-0_
  6
CONTINUOUS
 62
    2
 10
1276.1615646437822
 20
916.20568799823855
 11
1271.9189239566622
 21
911.96304731112036
  0
LINE
  8
_0-0_
  6
CONTINUOUS
 62
    7
 10
1354.1336524124181
 20
1037.1713179917399
 11
1377.9985062774631
 21
1013.3064641266949
  0
LINE
  8
_0-0_
  6
CONTINUOUS
 62
    4
 10
1359.7255355044545
 20
1050.6713179917399
 11
1391.4985062774631
 21
1018.8983472187313
  0
LINE
  8
_0-0_
  6
CONTINUOUS
 62
    7
 10
1029.8704655402635
 20
993.96065724351797
 11
1073.0811262884872
 21
1037.1713179917399
  0
LINE
  8
_0-0_
  6
CONTINUOUS
 62
    7
 10
1029.8704655402635
 20
978.05075466682251
 11
1088.9910288651827
 21
1037.1713179917399
  0
LINE
  8
_0-0_
  6
CONTINUOUS
 62
    7
 10
1029.8704655402635
 20
962.14085209012524
 11
1104.9009314418781
 21
1037.1713179917399
  0
LINE
  8
_0-0_
  6
CONTINUOUS
 62
    7
 10
1436.4985062774631
 20
771.72706287574806
 11
1479.766019123048
 21
728.45955003016684
  0
LINE
  8
_0-0_
  6
CONTINUOUS
 62
    5
 10
1436.4985062774631
 20
908.45955003016684
 11
1436.4985062774631
 21
728.45955003016684
  0
LINE
  8
_0-0_
  6
CONTINUOUS
 62
    5
 10
1391.4985062774631
 20
908.45955003016684
 11
1436.4985062774631
 21
908.45955003016684
  0
LINE
  8
_0-0_
  6
CONTINUOUS
 62
    5
 10
1391.4985062774631
 20
740.60566492987641
 11
1403.6446211771727
 21
728.45955003016684
  0
LINE
  8
_0-0_
  6
CONTINUOUS
 62
    5
 10
1391.4985062774631
 20
753.33358699122914
 11
1416.372543238529
 21
728.45955003016684
  0
LINE
  8
_0-0_
  6
CONTINUOUS
 62
    5
 10
1391.4985062774631
 20
766.06150905258914
 11
1429.1004652998854
 21
728.45955003016684
  0
LINE
  8
_0-0_
  6
CONTINUOUS
 62
    5
 10
1391.4985062774631
 20
778.78943111394915
 11
1436.4985062774631
 21
733.78943111394915
  0
LINE
  8
_0-0_
  6
CONTINUOUS
 62
    5
 10
1391.4985062774631
 20
791.51735317530915
 11
1436.4985062774631
 21
746.51735317530915
  0
LINE
  8
_0-0_
  6
CONTINUOUS
 62
    5
 10
1391.4985062774631
 20
804.24527523666006
 11
1436.4985062774631
 21
759.24527523666552
  0
LINE
  8
_0-0_
  6
CONTINUOUS
 62
    5
 10
1391.4985062774631
 20
816.97319729802007
 11
1436.4985062774631
 21
771.97319729802007
  0
LINE
  8
_0-0_
  6
CONTINUOUS
 62
    5
 10
1391.4985062774631
 20
829.70111935938007
 11
1436.4985062774631
 21
784.70111935938007
  0
LINE
  8
_0-0_
  6
CONTINUOUS
 62
    5
 10
1391.4985062774631
 20
842.4290414207328
 11
1436.4985062774631
 21
797.4290414207328
  0
LINE
  8
_0-0_
  6
CONTINUOUS
 62
    5
 10
1391.4985062774631
 20
855.15696348209281
 11
1436.4985062774631
 21
810.15696348209281
  0
LINE
  8
_0-0_
  6
CONTINUOUS
 62
    5
 10
1391.4985062774631
 20
867.88488554345281
 11
1436.4985062774631
 21
822.88488554345281
  0
LINE
  8
_0-0_
  6
CONTINUOUS
 62
    5
 10
1391.4985062774631
 20
880.61280760481282
 11
1436.4985062774631
 21
835.61280760481282
  0
LINE
  8
_0-0_
  6
CONTINUOUS
 62
    5
 10
1391.4985062774631
 20
893.34072966617282
 11
1436.4985062774631
 21
848.34072966617282
  0
LINE
  8
_0-0_
  6
CONTINUOUS
 62
    5
 10
1391.4985062774631
 20
906.06865172752737
 11
1436.4985062774631
 21
861.06865172752737
  0
LINE
  8
_0-0_
  6
CONTINUOUS
 62
    5
 10
1401.83553003618
 20
908.45955003016684
 11
1436.4985062774631
 21
873.79657378888373
  0
LINE
  8
_0-0_
  6
CONTINUOUS
 62
    5
 10
1414.56345209754
 20
908.45955003016684
 11
1436.4985062774631
 21
886.52449585024374
  0
LINE
  8
_0-0_
  6
CONTINUOUS
 62
    5
 10
1427.2913741589
 20
908.45955003016684
 11
1436.4985062774631
 21
899.25241791159647
  0
LINE
  8
_0-0_
  6
CONTINUOUS
 62
    6
 10
1391.4985062774631
 20
723.9595500301723
 11
1391.4985062774631
 21
645.2095500301723
  0
LINE
  8
_0-0_
  6
CONTINUOUS
 62
    6
 10
1391.4985062774631
 20
646.68289110381306
 11
1392.9718473510984
 21
645.2095500301723
  0
LINE
  8
_0-0_
  6
CONTINUOUS
 62
    6
 10
1391.498506277454
 20
678.50269625720944
 11
1424.7916525044966
 21
645.20955003016684
  0
LINE
  8
_0-0_
  6
CONTINUOUS
 62
    6
 10
1391.4985062774631
 20
710.32250141060217
 11
1456.6114576578893
 21
645.2095500301723
  0
LINE
  8
_0-0_
  6
CONTINUOUS
 62
    6
 10
1409.6812628112893
 20
723.95955003016684
 11
1488.4312628112893
 21
645.20955003016684
  0
LINE
  8
_0-0_
  6
CONTINUOUS
 62
    6
 10
1441.5010679646803
 20
723.95955003016684
 11
1520.2510679646803
 21
645.20955003016684
  0
LINE
  8
_0-0_
  6
CONTINUOUS
 62
    6
 10
1473.3208731180821
 20
723.9595500301723
 11
1552.0708731180821
 21
645.2095500301723
  0
LINE
  8
_0-0_
  6
CONTINUOUS
 62
    6
 10
1505.140678271473
 20
723.95955003016684
 11
1583.8906782714657
 21
645.2095500301723
  0
LINE
  8
_0-0_
  6
CONTINUOUS
 62
    6
 10
1536.9604834248639
 20
723.95955003016684
 11
1615.7104834248639
 21
645.20955003016684
  0
LINE
  8
_0-0_
  6
CONTINUOUS
 62
    6
 10
1568.7802885782567
 20
723.9595500301723
 11
1647.5302885782567
 21
645.2095500301723
  0
LINE
  8
_0-0_
  6
CONTINUOUS
 62
    6
 10
1600.6000937316567
 20
723.95955003016684
 11
1679.3500937316567
 21
645.20955003016684
  0
LINE
  8
_0-0_
  6
CONTINUOUS
 62
    6
 10
1584.2420015606258
 20
645.20955003016684
 11
1662.9920015606258
 21
723.9595500301723
  0
LINE
  8
_0-0_
  6
CONTINUOUS
 62
    6
 10
1552.4221964072331
 20
645.2095500301723
 11
1631.1721964072331
 21
723.9595500301723
  0
LINE
  8
_0-0_
  6
CONTINUOUS
 62
    6
 10
1520.6023912538403
 20
645.2095500301723
 11
1599.3523912538403
 21
723.9595500301723
  0
LINE
  8
_0-0_
  6
CONTINUOUS
 62
    6
 10
1488.7825861004421
 20
645.2095500301723
 11
1567.5325861004421
 21
723.95955003016684
  0
LINE
  8
_0-0_
  6
CONTINUOUS
 62
    6
 10
1456.9627809470585
 20
645.2095500301723
 11
1535.7127809470585
 21
723.9595500301723
  0
LINE
  8
_0-0_
  6
CONTINUOUS
 62
    6
 10
1425.1429757936567
 20
645.2095500301723
 11
1503.8929757936567
 21
723.9595500301723
  0
LINE
  8
_0-0_
  6
CONTINUOUS
 62
    6
 10
1393.3231706402585
 20
645.20955003016684
 11
1472.0731706402585
 21
723.95955003016684
  0
LINE
  8
_0-0_
  6
CONTINUOUS
 62
    6
 10
1391.498506277454
 20
675.20469082076056
 11
1440.2533654868657
 21
723.9595500301723
  0
LINE
  8
_0-0_
  6
CONTINUOUS
 62
    6
 10
1391.498506277454
 20
707.02449597415693
 11
1408.433560333473
 21
723.9595500301723
  0
LINE
  8
_0-0_
  6
CONTINUOUS
 62
    4
 10
1391.4985062774631
 20
1018.8983472187313
 11
1391.4985062774631
 21
642.9595500301723
  0
LINE
  8
_0-0_
  6
CONTINUOUS
 62
    7
 10
1377.9985062774631
 20
1013.3064641266949
 11
1377.9985062774631
 21
622.7095500301723
  0
LINE
  8
_0-0_
  6
CONTINUOUS
 62
    7
 10
1683.7987526051547
 20
908.45955003016684
 11
1391.4985062774631
 21
908.45955003016684
  0
LINE
  8
_0-0_
  6
CONTINUOUS
 62
    4
 10
1391.4985062774631
 20
642.9595500301723
 11
1683.7987526051547
 21
642.9595500301723
  0
LINE
  8
_0-0_
  6
CONTINUOUS
 62
    6
 10
1679.7014170208095
 20
645.2095500301723
 11
1683.7987526051547
 21
649.30688561451757
  0
LINE
  8
_0-0_
  6
CONTINUOUS
 62
    6
 10
1632.4198988850476
 20
723.95955003016684
 11
1683.7987526051547
 21
672.58069631005969
  0
LINE
  8
_0-0_
  6
CONTINUOUS
 62
    6
 10
1391.4985062774631
 20
645.2095500301723
 11
1683.7987526051547
 21
645.2095500301723
  0
LINE
  8
_0-0_
  6
CONTINUOUS
 62
    6
 10
1647.8816118674258
 20
645.2095500301723
 11
1683.7987526051547
 21
681.12669076790121
  0
LINE
  8
_0-0_
  6
CONTINUOUS
 62
    6
 10
1664.2397040384494
 20
723.9595500301723
 11
1683.7987526051547
 21
704.40050146346698
  0
LINE
  8
_0-0_
  6
CONTINUOUS
 62
    6
 10
1616.061806714024
 20
645.2095500301723
 11
1683.7987526051547
 21
712.94649592130304
  0
LINE
  8
_0-0_
  6
CONTINUOUS
 62
    6
 10
1683.7987526051547
 20
723.9595500301723
 11
1391.4985062774631
 21
723.9595500301723
  0
LINE
  8
_0-0_
  6
CONTINUOUS
 62
    5
 10
1391.4985062774631
 20
726.20955003016684
 11
1683.7987526051547
 21
726.20955003016684
  0
LINE
  8
_0-0_
  6
CONTINUOUS
 62
    7
 10
1391.4985062774631
 20
728.45955003016684
 11
1683.7987526051547
 21
728.45955003016684
  0
LINE
  8
_0-0_
  6
CONTINUOUS
 62
    7
 10
1436.4985062774631
 20
787.63696545244352
 11
1495.6759216997452
 21
728.45955003016684
  0
LINE
  8
_0-0_
  6
CONTINUOUS
 62
    7
 10
1436.4985062774631
 20
803.5468680291408
 11
1511.5858242764443
 21
728.45955003016684
  0
LINE
  8
_0-0_
  6
CONTINUOUS
 62
    7
 10
1029.8704655402635
 20
1013.3064641266949
 11
1029.8704655402635
 21
622.7095500301723
  0
LINE
  8
_0-0_
  6
CONTINUOUS
 62
    4
 10
1016.3704655402636
 20
1018.8983472187294
 11
1016.3704655402636
 21
642.9595500301723
  0
LINE
  8
_0-0_
  6
CONTINUOUS
 62
    5
 10
971.37046554026358
 20
908.45955003016684
 11
971.37046554026358
 21
728.45955003016684
  0
LINE
  8
_0-0_
  6
CONTINUOUS
 62
    5
 10
1016.3704655402636
 20
908.45955003016684
 11
971.37046554026358
 21
908.45955003016684
  0
LINE
  8
_0-0_
  6
CONTINUOUS
 62
    5
 10
1016.3704655402636
 20
740.60566492987641
 11
1004.224350640554
 21
728.45955003016684
  0
LINE
  8
_0-0_
  6
CONTINUOUS
 62
    5
 10
1016.3704655402636
 20
753.33358699122914
 11
991.49642857919764
 21
728.45955003016684
  0
LINE
  8
_0-0_
  6
CONTINUOUS
 62
    5
 10
1016.3704655402636
 20
766.06150905258914
 11
978.76850651784309
 21
728.45955003016684
  0
LINE
  8
_0-0_
  6
CONTINUOUS
 62
    5
 10
1016.3704655402636
 20
778.78943111394915
 11
971.37046554026358
 21
733.78943111394915
  0
LINE
  8
_0-0_
  6
CONTINUOUS
 62
    5
 10
1016.3704655402636
 20
791.51735317530915
 11
971.37046554026358
 21
746.51735317530915
  0
LINE
  8
_0-0_
  6
CONTINUOUS
 62
    5
 10
1016.3704655402636
 20
804.24527523666006
 11
971.37046554026358
 21
759.24527523666552
  0
LINE
  8
_0-0_
  6
CONTINUOUS
 62
    5
 10
1016.3704655402636
 20
816.97319729802007
 11
971.37046554026358
 21
771.97319729802007
  0
LINE
  8
_0-0_
  6
CONTINUOUS
 62
    5
 10
1016.3704655402636
 20
829.70111935938007
 11
971.37046554026358
 21
784.70111935938007
  0
LINE
  8
_0-0_
  6
CONTINUOUS
 62
    5
 10
1016.3704655402636
 20
842.4290414207328
 11
971.37046554026358
 21
797.4290414207328
  0
LINE
  8
_0-0_
  6
CONTINUOUS
 62
    5
 10
1016.3704655402636
 20
855.15696348209281
 11
971.37046554026358
 21
810.15696348209281
  0
LINE
  8
_0-0_
  6
CONTINUOUS
 62
    5
 10
1016.3704655402636
 20
867.88488554345281
 11
971.37046554026358
 21
822.88488554345281
  0
LINE
  8
_0-0_
  6
CONTINUOUS
 62
    5
 10
1016.3704655402636
 20
880.61280760481282
 11
971.37046554026358
 21
835.61280760481282
  0
LINE
  8
_0-0_
  6
CONTINUOUS
 62
    5
 10
1016.3704655402636
 20
893.34072966617282
 11
971.37046554026358
 21
848.34072966617282
  0
LINE
  8
_0-0_
  6
CONTINUOUS
 62
    5
 10
1016.3704655402636
 20
906.06865172752737
 11
971.37046554026358
 21
861.06865172752737
  0
LINE
  8
_0-0_
  6
CONTINUOUS
 62
    5
 10
1006.0334417815467
 20
908.45955003016684
 11
971.37046554026358
 21
873.79657378888373
  0
LINE
  8
_0-0_
  6
CONTINUOUS
 62
    5
 10
993.30551972018668
 20
908.45955003016684
 11
971.37046554026358
 21
886.52449585024374
  0
LINE
  8
_0-0_
  6
CONTINUOUS
 62
    5
 10
980.57759765882668
 20
908.45955003016684
 11
971.37046554026358
 21
899.25241791159647
  0
LINE
  8
_0-0_
  6
CONTINUOUS
 62
    6
 10
1016.3704655402636
 20
723.9595500301723
 11
1016.3704655402636
 21
645.2095500301723
  0
LINE
  8
_0-0_
  6
CONTINUOUS
 62
    6
 10
1016.3704655402636
 20
646.68289110381306
 11
1014.8971244666301
 21
645.2095500301723
  0
LINE
  8
_0-0_
  6
CONTINUOUS
 62
    6
 10
1016.3704655402709
 20
678.50269625720944
 11
983.07731931322826
 21
645.20955003016684
  0
LINE
  8
_0-0_
  6
CONTINUOUS
 62
    6
 10
1016.3704655402636
 20
710.32250141060217
 11
951.25751415983734
 21
645.2095500301723
  0
LINE
  8
_0-0_
  6
CONTINUOUS
 62
    6
 10
998.18770900643733
 20
723.95955003016684
 11
919.43770900643733
 21
645.20955003016684
  0
LINE
  8
_0-0_
  6
CONTINUOUS
 62
    6
 10
966.3679038530446
 20
723.95955003016684
 11
887.6179038530446
 21
645.20955003016684
  0
LINE
  8
_0-0_
  6
CONTINUOUS
 62
    6
 10
934.5480986996464
 20
723.9595500301723
 11
855.7980986996464
 21
645.2095500301723
  0
LINE
  8
_0-0_
  6
CONTINUOUS
 62
    6
 10
902.72829354625367
 20
723.95955003016684
 11
823.97829354626276
 21
645.2095500301723
  0
LINE
  8
_0-0_
  6
CONTINUOUS
 62
    6
 10
870.90848839286093
 20
723.95955003016684
 11
792.15848839286093
 21
645.20955003016684
  0
LINE
  8
_0-0_
  6
CONTINUOUS
 62
    6
 10
839.08868323947001
 20
723.9595500301723
 11
760.33868323947001
 21
645.2095500301723
  0
LINE
  8
_0-0_
  6
CONTINUOUS
 62
    6
 10
807.26887808607
 20
723.95955003016684
 11
728.51887808607
 21
645.20955003016684
  0
LINE
  8
_0-0_
  6
CONTINUOUS
 62
    6
 10
791.80716510370087
 20
645.2095500301723
 11
713.05716510370087
 21
723.9595500301723
  0
LINE
  8
_0-0_
  6
CONTINUOUS
 62
    6
 10
823.6269702571027
 20
645.20955003016684
 11
744.8769702571027
 21
723.9595500301723
  0
LINE
  8
_0-0_
  6
CONTINUOUS
 62
    6
 10
855.44677541049361
 20
645.2095500301723
 11
776.69677541049361
 21
723.9595500301723
  0
LINE
  8
_0-0_
  6
CONTINUOUS
 62
    6
 10
887.26658056388453
 20
645.2095500301723
 11
808.51658056388453
 21
723.9595500301723
  0
LINE
  8
_0-0_
  6
CONTINUOUS
 62
    6
 10
919.08638571728636
 20
645.2095500301723
 11
840.33638571728636
 21
723.95955003016684
  0
LINE
  8
_0-0_
  6
CONTINUOUS
 62
    6
 10
950.90619087067
 20
645.2095500301723
 11
872.15619087067
 21
723.9595500301723
  0
LINE
  8
_0-0_
  6
CONTINUOUS
 62
    6
 10
982.72599602406819
 20
645.2095500301723
 11
903.97599602406819
 21
723.9595500301723
  0
LINE
  8
_0-0_
  6
CONTINUOUS
 62
    6
 10
1014.54580117747
 20
645.20955003016684
 11
935.79580117747003
 21
723.95955003016684
  0
LINE
  8
_0-0_
  6
CONTINUOUS
 62
    6
 10
1016.3704655402709
 20
675.20469082076056
 11
967.61560633086094
 21
723.9595500301723
  0
LINE
  8
_0-0_
  6
CONTINUOUS
 62
    6
 10
1016.3704655402709
 20
707.02449597415693
 11
999.43541148425186
 21
723.9595500301723
  0
LINE
  8
_0-0_
  6
CONTINUOUS
 62
    7
 10
742.97167850726157
 20
908.45955003015956
 11
922.97167850725793
 21
728.45955003016684
  0
LINE
  8
_0-0_
  6
CONTINUOUS
 62
    7
 10
758.88158108394975
 20
908.4595500301723
 11
938.88158108395339
 21
728.45955003016684
  0
LINE
  8
_0-0_
  6
CONTINUOUS
 62
    7
 10
774.79148366064157
 20
908.45955003017593
 11
954.79148366064157
 21
728.45955003016684
  0
POINT
  8
_0-0_
 62
    7
 10
699.51184760648187
 20
622.7095500301723
  0
LINE
  8
_0-0_
  6
CONTINUOUS
 62
    7
 10
699.51184760648187
 20
908.45955003016684
 11
1016.3704655402636
 21
908.45955003016684
  0
LINE
  8
_0-0_
  6
CONTINUOUS
 62
    6
 10
1016.3704655402636
 20
645.2095500301723
 11
699.51184760648187
 21
645.2095500301723
  0
LINE
  8
_0-0_
  6
CONTINUOUS
 62
    6
 10
775.44907293267727
 20
723.95955003016684
 11
699.51184760648187
 21
648.02232470397144
  0
LINE
  8
_0-0_
  6
CONTINUOUS
 62
    6
 10
743.62926777927908
 20
723.9595500301723
 11
699.51184760648187
 21
679.84212985737508
  0
LINE
  8
_0-0_
  6
CONTINUOUS
 62
    6
 10
728.16755479691903
 20
645.2095500301723
 11
699.51184760648187
 21
673.86525722060765
  0
LINE
  8
_0-0_
  6
CONTINUOUS
 62
    6
 10
711.80946262588634
 20
723.95955003016684
 11
699.51184760648187
 21
711.66193501076236
  0
LINE
  8
_0-0_
  6
CONTINUOUS
 62
    6
 10
759.98735995030268
 20
645.2095500301723
 11
699.51184760648187
 21
705.68506237399311
  0
LINE
  8
_0-0_
  6
CONTINUOUS
 62
    6
 10
1016.3704655402636
 20
723.9595500301723
 11
699.51184760648187
 21
723.9595500301723
  0
LINE
  8
_0-0_
  6
CONTINUOUS
 62
    5
 10
1016.3704655402636
 20
726.20955003016684
 11
699.51184760648187
 21
726.20955003016684
  0
LINE
  8
_0-0_
  6
CONTINUOUS
 62
    7
 10
1016.3704655402636
 20
728.45955003016684
 11
699.51184760648187
 21
728.45955003016684
  0
LINE
  8
_0-0_
  6
CONTINUOUS
 62
    4
 10
1016.3704655402636
 20
642.9595500301723
 11
699.51184760648187
 21
642.9595500301723
  0
POINT
  8
_0-0_
 62
    7
 10
994.91031346710236
 20
880.50006101696567
  0
LINE
  8
_0-0_
  6
CONTINUOUS
 62
    7
 10
1366.8801965912426
 20
1033.4107680060981
 11
1438.1551805164581
 21
1156.862661473225
  0
POINT
  8
_0-0_
 62
    7
 10
1366.8801965912426
 20
1033.4107680060981
  0
TEXT
  8
_0-0_
 62
    7
 10
1441.1493675983074
 20
1144.6912076016372
 40
30
 41
1
 50
0
  1
防水層
  0
LINE
  8
_0-0_
  6
CONTINUOUS
 62
    7
 10
708.3152981903969
 20
372.7095500301723
 11
958.31529819040236
 21
622.7095500301723
  0
LINE
  8
_0-0_
  6
CONTINUOUS
 62
    7
 10
724.22520076709418
 20
372.7095500301723
 11
974.22520076710146
 21
622.7095500301723
  0
LINE
  8
_0-0_
  6
CONTINUOUS
 62
    7
 10
740.13510334379328
 20
372.7095500301723
 11
990.13510334379873
 21
622.7095500301723
  0
LINE
  8
_0-0_
  6
CONTINUOUS
 62
    7
 10
1249.2519857981115
 20
372.7095500301723
 11
1499.2519857981079
 21
622.7095500301723
  0
LINE
  8
_0-0_
  6
CONTINUOUS
 62
    7
 10
1233.3420832214142
 20
372.7095500301723
 11
1483.3420832214124
 21
622.7095500301723
  0
LINE
  8
_0-0_
  6
CONTINUOUS
 62
    7
 10
904.26514937441073
 20
873.79273676472553
 11
856.6814767235411
 21
956.21007540675896
  0
POINT
  8
_0-0_
 62
    7
 10
904.26514937441073
 20
873.79273676472553
  0
TEXT
  8
_0-0_
 62
    7
 10
705.06745364620667
 20
942.42387562906447
 40
30
 41
1
 50
0
  1
保護ｺﾝｸﾘｰﾄ
  0
LINE
  8
_0-0_
  6
CONTINUOUS
 62
    7
 10
994.91031346710236
 20
880.50006101696567
 11
905.19831668586278
 21
1035.8857974905288
  0
TEXT
  8
_0-0_
 62
    7
 10
756.40131360977841
 20
1023.3305027455619
 40
30
 41
1
 50
0
  1
成型緩衝材
  0
LINE
  8
_0-0_
  6
CONTINUOUS
 62
    7
 10
1421.7156083617156
 20
691.99533102751525
 11
1578.1169960772568
 21
962.89048092511007
  0
POINT
  8
_0-0_
 62
    7
 10
1421.7156083617156
 20
691.99533102751525
  0
TEXT
  8
_0-0_
 62
    7
 10
1583.1850109337138
 20
947.62521364522149
 40
30
 41
1
 50
0
  1
断熱材
  0
LINE
  8
_0-0_
  6
CONTINUOUS
 62
    7
 10
672.13606690525205
 20
1633.3565543671132
 11
1706.8525777203686
 21
1633.3565543671132
  0
LINE
  8
_0-0_
  6
CONTINUOUS
 62
    7
 10
672.13606690525205
 20
1553.3565543671132
 11
1706.8525777203686
 21
1553.3565543671132
  0
LINE
  8
_0-0_
  6
CONTINUOUS
 62
    7
 10
672.13606690525205
 20
1473.3565543671132
 11
1706.8525777203686
 21
1473.3565543671132
  0
LINE
  8
_0-0_
  6
CONTINUOUS
 62
    7
 10
1189.4943223128103
 20
1633.3565543671132
 11
1189.4943223128103
 21
1473.3565543671132
  0
TEXT
  8
_0-0_
 62
    7
 10
1213.4943223128103
 20
1577.3565543671132
 40
20
 41
1
 50
0
  1
構造：ＲＣ造
  0
TEXT
  8
_0-0_
 62
    7
 10
1213.4943223128103
 20
1497.3565543671132
 40
20
 41
1
 50
0
  1
下地：コンクリートスラブ
  0
TEXT
  8
_0-0_
 62
    7
 10
696.13606690525205
 20
1577.3565543671134
 40
20
 41
1
 50
0
  1
図面番号：UPM-10CF-kiso-03
  0
LINE
  8
_0-0_
  6
CONTINUOUS
 62
    7
 10
1181.7074071739466
 20
1037.1713179917399
 11
1226.1615646437826
 21
1037.1713179917399
  0
LINE
  8
_0-0_
  6
CONTINUOUS
 62
    7
 10
1161.7074071739466
 20
1017.1713179917399
 11
1181.7074071739466
 21
1017.1713179917399
  0
LINE
  8
_0-0_
  6
CONTINUOUS
 62
    7
 10
1226.1615646437826
 20
1017.1713179917399
 11
1246.1615646437826
 21
1017.1713179917399
  0
LINE
  8
_0-0_
  6
CONTINUOUS
 62
    7
 10
1246.1615646437826
 20
1017.1713179917399
 11
1246.1615646437826
 21
1037.1713179917399
  0
LINE
  8
_0-0_
  6
CONTINUOUS
 62
    7
 10
1161.7074071739466
 20
1037.1713179917399
 11
1161.7074071739466
 21
1017.1713179917399
  0
LINE
  8
_0-0_
  6
CONTINUOUS
 62
    2
 10
1181.7074071739466
 20
1032.942681662887
 11
1165.9360435027995
 21
1017.1713179917399
  0
LINE
  8
_0-0_
  6
CONTINUOUS
 62
    2
 10
1181.7074071739466
 20
1028.4879089414117
 11
1170.3908162242747
 21
1017.1713179917399
  0
LINE
  8
_0-0_
  6
CONTINUOUS
 62
    2
 10
1181.7074071739466
 20
1024.0331362199365
 11
1174.84558894575
 21
1017.1713179917399
  0
LINE
  8
_0-0_
  6
CONTINUOUS
 62
    2
 10
1181.7074071739466
 20
1019.5783634984613
 11
1179.3003616672252
 21
1017.1713179917399
  0
LINE
  8
_0-0_
  6
CONTINUOUS
 62
    2
 10
1246.1615646437826
 20
1018.6181031534504
 11
1244.7147794820721
 21
1017.1713179917399
  0
LINE
  8
_0-0_
  6
CONTINUOUS
 62
    2
 10
1246.1615646437826
 20
1023.0728758749257
 11
1240.2600067605968
 21
1017.1713179917399
  0
LINE
  8
_0-0_
  6
CONTINUOUS
 62
    2
 10
1246.1615646437826
 20
1027.5276485964009
 11
1235.8052340391216
 21
1017.1713179917399
  0
LINE
  8
_0-0_
  6
CONTINUOUS
 62
    2
 10
1246.1615646437826
 20
1031.9824213178763
 11
1231.3504613176462
 21
1017.1713179917399
  0
LINE
  8
_0-0_
  6
CONTINUOUS
 62
    2
 10
1246.1615646437826
 20
1036.4371940393514
 11
1226.8956885961711
 21
1017.1713179917399
  0
ARC
  8
_0-0_
  6
CONTINUOUS
 62
    4
 10
1180.2074071739466
 20
1075.1713179917399
 40
12
 50
90
 51
180
  0
ARC
  8
_0-0_
  6
CONTINUOUS
 62
    4
 10
1227.6615646437826
 20
1075.1713179917399
 40
12
 50
0
 51
90
  0
LINE
  8
_0-0_
  6
CONTINUOUS
 62
    4
 10
1227.6615646437826
 20
1087.1713179917399
 11
1226.1615646437826
 21
1087.1713179917399
  0
LINE
  8
_0-0_
  6
CONTINUOUS
 62
    4
 10
1181.7074071739466
 20
1087.1713179917399
 11
1180.2074071739466
 21
1087.1713179917399
  0
LINE
  8
_0-0_
  6
CONTINUOUS
 62
    2
 10
1161.7074071739466
 20
1037.1713179917399
 11
1161.7074071739466
 21
1037.1713179917399
  0
LINE
  8
_0-0_
  6
CONTINUOUS
 62
    2
 10
1161.7074071739466
 20
1037.1713179917399
 11
1168.6884265458793
 21
1036.3740087408064
  0
LINE
  8
_0-0_
  6
CONTINUOUS
 62
    2
 10
1168.6884265458793
 20
1036.3740087408064
 11
1175.7611761165178
 21
1036.4373813134741
  0
LINE
  8
_0-0_
  6
CONTINUOUS
 62
    2
 10
1175.7611761165178
 20
1036.4373813134741
 11
1181.7074071739466
 21
1037.1713179917399
  0
LINE
  8
_0-0_
  6
CONTINUOUS
 62
    2
 10
1163.3893353160781
 20
1036.8984734123956
 11
1161.7074071739466
 21
1035.2165452702641
  0
LINE
  8
_0-0_
  6
CONTINUOUS
 62
    2
 10
1167.4013077957918
 20
1036.4556731706339
 11
1161.7074071739466
 21
1030.7617725487887
  0
LINE
  8
_0-0_
  6
CONTINUOUS
 62
    2
 10
1171.6956958247818
 20
1036.2952884781484
 11
1161.7074071739466
 21
1026.3069998273133
  0
LINE
  8
_0-0_
  6
CONTINUOUS
 62
    2
 10
1176.3358455523551
 20
1036.4806654842459
 11
1161.7074071739466
 21
1021.8522271058375
  0
LINE
  8
_0-0_
  6
CONTINUOUS
 62
    2
 10
1181.4331694983325
 20
1037.1232167087483
 11
1161.7074071739466
 21
1017.3974543843623
  0
LINE
  8
_0-0_
  6
CONTINUOUS
 62
    2
 10
1228.6866541690401
 20
1036.7813744505113
 11
1226.1615646437826
 21
1034.2562849252538
  0
LINE
  8
_0-0_
  6
CONTINUOUS
 62
    2
 10
1232.7555757069238
 20
1036.3955232669191
 11
1226.1615646437826
 21
1029.801512203778
  0
LINE
  8
_0-0_
  6
CONTINUOUS
 62
    2
 10
1237.1180036942567
 20
1036.3031785327762
 11
1226.1615646437826
 21
1025.3467394823022
  0
LINE
  8
_0-0_
  6
CONTINUOUS
 62
    2
 10
1241.8448580391193
 20
1036.5752601561639
 11
1226.1615646437826
 21
1020.8919667608272
  0
LINE
  8
_0-0_
  6
CONTINUOUS
 62
    2
 10
1226.1615646437826
 20
1037.1713179917399
 11
1226.1615646437826
 21
1037.1713179917399
  0
LINE
  8
_0-0_
  6
CONTINUOUS
 62
    2
 10
1226.1615646437826
 20
1037.1713179917399
 11
1233.1425840157153
 21
1036.3740087408064
  0
LINE
  8
_0-0_
  6
CONTINUOUS
 62
    2
 10
1233.1425840157153
 20
1036.3740087408064
 11
1240.2153335863538
 21
1036.4373813134741
  0
LINE
  8
_0-0_
  6
CONTINUOUS
 62
    2
 10
1240.2153335863538
 20
1036.4373813134741
 11
1246.1615646437826
 21
1037.1713179917399
  0
POINT
  8
_0-0_
 62
    7
 10
1170.8182090066327
 20
1028.7997510905893
  0
LINE
  8
_0-0_
  6
CONTINUOUS
 62
    7
 10
1053.7353194053103
 20
1037.1713179917399
 11
1161.7074071739466
 21
1037.1713179917399
  0
LINE
  8
_0-0_
  6
CONTINUOUS
 62
    7
 10
1246.1615646437826
 20
1037.1713179917399
 11
1354.1336524124181
 21
1037.1713179917399
  0
LINE
  8
_0-0_
  6
CONTINUOUS
 62
    4
 10
1048.1434363132739
 20
1050.6713179917399
 11
1168.2074071739466
 21
1050.6713179917399
  0
LINE
  8
_0-0_
  6
CONTINUOUS
 62
    4
 10
1168.2074071739466
 20
1075.1713179917399
 11
1168.2074071739466
 21
1050.6713179917399
  0
LINE
  8
_0-0_
  6
CONTINUOUS
 62
    4
 10
1239.6615646437826
 20
1050.6713179917399
 11
1359.7255355044545
 21
1050.6713179917399
  0
LINE
  8
_0-0_
  6
CONTINUOUS
 62
    4
 10
1239.6615646437826
 20
1075.1713179917399
 11
1239.6615646437826
 21
1050.6713179917399
  0
LINE
  8
_0-0_
  6
CONTINUOUS
 62
    7
 10
1170.8182090066327
 20
1028.7997510905893
 11
1093.8655478637361
 21
1162.0856699677174
  0
TEXT
  8
_0-0_
 62
    7
 10
1008.160578192487
 20
1148.2873407716468
 40
30
 41
1
 50
0
  1
ｼｰﾘﾝｸﾞ
  0
TEXT
  8
_0-0_
 62
    7
 10
696.13606690525216
 20
1497.3565543671132
 40
20
 41
1
 50
0
  1
施工部位：基礎・架台(フェンス)
  0
ENDSEC
  0
EOF
