  0
SECTION
  2
HEADER
  9
$ACADVER
  1
AC1009
  9
$INSBASE
 10
0
 20
0
 30
0
  9
$EXTMIN
 10
0
 20
0
  9
$EXTMAX
 10
2378
 20
1682
  9
$LIMMIN
 10
0
 20
0
  9
$LIMMAX
 10
2378
 20
1682
  9
$LTSCALE
 40
1
  0
ENDSEC
  0
SECTION
  2
TABLES
  0
TABLE
  2
LTYPE
 70
     9
  0
LTYPE
  2
CONTINUOUS
 70
    64
  3
実線
 72
    65
 73
     0
 40
0.0
  0
LTYPE
  2
DASHED1
 70
    64
  3
--  --  --  --  --  --  --  --  
 72
    65
 73
     2
 40
2.5
 49
1.25
 49
-1.25
  0
LTYPE
  2
DASHED2
 70
    64
  3
----    ----    ----    ----    
 72
    65
 73
     2
 40
5.0
 49
2.5
 49
-2.5
  0
LTYPE
  2
DASHED3
 70
    64
  3
------  ------  ------  ------  
 72
    65
 73
     2
 40
5.0
 49
3.75
 49
-1.25
  0
LTYPE
  2
CENTER1
 70
    64
  3
----- - ----- - ----- - ----- - 
 72
    65
 73
     4
 40
10.0
 49
6.25
 49
-1.25
 49
1.25
 49
-1.25
  0
LTYPE
  2
CENTER2
 70
    64
  3
----------  --  ----------  --  
 72
    65
 73
     4
 40
20.0
 49
12.5
 49
-2.5
 49
2.5
 49
-2.5
  0
LTYPE
  2
PHANTOM1
 70
    64
  3
--- - - --- - - --- - - --- - - 
 72
    65
 73
     6
 40
10.0
 49
3.25
 49
-1.25
 49
1.25
 49
-1.25
 49
1.25
 49
-1.25
  0
LTYPE
  2
PHANTOM2
 70
    64
  3
--------  -  -  --------  -  -  
 72
    65
 73
     6
 40
20.0
 49
10.0
 49
-2.5
 49
1.25
 49
-2.5
 49
1.25
 49
-2.5
  0
LTYPE
  2
DOT
 70
    64
  3
-   -   -   -   -   -   -   -   
 72
    65
 73
     2
 40
2.5
 49
0.625
 49
-1.875
  0
LTYPE
  2
DUMMY
 70
    64
  3
ダミー
 72
    65
 73
     0
 40
0.0
  0
LTYPE
  2
RAND1
 70
    64
  3
ランダム線1
 72
    65
 73
     4
 40
10.0
 49
1.0
 49
-2.0
 49
3.0
 49
-4.0
  0
LTYPE
  2
RAND2
 70
    64
  3
ランダム線2
 72
    65
 73
     4
 40
14.0
 49
2.0
 49
-3.0
 49
4.0
 49
-5.0
  0
LTYPE
  2
RAND3
 70
    64
  3
ランダム線3
 72
    65
 73
     4
 40
18.0
 49
3.0
 49
-4.0
 49
5.0
 49
-6.0
  0
LTYPE
  2
RAND4
 70
    64
  3
ランダム線4
 72
    65
 73
     4
 40
22.0
 49
4.0
 49
-5.0
 49
6.0
 49
-7.0
  0
LTYPE
  2
RAND5
 70
    64
  3
ランダム線5
 72
    65
 73
     4
 40
26.0
 49
5.0
 49
-6.0
 49
7.0
 49
-8.0
  0
LTYPE
  2
LONG1
 70
    64
  3
----------  --  ----------  --  
 72
    65
 73
     4
 40
40.0
 49
32.5
 49
-2.5
 49
2.5
 49
-2.5
  0
LTYPE
  2
LONG2
 70
    64
  3
--------  -  -  --------  -  -  
 72
    65
 73
     6
 40
40.0
 49
30.0
 49
-2.5
 49
1.25
 49
-2.5
 49
1.25
 49
-2.5
  0
LTYPE
  2
LONG3
 70
    64
  3
+++++++++++++++..+++++++++++++++
 72
    65
 73
     2
 40
40.0
 49
37.5
 49
-2.5
  0
LTYPE
  2
LONG4
 70
    64
  3
+++++++++++++++..+++++++++++++++
 72
    65
 73
     2
 40
80.0
 49
75.0
 49
-5.0
  0
LTYPE
  2
LONG5
 70
    64
  3
----------  --  ----------  --  
 72
    65
 73
     4
 40
60.0
 49
37.5
 49
-7.5
 49
7.5
 49
-7.5
  0
LTYPE
  2
dashed
 70
   64
  3
-------   -------------   ------
 72
   65
 73
    2
 40
7.5
 49
6
 49
-1.5
  0
LTYPE
  2
dashed_spaced
 70
   64
  3
----        --------        ----
 72
   65
 73
    2
 40
12
 49
6
 49
-6
  0
LTYPE
  2
long_dashed_dotted
 70
   64
  3
------------- --- --------------
 72
   65
 73
    4
 40
15.25
 49
12
 49
-1.5
 49
0.25
 49
-1.5
  0
LTYPE
  2
long_dashed_double-dotted
 70
   64
  3
----------- --- --- ------------
 72
   65
 73
    6
 40
17
 49
12
 49
-1.5
 49
0.25
 49
-1.5
 49
0.25
 49
-1.5
  0
LTYPE
  2
long_dashed_triplicate-dotted
 70
   64
  3
--------- --- --- --- ----------
 72
   65
 73
    8
 40
18.75
 49
12
 49
-1.5
 49
0.25
 49
-1.5
 49
0.25
 49
-1.5
 49
0.25
 49
-1.5
  0
LTYPE
  2
dotted
 70
   64
  3
   -       -       -       -    
 72
   65
 73
    2
 40
1.75
 49
0.25
 49
-1.5
  0
LTYPE
  2
chain
 70
   64
  3
-------------- -- --------------
 72
   65
 73
    4
 40
18.5
 49
12
 49
-1.5
 49
3.5
 49
-1.5
  0
LTYPE
  2
chain_double_dash
 70
   64
  3
------------ -- -- -------------
 72
   65
 73
    6
 40
23.5
 49
12
 49
-1.5
 49
3.5
 49
-1.5
 49
3.5
 49
-1.5
  0
LTYPE
  2
dashed_dotted
 70
   64
  3
-----------     -     ----------
 72
   65
 73
    4
 40
9.25
 49
6
 49
-1.5
 49
0.25
 49
-1.5
  0
LTYPE
  2
double-dashed_dotted
 70
   64
  3
------   -----------   -   -----
 72
   65
 73
    6
 40
16.75
 49
6
 49
-1.5
 49
6
 49
-1.5
 49
0.25
 49
-1.5
  0
LTYPE
  2
dashed_double-dotted
 70
   64
  3
---------    -    -    ---------
 72
   65
 73
    6
 40
11
 49
6
 49
-1.5
 49
0.25
 49
-1.5
 49
0.25
 49
-1.5
  0
LTYPE
  2
double-dashed_double-dotted
 70
   64
  3
-----   ---------   -   -   ----
 72
   65
 73
    8
 40
18.5
 49
6
 49
-1.5
 49
6
 49
-1.5
 49
0.25
 49
-1.5
 49
0.25
 49
-1.5
  0
LTYPE
  2
dashed_triplicate-dotted
 70
   64
  3
-------    -    -    -    ------
 72
   65
 73
    8
 40
12.75
 49
6
 49
-1.5
 49
0.25
 49
-1.5
 49
0.25
 49
-1.5
 49
0.25
 49
-1.5
  0
LTYPE
  2
double-dashed_triplicate-dotted
 70
   64
  3
-----  ---------  -  -  -  -----
 72
   65
 73
   10
 40
20.25
 49
6
 49
-1.5
 49
6
 49
-1.5
 49
0.25
 49
-1.5
 49
0.25
 49
-1.5
 49
0.25
 49
-1.5
  0
LTYPE
  2
undefined
 70
   64
  3
--------------------------------
 72
   65
 73
    0
 40
0
  0
ENDTAB
  0
TABLE
  2
STYLE
  5
3
100
AcDbSymbolTable
 70
     1
  0
STYLE
  5
10
100
AcDbSymbolTableRecord
100
AcDbTextStyleTableRecord
  2
STANDARD
 70
     0
 40
0.0
 41
1.0
 50
0.0
 71
     0
 42
0.2
  3
txt
  4
bigfont.shx
  0
STYLE
  5
26
100
AcDbSymbolTableRecord
100
AcDbTextStyleTableRecord
  2
TATEGAKI
 70
    68
 40
0.0
 41
1.0
 50
0.0
 71
     0
 42
1.0
  3
txt
  4
bigfont.shx
  0
ENDTAB
  0
TABLE
  2
LAYER
 70
    2
  0
LAYER
  2
_0-0_
 70
   64
 62
    7
  6
CONTINUOUS
  0
LAYER
  2
ADD_LINE
 70
   64
 62
    7
  6
CONTINUOUS
  0
ENDTAB
  0
ENDSEC
  0
SECTION
  2
BLOCKS
  0
ENDSEC
  0
SECTION
  2
ENTITIES
  0
LINE
  8
_0-0_
  6
CONTINUOUS
 62
    7
 10
917.5198203743895
 20
227.5942743390226
 11
917.5198203743895
 21
370.74005731514831
  0
LINE
  8
_0-0_
  6
CONTINUOUS
 62
    7
 10
1043.925499156112
 20
1158.9922480620155
 11
1023.9254991561121
 21
1158.9922480620155
  0
LINE
  8
_0-0_
  6
CONTINUOUS
 62
    7
 10
672.13606690525205
 20
567.53106997205509
 11
1706.8525777203668
 21
567.53106997205509
  0
LINE
  8
_0-0_
  6
CONTINUOUS
 62
    7
 10
672.13606690525205
 20
167.53106997205509
 11
1706.8525777203668
 21
167.53106997205509
  0
LINE
  8
_0-0_
  6
CONTINUOUS
 62
    7
 10
672.13606690525205
 20
627.53106997205509
 11
1706.8525777203668
 21
627.53106997205509
  0
LINE
  8
_0-0_
  6
CONTINUOUS
 62
    7
 10
1189.4943223128103
 20
627.53106997205509
 11
1189.4943223128103
 21
167.53106997205509
  0
LINE
  8
_0-0_
  6
CONTINUOUS
 62
    7
 10
672.13606690525205
 20
1633.3565543671132
 11
672.13606690525205
 21
167.53106997205509
  0
LINE
  8
_0-0_
  6
CONTINUOUS
 62
    7
 10
1706.8525777203668
 20
1633.3565543671132
 11
1706.8525777203668
 21
167.53106997205509
  0
TEXT
  8
_0-0_
 62
    7
 10
906.73245032900388
 20
575.67973412101151
 40
40
 41
1
 50
0
  1
Ａ
  0
TEXT
  8
_0-0_
 62
    7
 10
1429.6891920142098
 20
576.02721287347708
 40
40
 41
1
 50
0
  1
Ｂ
  0
LINE
  8
_0-0_
  6
CONTINUOUS
 62
    7
 10
873.9254991561121
 20
1020.2671375299308
 11
1043.925499156112
 21
1190.2671375299308
  0
LINE
  8
_0-0_
  6
CONTINUOUS
 62
    7
 10
873.9254991561121
 20
1013.1960697180659
 11
1043.925499156112
 21
1183.1960697180659
  0
LINE
  8
_0-0_
  6
CONTINUOUS
 62
    7
 10
1026.7927453119264
 20
1158.9922480620155
 11
1043.925499156112
 21
1176.1250019062011
  0
LINE
  8
_0-0_
  6
CONTINUOUS
 62
    7
 10
873.92549915611391
 20
1006.125001906202
 11
1023.9254991561121
 21
1156.1250019062011
  0
LINE
  8
_0-0_
  6
CONTINUOUS
 62
    7
 10
963.42404853958408
 20
1440.9858702173553
 11
954.24684853958399
 21
1427.8794702173548
  0
LINE
  8
_0-0_
  6
CONTINUOUS
 62
    7
 10
963.42404853958408
 20
1440.9858702173553
 11
961.03894853958457
 21
1434.4326702173551
  0
LINE
  8
_0-0_
  6
CONTINUOUS
 62
    7
 10
954.24684853958399
 20
1427.8794702173539
 11
956.63194853958532
 21
1434.4326702173551
  0
LINE
  8
_0-0_
  6
CONTINUOUS
 62
    7
 10
860.77661825290318
 20
1434.4326702173551
 11
956.63194853958532
 21
1434.4326702173551
  0
LINE
  8
_0-0_
  6
CONTINUOUS
 62
    7
 10
961.03894853958457
 20
1434.4326702173551
 11
1057.4345825254313
 21
1434.4326702173551
  0
LINE
  8
_0-0_
  6
CONTINUOUS
 62
    7
 10
873.9254991561121
 20
1434.4326702173551
 11
873.9254991561121
 21
772.99224806201551
  0
LINE
  8
_0-0_
  6
CONTINUOUS
 62
    7
 10
1043.925499156112
 20
1158.9922480620155
 11
1043.925499156112
 21
1434.4326702173551
  0
LINE
  8
_0-0_
  6
CONTINUOUS
 62
    7
 10
873.9254991561121
 20
1246.541307509626
 11
1043.925499156112
 21
1416.5413075096251
  0
LINE
  8
_0-0_
  6
CONTINUOUS
 62
    7
 10
873.9254991561121
 20
1239.4702396977611
 11
1043.925499156112
 21
1409.4702396977611
  0
LINE
  8
_0-0_
  6
CONTINUOUS
 62
    7
 10
873.92549915611391
 20
1232.3991718858972
 11
1043.925499156112
 21
1402.399171885899
  0
ARC
  8
_0-0_
  6
CONTINUOUS
 62
    2
 10
1066.5536812488153
 20
1122.3640659693131
 40
43.054132766050088
 50
121.70696983898064
 51
148.29303016101935
  0
LINE
  8
_0-0_
  6
CONTINUOUS
 62
    2
 10
1029.925499156112
 20
1145.3246617864427
 11
1030.5044093276501
 21
1145.9035719579799
  0
LINE
  8
_0-0_
  6
CONTINUOUS
 62
    2
 10
1043.0141752601485
 20
1158.4133378904783
 11
1043.5930854316848
 21
1158.9922480620155
  0
LINE
  8
_0-0_
  6
CONTINUOUS
 62
    2
 10
1029.925499156112
 20
1148.1530889111893
 11
1040.7646583069381
 21
1158.9922480620146
  0
LINE
  8
_0-0_
  6
CONTINUOUS
 62
    2
 10
1029.9254991561138
 20
1150.9815160359351
 11
1037.9362311821933
 21
1158.9922480620146
  0
LINE
  8
_0-0_
  6
CONTINUOUS
 62
    2
 10
1029.9254991561138
 20
1153.8099431606818
 11
1035.1078040574484
 21
1158.9922480620155
  0
LINE
  8
_0-0_
  6
CONTINUOUS
 62
    2
 10
1029.925499156112
 20
1156.6383702854275
 11
1032.2793769327018
 21
1158.9922480620155
  0
LINE
  8
_0-0_
  6
CONTINUOUS
 62
    7
 10
962.5198203743895
 20
370.74005731514831
 11
917.5198203743895
 21
370.74005731514831
  0
LINE
  8
_0-0_
  6
CONTINUOUS
 62
    7
 10
923.97112422497059
 20
370.74005731514831
 11
962.5198203743895
 21
409.28875346456539
  0
ARC
  8
_0-0_
  6
CONTINUOUS
 62
    2
 10
1013.4332300829702
 20
288.32664760656758
 40
96.871798723612699
 50
121.70696983898064
 51
148.29303016101935
  0
LINE
  8
_0-0_
  6
CONTINUOUS
 62
    2
 10
931.0198203743895
 20
339.98798819510944
 11
932.32236826034762
 21
341.29053608106847
  0
LINE
  8
_0-0_
  6
CONTINUOUS
 62
    2
 10
960.46934160846843
 20
369.43750942918928
 11
961.77188949442836
 21
370.74005731514831
  0
LINE
  8
_0-0_
  6
CONTINUOUS
 62
    2
 10
931.01982037438768
 20
346.35194922578944
 11
955.40792846374654
 21
370.74005731514649
  0
LINE
  8
_0-0_
  6
CONTINUOUS
 62
    2
 10
931.01982037439132
 20
352.71591025646762
 11
949.04396743307018
 21
370.74005731514649
  0
LINE
  8
_0-0_
  6
CONTINUOUS
 62
    2
 10
931.01982037439132
 20
359.07987128714763
 11
942.680006402392
 21
370.74005731514831
  0
LINE
  8
_0-0_
  6
CONTINUOUS
 62
    2
 10
931.0198203743895
 20
365.44383231782581
 11
936.31604537171199
 21
370.74005731514831
  0
LINE
  8
_0-0_
  6
CONTINUOUS
 62
    7
 10
749.00553609545398
 20
227.5942743390226
 11
962.5198203743895
 21
441.10855861795812
  0
LINE
  8
_0-0_
  6
CONTINUOUS
 62
    7
 10
764.91543867215125
 20
227.5942743390226
 11
962.5198203743895
 21
425.19865604126176
  0
LINE
  8
_0-0_
  6
CONTINUOUS
 62
    7
 10
780.82534124884671
 20
227.5942743390226
 11
917.5198203743895
 21
364.28875346456539
  0
LINE
  8
_0-0_
  6
CONTINUOUS
 62
    4
 10
931.0198203743895
 20
370.74005731514831
 11
931.0198203743895
 21
227.5942743390226
  0
LINE
  8
_0-0_
  6
CONTINUOUS
 62
    7
 10
962.5198203743895
 20
370.74005731514831
 11
962.5198203743895
 21
515.6556359188819
  0
CIRCLE
  8
_0-0_
  6
DASHED2
 62
    1
 10
1029.925499156112
 20
1158.9922480620155
 40
37.146580028874958
  0
TEXT
  8
_0-0_
 62
    7
 10
998.36270444083686
 20
1179.0441725931817
 40
24
 41
1
 50
0
  1
Ａ
  0
LINE
  8
_0-0_
  6
CONTINUOUS
 62
    7
 10
942.79811433799671
 20
361.98705854438435
 11
1004.3614497458167
 21
468.61788335413189
  0
POINT
  8
_0-0_
 62
    7
 10
942.79811433799671
 20
361.98705854438435
  0
TEXT
  8
_0-0_
 62
    7
 10
1007.085024193808
 20
459.52581832561395
 40
21.617968000000001
 41
1
 50
0
  1
ｼｰﾘﾝｸﾞ
  0
LINE
  8
_0-0_
  6
CONTINUOUS
 62
    7
 10
1605.020716245308
 20
241.01886692756693
 11
1285.5056389822948
 21
241.01886692756693
  0
LINE
  8
_0-0_
  6
CONTINUOUS
 62
    7
 10
1285.5056389822948
 20
241.01886692756875
 11
1285.5056389822948
 21
473.06756307698583
  0
LINE
  8
_0-0_
  6
CONTINUOUS
 62
    7
 10
1344.0056389822948
 20
309.03637977315179
 11
1387.2731518278797
 21
265.76886692756875
  0
LINE
  8
_0-0_
  6
CONTINUOUS
 62
    5
 10
1344.0056389822948
 20
445.76886692757057
 11
1344.0056389822948
 21
265.76886692757057
  0
LINE
  8
_0-0_
  6
CONTINUOUS
 62
    5
 10
1299.0056389822948
 20
445.76886692757057
 11
1344.0056389822948
 21
445.76886692757057
  0
LINE
  8
_0-0_
  6
CONTINUOUS
 62
    5
 10
1299.0056389822948
 20
277.91498182727832
 11
1311.1517538820044
 21
265.76886692757057
  0
LINE
  8
_0-0_
  6
CONTINUOUS
 62
    5
 10
1299.0056389822967
 20
290.64290388863469
 11
1323.8796759433608
 21
265.76886692756875
  0
LINE
  8
_0-0_
  6
CONTINUOUS
 62
    5
 10
1299.0056389822948
 20
303.37082594999106
 11
1336.6075980047153
 21
265.76886692757057
  0
LINE
  8
_0-0_
  6
CONTINUOUS
 62
    5
 10
1299.0056389822948
 20
316.09874801135288
 11
1344.0056389822948
 21
271.09874801135288
  0
LINE
  8
_0-0_
  6
CONTINUOUS
 62
    5
 10
1299.0056389822948
 20
328.82667007271107
 11
1344.0056389822948
 21
283.82667007271107
  0
LINE
  8
_0-0_
  6
CONTINUOUS
 62
    5
 10
1299.0056389822948
 20
341.55459213406743
 11
1344.0056389822948
 21
296.55459213406925
  0
LINE
  8
_0-0_
  6
CONTINUOUS
 62
    5
 10
1299.0056389822967
 20
354.28251419542744
 11
1344.0056389822948
 21
309.28251419542744
  0
LINE
  8
_0-0_
  6
CONTINUOUS
 62
    5
 10
1299.0056389822948
 20
367.01043625678381
 11
1344.0056389822948
 21
322.01043625678381
  0
LINE
  8
_0-0_
  6
CONTINUOUS
 62
    5
 10
1299.0056389822948
 20
379.73835831813835
 11
1344.0056389822967
 21
334.73835831813835
  0
LINE
  8
_0-0_
  6
CONTINUOUS
 62
    5
 10
1299.0056389822967
 20
392.46628037949472
 11
1344.0056389822948
 21
347.46628037949472
  0
LINE
  8
_0-0_
  6
CONTINUOUS
 62
    5
 10
1299.0056389822948
 20
405.19420244085472
 11
1344.0056389822967
 21
360.19420244085472
  0
LINE
  8
_0-0_
  6
CONTINUOUS
 62
    5
 10
1299.0056389822948
 20
417.92212450221473
 11
1344.0056389822948
 21
372.92212450221655
  0
LINE
  8
_0-0_
  6
CONTINUOUS
 62
    5
 10
1299.0056389822967
 20
430.65004656357473
 11
1344.0056389822967
 21
385.65004656357473
  0
LINE
  8
_0-0_
  6
CONTINUOUS
 62
    5
 10
1299.0056389822948
 20
443.37796862493292
 11
1344.0056389822948
 21
398.3779686249311
  0
LINE
  8
_0-0_
  6
CONTINUOUS
 62
    5
 10
1309.3426627410117
 20
445.76886692756875
 11
1344.0056389822967
 21
411.10589068628565
  0
LINE
  8
_0-0_
  6
CONTINUOUS
 62
    5
 10
1322.0705848023717
 20
445.76886692757057
 11
1344.0056389822948
 21
423.83381274764747
  0
LINE
  8
_0-0_
  6
CONTINUOUS
 62
    5
 10
1334.7985068637299
 20
445.76886692756875
 11
1344.0056389822948
 21
436.56173480900202
  0
LINE
  8
_0-0_
  6
CONTINUOUS
 62
    7
 10
1344.0056389822948
 20
340.85618492654635
 11
1419.0929569812743
 21
265.76886692756875
  0
LINE
  8
_0-0_
  6
CONTINUOUS
 62
    7
 10
1344.0056389822948
 20
324.94628234984907
 11
1403.1830544045788
 21
265.76886692756875
  0
LINE
  8
_0-0_
  6
CONTINUOUS
 62
    4
 10
1299.0056389822948
 20
473.06756307698583
 11
1299.0056389822948
 21
261.26886692756875
  0
LINE
  8
_0-0_
  6
CONTINUOUS
 62
    7
 10
1605.020716245308
 20
445.76886692757057
 11
1299.0056389822948
 21
445.76886692757057
  0
LINE
  8
_0-0_
  6
CONTINUOUS
 62
    7
 10
1299.0056389822948
 20
265.76886692756875
 11
1605.020716245308
 21
265.76886692756875
  0
LINE
  8
_0-0_
  6
CONTINUOUS
 62
    5
 10
1299.0056389822948
 20
263.51886692756875
 11
1605.020716245308
 21
263.51886692756875
  0
LINE
  8
_0-0_
  6
CONTINUOUS
 62
    4
 10
1299.0056389822948
 20
261.26886692756875
 11
1605.020716245308
 21
261.26886692756875
  0
LINE
  8
_0-0_
  6
CONTINUOUS
 62
    7
 10
1470.7540201338015
 20
181.01886692756875
 11
1530.7540201337997
 21
241.01886692756693
  0
LINE
  8
_0-0_
  6
CONTINUOUS
 62
    7
 10
1486.6639227104952
 20
181.01886692756875
 11
1546.6639227104934
 21
241.01886692756693
  0
LINE
  8
_0-0_
  6
CONTINUOUS
 62
    7
 10
1502.5738252871924
 20
181.01886692756875
 11
1562.5738252871906
 21
241.01886692756693
  0
LINE
  8
_0-0_
  6
CONTINUOUS
 62
    7
 10
1225.5056389822948
 20
413.06756307698583
 11
1285.5056389822948
 21
473.06756307698583
  0
LINE
  8
_0-0_
  6
CONTINUOUS
 62
    7
 10
1225.5056389822948
 20
428.97746565368311
 11
1269.5957364055976
 21
473.06756307698583
  0
LINE
  8
_0-0_
  6
CONTINUOUS
 62
    7
 10
1225.5056389822948
 20
444.88736823037857
 11
1253.6858338289039
 21
473.06756307698583
  0
LINE
  8
_0-0_
  6
CONTINUOUS
 62
    7
 10
1326.7411599834049
 20
421.20302280553392
 11
1355.1760468726479
 21
470.45369160517862
  0
TEXT
  8
_0-0_
 62
    7
 10
1356.6290949394479
 20
462.85116533970199
 40
21.617968000000001
 41
1
 50
0
  1
成型緩衝材
  0
LINE
  8
_0-0_
  6
CONTINUOUS
 62
    7
 10
1562.5738252871906
 20
241.01886692756693
 11
1606.0667250792303
 21
316.35077913588088
  0
POINT
  8
_0-0_
 62
    7
 10
1562.5738252871906
 20
241.01886692756693
  0
TEXT
  8
_0-0_
 62
    7
 10
1611.4305308309395
 20
304.70196697176311
 40
21.617968000000001
 41
1
 50
0
  1
ﾌﾟﾗｲﾏｰ
  0
TEXT
  8
_0-0_
 62
    7
 10
1578.1250389396137
 20
365.56054241059542
 40
21.617968000000001
 41
1
 50
0
  1
ｳﾚﾀﾝ防水
  0
LINE
  8
_0-0_
  6
CONTINUOUS
 62
    7
 10
1506.1262288623457
 20
253.40854979023629
 11
1575.1695486341923
 21
372.99508755829925
  0
POINT
  8
_0-0_
 62
    7
 10
1506.1262288623457
 20
253.40854979023629
  0
LINE
  8
_0-0_
  6
CONTINUOUS
 62
    7
 10
1466.9063968908504
 20
263.51886692756875
 11
1580.3752933237156
 21
460.0527606280632
  0
POINT
  8
_0-0_
 62
    7
 10
1466.9063968908504
 20
263.51886692756875
  0
TEXT
  8
_0-0_
 62
    7
 10
1582.6256994911528
 20
453.43586618722679
 40
21.617968000000001
 41
1
 50
0
  1
絶縁ﾌｨﾙﾑ
  0
POINT
  8
_0-0_
 62
    7
 10
1326.7411599834049
 20
421.20302280553392
  0
POINT
  8
_0-0_
 62
    7
 10
1465.7231729378818
 20
421.20302280553392
  0
LINE
  8
_0-0_
  6
CONTINUOUS
 62
    7
 10
1465.7231729378818
 20
421.20302280553392
 11
1507.6225355837323
 21
493.77484771290096
  0
TEXT
  8
_0-0_
 62
    7
 10
1508.7925248259289
 20
487.03942645152733
 40
21.617968000000001
 41
1
 50
0
  1
保護ｺﾝｸﾘｰﾄ
  0
POINT
  8
_0-0_
 62
    7
 10
1309.3426627410117
 20
445.76886692756875
  0
LINE
  8
_0-0_
  6
CONTINUOUS
 62
    7
 10
1299.0056389822948
 20
463.67311727671427
 11
1335.3140214224532
 21
526.56108040370987
  0
POINT
  8
_0-0_
 62
    7
 10
1299.0056389822948
 20
463.67311727671427
  0
TEXT
  8
_0-0_
 62
    7
 10
1338.1879477510902
 20
521.23395058359733
 40
21.617968000000001
 41
1
 50
0
  1
ﾄｯﾌﾟｺｰﾄ(露出部のみ)
  0
LINE
  8
_0-0_
  6
CONTINUOUS
 62
    7
 10
1223.925499156112
 20
802.99224806201551
 11
1523.925499156112
 21
802.99224806201551
  0
LINE
  8
_0-0_
  6
CONTINUOUS
 62
    7
 10
1223.925499156112
 20
802.99224806201551
 11
1223.925499156112
 21
772.99224806201551
  0
LINE
  8
_0-0_
  6
CONTINUOUS
 62
    7
 10
1079.198949647589
 20
772.99224806201551
 11
1289.198949647589
 21
982.99224806201551
  0
LINE
  8
_0-0_
  6
CONTINUOUS
 62
    7
 10
1086.270017459452
 20
772.99224806201551
 11
1296.270017459452
 21
982.99224806201551
  0
LINE
  8
_0-0_
  6
CONTINUOUS
 62
    7
 10
1093.3410852713168
 20
772.9922480620146
 11
1303.3410852713187
 21
982.99224806201551
  0
LINE
  8
_0-0_
  6
CONTINUOUS
 62
    7
 10
873.92549915611391
 20
779.85083192650677
 11
1077.0669152916234
 21
982.99224806201642
  0
LINE
  8
_0-0_
  6
CONTINUOUS
 62
    7
 10
873.9254991561121
 20
786.92189973837071
 11
1069.9958474797568
 21
982.99224806201551
  0
LINE
  8
_0-0_
  6
CONTINUOUS
 62
    7
 10
873.9254991561121
 20
793.99296755023647
 11
1062.9247796678919
 21
982.99224806201551
  0
LINE
  8
_0-0_
  6
CONTINUOUS
 62
    5
 10
1029.925499156112
 20
992.99224806201551
 11
1523.925499156112
 21
992.99224806201551
  0
LINE
  8
_0-0_
  6
CONTINUOUS
 62
    7
 10
1029.925499156112
 20
993.99224806201551
 11
1523.925499156112
 21
993.99224806201551
  0
LINE
  8
_0-0_
  6
CONTINUOUS
 62
    7
 10
1185.9170117350404
 20
1073.9922480620164
 11
1029.925499156112
 21
1073.9922480620164
  0
LINE
  8
_0-0_
  6
CONTINUOUS
 62
    7
 10
1243.7139460924172
 20
1073.9922480620164
 11
1323.7139460924172
 21
993.99224806201642
  0
LINE
  8
_0-0_
  6
CONTINUOUS
 62
    7
 10
1236.6428782805506
 20
1073.9922480620164
 11
1316.6428782805506
 21
993.99224806201642
  0
LINE
  8
_0-0_
  6
CONTINUOUS
 62
    7
 10
1229.5718104686857
 20
1073.9922480620155
 11
1309.5718104686857
 21
993.99224806201551
  0
LINE
  8
_0-0_
  6
CONTINUOUS
 62
    7
 10
1213.9170117350404
 20
1073.9922480620164
 11
1523.925499156112
 21
1073.9922480620164
  0
LINE
  8
_0-0_
  6
CONTINUOUS
 62
    7
 10
1484.130251695844
 20
1073.9922480620155
 11
1523.925499156112
 21
1034.1970006017475
  0
LINE
  8
_0-0_
  6
CONTINUOUS
 62
    7
 10
1491.2013195077088
 20
1073.9922480620155
 11
1523.925499156112
 21
1041.2680684136124
  0
LINE
  8
_0-0_
  6
CONTINUOUS
 62
    7
 10
1498.2723873195737
 20
1073.9922480620164
 11
1523.925499156112
 21
1048.3391362254772
  0
LINE
  8
_0-0_
  6
CONTINUOUS
 62
    7
 10
1049.925499156112
 20
1013.2222537711634
 11
1069.1555048652608
 21
993.99224806201551
  0
LINE
  8
_0-0_
  6
CONTINUOUS
 62
    7
 10
1049.925499156112
 20
1006.1511859592977
 11
1062.0844370533941
 21
993.99224806201642
  0
LINE
  8
_0-0_
  6
CONTINUOUS
 62
    7
 10
1049.925499156112
 20
999.08011814743281
 11
1055.0133692415293
 21
993.99224806201642
  0
LINE
  8
_0-0_
  6
CONTINUOUS
 62
    5
 10
1209.9170117350404
 20
1070.4922480620164
 11
1209.9170117350404
 21
993.99224806201642
  0
LINE
  8
_0-0_
  6
CONTINUOUS
 62
    5
 10
1189.9170117350404
 20
1070.4922480620164
 11
1209.9170117350404
 21
1070.4922480620164
  0
LINE
  8
_0-0_
  6
CONTINUOUS
 62
    5
 10
1189.9170117350404
 20
993.99224806201642
 11
1189.9170117350404
 21
1070.4922480620164
  0
LINE
  8
_0-0_
  6
CONTINUOUS
 62
    5
 10
1188.9170117350404
 20
1071.9922480620164
 11
1210.9170117350404
 21
1071.9922480620164
  0
LINE
  8
_0-0_
  6
CONTINUOUS
 62
    5
 10
1188.9170117350404
 20
1070.9922480620164
 11
1188.9170117350404
 21
1071.9922480620164
  0
LINE
  8
_0-0_
  6
CONTINUOUS
 62
    5
 10
1190.9170117350404
 20
1070.9922480620164
 11
1188.9170117350404
 21
1070.9922480620164
  0
LINE
  8
_0-0_
  6
CONTINUOUS
 62
    5
 10
1190.9170117350404
 20
1070.4922480620164
 11
1190.9170117350404
 21
1070.9922480620164
  0
LINE
  8
_0-0_
  6
CONTINUOUS
 62
    5
 10
1188.9170117350404
 20
1070.4922480620164
 11
1190.9170117350404
 21
1070.4922480620164
  0
LINE
  8
_0-0_
  6
CONTINUOUS
 62
    5
 10
1188.9170117350404
 20
1058.9922480620164
 11
1188.9170117350404
 21
1070.4922480620164
  0
LINE
  8
_0-0_
  6
CONTINUOUS
 62
    5
 10
1189.4170117350404
 20
1058.9922480620164
 11
1188.9170117350404
 21
1058.9922480620164
  0
LINE
  8
_0-0_
  6
CONTINUOUS
 62
    5
 10
1188.9170117350404
 20
1057.9922480620164
 11
1189.4170117350404
 21
1058.9922480620164
  0
LINE
  8
_0-0_
  6
CONTINUOUS
 62
    5
 10
1188.9170117350404
 20
1044.9922480620164
 11
1188.9170117350404
 21
1057.9922480620164
  0
LINE
  8
_0-0_
  6
CONTINUOUS
 62
    5
 10
1189.4170117350404
 20
1044.9922480620164
 11
1188.9170117350404
 21
1044.9922480620164
  0
LINE
  8
_0-0_
  6
CONTINUOUS
 62
    5
 10
1188.9170117350404
 20
1043.9922480620164
 11
1189.4170117350404
 21
1044.9922480620164
  0
LINE
  8
_0-0_
  6
CONTINUOUS
 62
    5
 10
1187.9170117350404
 20
1043.9922480620164
 11
1188.9170117350404
 21
1043.9922480620164
  0
LINE
  8
_0-0_
  6
CONTINUOUS
 62
    5
 10
1187.9170117350404
 20
1070.4922480620164
 11
1187.9170117350404
 21
1043.9922480620164
  0
LINE
  8
_0-0_
  6
CONTINUOUS
 62
    5
 10
1187.4170117350404
 20
1070.4922480620164
 11
1187.9170117350404
 21
1070.4922480620164
  0
LINE
  8
_0-0_
  6
CONTINUOUS
 62
    5
 10
1187.4170117350404
 20
1072.4922480620164
 11
1187.4170117350404
 21
1070.4922480620164
  0
LINE
  8
_0-0_
  6
CONTINUOUS
 62
    5
 10
1212.4170117350404
 20
1072.4922480620164
 11
1187.4170117350404
 21
1072.4922480620164
  0
LINE
  8
_0-0_
  6
CONTINUOUS
 62
    5
 10
1212.4170117350404
 20
1070.4922480620164
 11
1212.4170117350404
 21
1072.4922480620164
  0
LINE
  8
_0-0_
  6
CONTINUOUS
 62
    5
 10
1211.9170117350404
 20
1070.4922480620164
 11
1212.4170117350404
 21
1070.4922480620164
  0
LINE
  8
_0-0_
  6
CONTINUOUS
 62
    5
 10
1211.9170117350404
 20
1043.9922480620164
 11
1211.9170117350404
 21
1070.4922480620164
  0
LINE
  8
_0-0_
  6
CONTINUOUS
 62
    5
 10
1210.9170117350404
 20
1043.9922480620164
 11
1211.9170117350404
 21
1043.9922480620164
  0
LINE
  8
_0-0_
  6
CONTINUOUS
 62
    5
 10
1210.4170117350404
 20
1044.9922480620164
 11
1210.9170117350404
 21
1043.9922480620164
  0
LINE
  8
_0-0_
  6
CONTINUOUS
 62
    5
 10
1210.9170117350404
 20
1044.9922480620164
 11
1210.4170117350404
 21
1044.9922480620164
  0
LINE
  8
_0-0_
  6
CONTINUOUS
 62
    5
 10
1210.9170117350404
 20
1057.9922480620164
 11
1210.9170117350404
 21
1044.9922480620164
  0
LINE
  8
_0-0_
  6
CONTINUOUS
 62
    5
 10
1210.4170117350404
 20
1058.9922480620164
 11
1210.9170117350404
 21
1057.9922480620164
  0
LINE
  8
_0-0_
  6
CONTINUOUS
 62
    5
 10
1210.9170117350404
 20
1058.9922480620164
 11
1210.4170117350404
 21
1058.9922480620164
  0
LINE
  8
_0-0_
  6
CONTINUOUS
 62
    5
 10
1210.9170117350404
 20
1070.4922480620164
 11
1210.9170117350404
 21
1058.9922480620164
  0
LINE
  8
_0-0_
  6
CONTINUOUS
 62
    5
 10
1208.9170117350404
 20
1070.4922480620164
 11
1210.9170117350404
 21
1070.4922480620164
  0
LINE
  8
_0-0_
  6
CONTINUOUS
 62
    5
 10
1208.9170117350404
 20
1070.9922480620164
 11
1208.9170117350404
 21
1070.4922480620164
  0
LINE
  8
_0-0_
  6
CONTINUOUS
 62
    5
 10
1210.9170117350404
 20
1070.9922480620164
 11
1208.9170117350404
 21
1070.9922480620164
  0
LINE
  8
_0-0_
  6
CONTINUOUS
 62
    5
 10
1210.9170117350404
 20
1071.9922480620164
 11
1210.9170117350404
 21
1070.9922480620164
  0
LINE
  8
_0-0_
  6
CONTINUOUS
 62
    5
 10
1199.9170117350404
 20
1073.4922480620164
 11
1212.4170117350404
 21
1073.4922480620164
  0
LINE
  8
_0-0_
  6
CONTINUOUS
 62
    5
 10
1187.4170117350404
 20
1073.4922480620164
 11
1199.9170117350404
 21
1073.4922480620164
  0
LINE
  8
_0-0_
  6
CONTINUOUS
 62
    5
 10
1186.9170117350404
 20
1073.9922480620164
 11
1187.4170117350404
 21
1073.4922480620164
  0
LINE
  8
_0-0_
  6
CONTINUOUS
 62
    5
 10
1185.9170117350404
 20
1073.9922480620164
 11
1186.9170117350404
 21
1073.9922480620164
  0
LINE
  8
_0-0_
  6
CONTINUOUS
 62
    5
 10
1185.9170117350404
 20
1070.9922480620164
 11
1185.9170117350404
 21
1073.9922480620164
  0
LINE
  8
_0-0_
  6
CONTINUOUS
 62
    5
 10
1186.4170117350404
 20
1070.9922480620164
 11
1185.9170117350404
 21
1070.9922480620164
  0
LINE
  8
_0-0_
  6
CONTINUOUS
 62
    5
 10
1186.4170117350404
 20
1055.9922480620164
 11
1186.4170117350404
 21
1070.9922480620164
  0
LINE
  8
_0-0_
  6
CONTINUOUS
 62
    5
 10
1185.9170117350332
 20
1055.9922480620164
 11
1186.4170117350404
 21
1055.9922480620164
  0
LINE
  8
_0-0_
  6
CONTINUOUS
 62
    5
 10
1185.9170117350404
 20
1053.9922480620164
 11
1185.9170117350332
 21
1055.9922480620164
  0
LINE
  8
_0-0_
  6
CONTINUOUS
 62
    5
 10
1187.4170117350404
 20
1053.9922480620164
 11
1185.9170117350404
 21
1053.9922480620164
  0
LINE
  8
_0-0_
  6
CONTINUOUS
 62
    5
 10
1187.4170117350404
 20
1072.4922480620164
 11
1187.4170117350404
 21
1053.9922480620164
  0
LINE
  8
_0-0_
  6
CONTINUOUS
 62
    5
 10
1212.4170117350404
 20
1072.4922480620164
 11
1187.4170117350404
 21
1072.4922480620164
  0
LINE
  8
_0-0_
  6
CONTINUOUS
 62
    5
 10
1212.4170117350404
 20
1053.9922480620164
 11
1212.4170117350404
 21
1072.4922480620164
  0
LINE
  8
_0-0_
  6
CONTINUOUS
 62
    5
 10
1213.9170117350404
 20
1053.9922480620164
 11
1212.4170117350404
 21
1053.9922480620164
  0
LINE
  8
_0-0_
  6
CONTINUOUS
 62
    5
 10
1213.9170117350459
 20
1055.9922480620164
 11
1213.9170117350404
 21
1053.9922480620164
  0
LINE
  8
_0-0_
  6
CONTINUOUS
 62
    5
 10
1213.4170117350404
 20
1055.9922480620164
 11
1213.9170117350459
 21
1055.9922480620164
  0
LINE
  8
_0-0_
  6
CONTINUOUS
 62
    5
 10
1213.4170117350404
 20
1070.9922480620164
 11
1213.4170117350404
 21
1055.9922480620164
  0
LINE
  8
_0-0_
  6
CONTINUOUS
 62
    5
 10
1213.9170117350404
 20
1070.9922480620164
 11
1213.4170117350404
 21
1070.9922480620164
  0
LINE
  8
_0-0_
  6
CONTINUOUS
 62
    5
 10
1213.9170117350404
 20
1073.9922480620164
 11
1213.9170117350404
 21
1070.9922480620164
  0
LINE
  8
_0-0_
  6
CONTINUOUS
 62
    5
 10
1212.9170117350404
 20
1073.9922480620164
 11
1213.9170117350404
 21
1073.9922480620164
  0
LINE
  8
_0-0_
  6
CONTINUOUS
 62
    5
 10
1212.4170117350404
 20
1073.4922480620164
 11
1212.9170117350404
 21
1073.9922480620164
  0
LINE
  8
_0-0_
  6
CONTINUOUS
 62
    5
 10
1193.1310968336475
 20
993.99224806201642
 11
1193.1310968336475
 21
1070.4922480620164
  0
LINE
  8
_0-0_
  6
CONTINUOUS
 62
    5
 10
1196.8810968336475
 20
993.99224806201642
 11
1196.8810968336475
 21
1070.4922480620164
  0
LINE
  8
_0-0_
  6
CONTINUOUS
 62
    5
 10
1200.6310968336475
 20
993.99224806201642
 11
1200.6310968336475
 21
1070.4922480620164
  0
LINE
  8
_0-0_
  6
CONTINUOUS
 62
    5
 10
1204.3810968336475
 20
993.99224806201642
 11
1204.3810968336475
 21
1070.4922480620164
  0
LINE
  8
_0-0_
  6
CONTINUOUS
 62
    5
 10
1208.1310968336475
 20
993.99224806201642
 11
1208.1310968336475
 21
1070.4922480620164
  0
LINE
  8
_0-0_
  6
CONTINUOUS
 62
    5
 10
1049.925499156112
 20
1073.9922480620164
 11
1049.925499156112
 21
993.99224806201642
  0
LINE
  8
_0-0_
  6
CONTINUOUS
 62
    5
 10
1029.925499156112
 20
1073.9922480620164
 11
1049.925499156112
 21
1073.9922480620164
  0
LINE
  8
_0-0_
  6
CONTINUOUS
 62
    5
 10
1029.925499156112
 20
999.39052135077532
 11
1035.3237724448718
 21
993.99224806201642
  0
LINE
  8
_0-0_
  6
CONTINUOUS
 62
    5
 10
1029.925499156112
 20
1005.0473756002668
 11
1040.9806266943633
 21
993.99224806201551
  0
LINE
  8
_0-0_
  6
CONTINUOUS
 62
    5
 10
1029.925499156112
 20
1010.7042298497583
 11
1046.6374809438548
 21
993.99224806201642
  0
LINE
  8
_0-0_
  6
CONTINUOUS
 62
    5
 10
1029.925499156112
 20
1016.3610840992526
 11
1049.925499156112
 21
996.36108409925259
  0
LINE
  8
_0-0_
  6
CONTINUOUS
 62
    5
 10
1029.925499156112
 20
1022.017938348745
 11
1049.925499156112
 21
1002.017938348745
  0
LINE
  8
_0-0_
  6
CONTINUOUS
 62
    5
 10
1029.925499156112
 20
1027.6747925982365
 11
1049.925499156112
 21
1007.6747925982374
  0
LINE
  8
_0-0_
  6
CONTINUOUS
 62
    5
 10
1029.925499156112
 20
1033.3316468477299
 11
1049.925499156112
 21
1013.3316468477299
  0
LINE
  8
_0-0_
  6
CONTINUOUS
 62
    5
 10
1029.925499156112
 20
1038.9885010972214
 11
1049.925499156112
 21
1018.9885010972214
  0
LINE
  8
_0-0_
  6
CONTINUOUS
 62
    5
 10
1029.925499156112
 20
1044.6453553467129
 11
1049.925499156112
 21
1024.6453553467129
  0
LINE
  8
_0-0_
  6
CONTINUOUS
 62
    5
 10
1029.925499156112
 20
1050.3022095962044
 11
1049.925499156112
 21
1030.3022095962044
  0
LINE
  8
_0-0_
  6
CONTINUOUS
 62
    5
 10
1029.925499156112
 20
1055.9590638456978
 11
1049.925499156112
 21
1035.9590638456978
  0
LINE
  8
_0-0_
  6
CONTINUOUS
 62
    5
 10
1029.925499156112
 20
1061.6159180951911
 11
1049.925499156112
 21
1041.615918095192
  0
LINE
  8
_0-0_
  6
CONTINUOUS
 62
    5
 10
1029.925499156112
 20
1067.2727723446844
 11
1049.925499156112
 21
1047.2727723446844
  0
LINE
  8
_0-0_
  6
CONTINUOUS
 62
    5
 10
1029.925499156112
 20
1072.9296265941769
 11
1049.925499156112
 21
1052.9296265941759
  0
LINE
  8
_0-0_
  6
CONTINUOUS
 62
    5
 10
1034.5197319377639
 20
1073.9922480620155
 11
1049.925499156112
 21
1058.5864808436675
  0
LINE
  8
_0-0_
  6
CONTINUOUS
 62
    5
 10
1040.1765861872573
 20
1073.9922480620155
 11
1049.925499156112
 21
1064.2433350931608
  0
LINE
  8
_0-0_
  6
CONTINUOUS
 62
    5
 10
1045.8334404367506
 20
1073.9922480620155
 11
1049.925499156112
 21
1069.9001893426523
  0
POINT
  8
_0-0_
 62
    7
 10
1337.1185834863536
 20
987.32039321624802
  0
LINE
  8
_0-0_
  6
CONTINUOUS
 62
    7
 10
1337.1185834863536
 20
987.32039321624802
 11
1430.4565639073262
 21
1148.9865175812413
  0
LINE
  8
_0-0_
  6
CONTINUOUS
 62
    7
 10
1197.160091341766
 20
1062.7899397535059
 11
1279.2117055487342
 21
1204.9075044030171
  0
POINT
  8
_0-0_
 62
    7
 10
1197.160091341766
 20
1062.7899397535059
  0
LINE
  8
_0-0_
  6
CONTINUOUS
 62
    7
 10
1038.6767518981196
 20
1066.8700245262974
 11
1080.6223577530182
 21
1139.5219450212373
  0
POINT
  8
_0-0_
 62
    7
 10
1038.6767518981196
 20
1066.8700245262974
  0
TEXT
  8
_0-0_
 62
    7
 10
1434.9264839000716
 20
1136.8791128179157
 40
30
 41
1
 50
0
  1
防水層
  0
CIRCLE
  8
_0-0_
  6
DASHED2
 62
    1
 10
1029.925499156112
 20
1033.3316468477299
 40
80
  0
TEXT
  8
_0-0_
 62
    7
 10
988.80137739395116
 20
1095.061746710476
 40
24
 41
1
 50
0
  1
Ｂ
  0
LINE
  8
_0-0_
  6
CONTINUOUS
 62
    4
 10
1029.925499156112
 20
1158.9922480620155
 11
1029.925499156112
 21
991.99224806201551
  0
LINE
  8
_0-0_
  6
CONTINUOUS
 62
    4
 10
1029.925499156112
 20
991.99224806201551
 11
1523.925499156112
 21
991.99224806201551
  0
LINE
  8
_0-0_
  6
CONTINUOUS
 62
    7
 10
1023.9254991561121
 20
982.99224806201551
 11
1023.9254991561121
 21
1158.9922480620155
  0
LINE
  8
_0-0_
  6
CONTINUOUS
 62
    7
 10
1023.9254991561121
 20
982.99224806201551
 11
1523.925499156112
 21
982.99224806201551
  0
LINE
  8
_0-0_
  6
CONTINUOUS
 62
    7
 10
1335.4731196272824
 20
802.99224806201551
 11
1515.4731196272824
 21
982.99224806201551
  0
LINE
  8
_0-0_
  6
CONTINUOUS
 62
    7
 10
1342.544187439149
 20
802.99224806201551
 11
1522.5441874391472
 21
982.99224806201551
  0
LINE
  8
_0-0_
  6
CONTINUOUS
 62
    7
 10
1349.6152552510102
 20
802.99224806201551
 11
1523.9254991561138
 21
977.30249196711543
  0
TEXT
  8
_0-0_
 62
    7
 10
1069.4792594105984
 20
1144.5234048098548
 40
30
 41
1
 50
0
  1
成型緩衝材
  0
TEXT
  8
_0-0_
 62
    7
 10
1284.5422982082764
 20
1190.1606141690975
 40
30
 41
1
 50
0
  1
伸縮目地
  0
LINE
  8
_0-0_
  6
CONTINUOUS
 62
    7
 10
672.13606690525205
 20
1633.3565543671132
 11
1706.8525777203668
 21
1633.3565543671132
  0
LINE
  8
_0-0_
  6
CONTINUOUS
 62
    7
 10
672.13606690525205
 20
1553.3565543671132
 11
1706.8525777203668
 21
1553.3565543671132
  0
LINE
  8
_0-0_
  6
CONTINUOUS
 62
    7
 10
672.13606690525205
 20
1473.3565543671132
 11
1706.8525777203668
 21
1473.3565543671132
  0
LINE
  8
_0-0_
  6
CONTINUOUS
 62
    7
 10
1189.4943223128103
 20
1633.3565543671132
 11
1189.4943223128103
 21
1473.3565543671132
  0
TEXT
  8
_0-0_
 62
    7
 10
1213.4943223128103
 20
1577.3565543671132
 40
20
 41
1
 50
0
  1
構造：ＲＣ造
  0
TEXT
  8
_0-0_
 62
    7
 10
1213.4943223128103
 20
1497.3565543671132
 40
20
 41
1
 50
0
  1
下地：コンクリートスラブ
  0
TEXT
  8
_0-0_
 62
    7
 10
696.13606690525205
 20
1577.3565543671132
 40
20
 41
1
 50
0
  1
図面番号：UPM-10C-kabe-01
  0
TEXT
  8
_0-0_
 62
    7
 10
696.13606690525205
 20
1497.3565543671132
 40
20
 41
1
 50
0
  1
施工部位：壁面立上り(入り巾木)
  0
ENDSEC
  0
EOF
