  0
SECTION
  2
HEADER
  9
$ACADVER
  1
AC1009
  9
$INSBASE
 10
0
 20
0
 30
0
  9
$EXTMIN
 10
0
 20
0
  9
$EXTMAX
 10
2378
 20
1682
  9
$LIMMIN
 10
0
 20
0
  9
$LIMMAX
 10
2378
 20
1682
  9
$LTSCALE
 40
1
  0
ENDSEC
  0
SECTION
  2
TABLES
  0
TABLE
  2
LTYPE
 70
     9
  0
LTYPE
  2
CONTINUOUS
 70
    64
  3
実線
 72
    65
 73
     0
 40
0.0
  0
LTYPE
  2
DASHED1
 70
    64
  3
--  --  --  --  --  --  --  --  
 72
    65
 73
     2
 40
2.5
 49
1.25
 49
-1.25
  0
LTYPE
  2
DASHED2
 70
    64
  3
----    ----    ----    ----    
 72
    65
 73
     2
 40
5.0
 49
2.5
 49
-2.5
  0
LTYPE
  2
DASHED3
 70
    64
  3
------  ------  ------  ------  
 72
    65
 73
     2
 40
5.0
 49
3.75
 49
-1.25
  0
LTYPE
  2
CENTER1
 70
    64
  3
----- - ----- - ----- - ----- - 
 72
    65
 73
     4
 40
10.0
 49
6.25
 49
-1.25
 49
1.25
 49
-1.25
  0
LTYPE
  2
CENTER2
 70
    64
  3
----------  --  ----------  --  
 72
    65
 73
     4
 40
20.0
 49
12.5
 49
-2.5
 49
2.5
 49
-2.5
  0
LTYPE
  2
PHANTOM1
 70
    64
  3
--- - - --- - - --- - - --- - - 
 72
    65
 73
     6
 40
10.0
 49
3.25
 49
-1.25
 49
1.25
 49
-1.25
 49
1.25
 49
-1.25
  0
LTYPE
  2
PHANTOM2
 70
    64
  3
--------  -  -  --------  -  -  
 72
    65
 73
     6
 40
20.0
 49
10.0
 49
-2.5
 49
1.25
 49
-2.5
 49
1.25
 49
-2.5
  0
LTYPE
  2
DOT
 70
    64
  3
-   -   -   -   -   -   -   -   
 72
    65
 73
     2
 40
2.5
 49
0.625
 49
-1.875
  0
LTYPE
  2
DUMMY
 70
    64
  3
ダミー
 72
    65
 73
     0
 40
0.0
  0
LTYPE
  2
RAND1
 70
    64
  3
ランダム線1
 72
    65
 73
     4
 40
10.0
 49
1.0
 49
-2.0
 49
3.0
 49
-4.0
  0
LTYPE
  2
RAND2
 70
    64
  3
ランダム線2
 72
    65
 73
     4
 40
14.0
 49
2.0
 49
-3.0
 49
4.0
 49
-5.0
  0
LTYPE
  2
RAND3
 70
    64
  3
ランダム線3
 72
    65
 73
     4
 40
18.0
 49
3.0
 49
-4.0
 49
5.0
 49
-6.0
  0
LTYPE
  2
RAND4
 70
    64
  3
ランダム線4
 72
    65
 73
     4
 40
22.0
 49
4.0
 49
-5.0
 49
6.0
 49
-7.0
  0
LTYPE
  2
RAND5
 70
    64
  3
ランダム線5
 72
    65
 73
     4
 40
26.0
 49
5.0
 49
-6.0
 49
7.0
 49
-8.0
  0
LTYPE
  2
LONG1
 70
    64
  3
----------  --  ----------  --  
 72
    65
 73
     4
 40
40.0
 49
32.5
 49
-2.5
 49
2.5
 49
-2.5
  0
LTYPE
  2
LONG2
 70
    64
  3
--------  -  -  --------  -  -  
 72
    65
 73
     6
 40
40.0
 49
30.0
 49
-2.5
 49
1.25
 49
-2.5
 49
1.25
 49
-2.5
  0
LTYPE
  2
LONG3
 70
    64
  3
+++++++++++++++..+++++++++++++++
 72
    65
 73
     2
 40
40.0
 49
37.5
 49
-2.5
  0
LTYPE
  2
LONG4
 70
    64
  3
+++++++++++++++..+++++++++++++++
 72
    65
 73
     2
 40
80.0
 49
75.0
 49
-5.0
  0
LTYPE
  2
LONG5
 70
    64
  3
----------  --  ----------  --  
 72
    65
 73
     4
 40
60.0
 49
37.5
 49
-7.5
 49
7.5
 49
-7.5
  0
LTYPE
  2
dashed
 70
   64
  3
-------   -------------   ------
 72
   65
 73
    2
 40
7.5
 49
6
 49
-1.5
  0
LTYPE
  2
dashed_spaced
 70
   64
  3
----        --------        ----
 72
   65
 73
    2
 40
12
 49
6
 49
-6
  0
LTYPE
  2
long_dashed_dotted
 70
   64
  3
------------- --- --------------
 72
   65
 73
    4
 40
15.25
 49
12
 49
-1.5
 49
0.25
 49
-1.5
  0
LTYPE
  2
long_dashed_double-dotted
 70
   64
  3
----------- --- --- ------------
 72
   65
 73
    6
 40
17
 49
12
 49
-1.5
 49
0.25
 49
-1.5
 49
0.25
 49
-1.5
  0
LTYPE
  2
long_dashed_triplicate-dotted
 70
   64
  3
--------- --- --- --- ----------
 72
   65
 73
    8
 40
18.75
 49
12
 49
-1.5
 49
0.25
 49
-1.5
 49
0.25
 49
-1.5
 49
0.25
 49
-1.5
  0
LTYPE
  2
dotted
 70
   64
  3
   -       -       -       -    
 72
   65
 73
    2
 40
1.75
 49
0.25
 49
-1.5
  0
LTYPE
  2
chain
 70
   64
  3
-------------- -- --------------
 72
   65
 73
    4
 40
18.5
 49
12
 49
-1.5
 49
3.5
 49
-1.5
  0
LTYPE
  2
chain_double_dash
 70
   64
  3
------------ -- -- -------------
 72
   65
 73
    6
 40
23.5
 49
12
 49
-1.5
 49
3.5
 49
-1.5
 49
3.5
 49
-1.5
  0
LTYPE
  2
dashed_dotted
 70
   64
  3
-----------     -     ----------
 72
   65
 73
    4
 40
9.25
 49
6
 49
-1.5
 49
0.25
 49
-1.5
  0
LTYPE
  2
double-dashed_dotted
 70
   64
  3
------   -----------   -   -----
 72
   65
 73
    6
 40
16.75
 49
6
 49
-1.5
 49
6
 49
-1.5
 49
0.25
 49
-1.5
  0
LTYPE
  2
dashed_double-dotted
 70
   64
  3
---------    -    -    ---------
 72
   65
 73
    6
 40
11
 49
6
 49
-1.5
 49
0.25
 49
-1.5
 49
0.25
 49
-1.5
  0
LTYPE
  2
double-dashed_double-dotted
 70
   64
  3
-----   ---------   -   -   ----
 72
   65
 73
    8
 40
18.5
 49
6
 49
-1.5
 49
6
 49
-1.5
 49
0.25
 49
-1.5
 49
0.25
 49
-1.5
  0
LTYPE
  2
dashed_triplicate-dotted
 70
   64
  3
-------    -    -    -    ------
 72
   65
 73
    8
 40
12.75
 49
6
 49
-1.5
 49
0.25
 49
-1.5
 49
0.25
 49
-1.5
 49
0.25
 49
-1.5
  0
LTYPE
  2
double-dashed_triplicate-dotted
 70
   64
  3
-----  ---------  -  -  -  -----
 72
   65
 73
   10
 40
20.25
 49
6
 49
-1.5
 49
6
 49
-1.5
 49
0.25
 49
-1.5
 49
0.25
 49
-1.5
 49
0.25
 49
-1.5
  0
LTYPE
  2
undefined
 70
   64
  3
--------------------------------
 72
   65
 73
    0
 40
0
  0
ENDTAB
  0
TABLE
  2
STYLE
  5
3
100
AcDbSymbolTable
 70
     1
  0
STYLE
  5
10
100
AcDbSymbolTableRecord
100
AcDbTextStyleTableRecord
  2
STANDARD
 70
     0
 40
0.0
 41
1.0
 50
0.0
 71
     0
 42
0.2
  3
txt
  4
bigfont.shx
  0
STYLE
  5
26
100
AcDbSymbolTableRecord
100
AcDbTextStyleTableRecord
  2
TATEGAKI
 70
    68
 40
0.0
 41
1.0
 50
0.0
 71
     0
 42
1.0
  3
txt
  4
bigfont.shx
  0
ENDTAB
  0
TABLE
  2
LAYER
 70
    2
  0
LAYER
  2
_0-0_
 70
   64
 62
    7
  6
CONTINUOUS
  0
LAYER
  2
ADD_LINE
 70
   64
 62
    7
  6
CONTINUOUS
  0
ENDTAB
  0
ENDSEC
  0
SECTION
  2
BLOCKS
  0
ENDSEC
  0
SECTION
  2
ENTITIES
  0
LINE
  8
_0-0_
  6
CONTINUOUS
 62
    7
 10
672.13606690525205
 20
167.53106997205509
 11
1706.8525777203668
 21
167.53106997205509
  0
LINE
  8
_0-0_
  6
CONTINUOUS
 62
    7
 10
672.13606690525205
 20
1633.3565543671132
 11
672.13606690525205
 21
167.53106997205509
  0
LINE
  8
_0-0_
  6
CONTINUOUS
 62
    7
 10
1706.8525777203668
 20
1633.3565543671132
 11
1706.8525777203668
 21
167.53106997205509
  0
LINE
  8
_0-0_
  6
CONTINUOUS
 62
    7
 10
1285.8297622292016
 20
673.56626362909992
 11
1465.8297622291998
 21
853.56626362909901
  0
LINE
  8
_0-0_
  6
CONTINUOUS
 62
    7
 10
1278.7586944173368
 20
673.56626362909901
 11
1458.7586944173368
 21
853.56626362909992
  0
LINE
  8
_0-0_
  6
CONTINUOUS
 62
    7
 10
1271.6876266054737
 20
673.56626362909992
 11
1451.6876266054719
 21
853.56626362909992
  0
LINE
  8
_0-0_
  6
CONTINUOUS
 62
    7
 10
1059.5555922495064
 20
673.56626362909992
 11
1239.5555922495064
 21
853.56626362910083
  0
LINE
  8
_0-0_
  6
CONTINUOUS
 62
    7
 10
1052.4845244376434
 20
673.56626362910083
 11
1232.4845244376415
 21
853.56626362909992
  0
LINE
  8
_0-0_
  6
CONTINUOUS
 62
    7
 10
1045.4134566257767
 20
673.56626362909901
 11
1225.4134566257767
 21
853.56626362909992
  0
LINE
  8
_0-0_
  6
CONTINUOUS
 62
    7
 10
1497.9617965851671
 20
673.56626362909992
 11
1545.0966081172105
 21
720.70107516114331
  0
LINE
  8
_0-0_
  6
CONTINUOUS
 62
    7
 10
1505.0328643970338
 20
673.56626362910083
 11
1545.0966081172105
 21
713.63000734927755
  0
LINE
  8
_0-0_
  6
CONTINUOUS
 62
    7
 10
1512.103932208895
 20
673.5662636290981
 11
1545.0966081172105
 21
706.5589395374127
  0
LINE
  8
_0-0_
  6
CONTINUOUS
 62
    7
 10
842.3566131172106
 20
696.78359010022814
 11
999.13928664608147
 21
853.56626362909992
  0
LINE
  8
_0-0_
  6
CONTINUOUS
 62
    7
 10
842.3566131172106
 20
689.71252228836329
 11
1006.2103544579463
 21
853.56626362909992
  0
LINE
  8
_0-0_
  6
CONTINUOUS
 62
    7
 10
842.3566131172106
 20
682.64145447649844
 11
1013.281422269813
 21
853.56626362910083
  0
LINE
  8
_0-0_
  6
CONTINUOUS
 62
    7
 10
1545.0966081172105
 20
853.56626362909992
 11
842.3566131172106
 21
853.56626362909992
  0
TEXT
  8
_0-0_
 62
    7
 10
1507.3975860519263
 20
950.04556958691342
 40
30
 41
1
 50
0
  1
防水層
  0
LINE
  8
_0-0_
  6
CONTINUOUS
 62
    4
 10
1545.0966081172105
 20
862.56626362909992
 11
842.3566131172106
 21
862.56626362909992
  0
LINE
  8
_0-0_
  6
CONTINUOUS
 62
    7
 10
1448.2097553732115
 20
858.28927778430011
 11
1505.9952842431035
 21
958.37674972919035
  0
POINT
  8
_0-0_
 62
    7
 10
1448.2097553732115
 20
858.28927778430011
  0
LINE
  8
_0-0_
  6
CONTINUOUS
 62
    7
 10
1180.158790117212
 20
1107.4124586290998
 11
1180.158790117212
 21
1041.2765536290997
  0
LINE
  8
_0-0_
  6
CONTINUOUS
 62
    7
 10
1214.193973117212
 20
1041.2765536290997
 11
1214.193973117212
 21
1107.4124586290998
  0
LINE
  8
_0-0_
  6
CONTINUOUS
 62
    7
 10
1073.3679901172095
 20
1041.2726166290993
 11
1330.6494301172083
 21
1041.2726166290993
  0
LINE
  8
_0-0_
  6
CONTINUOUS
 62
    7
 10
992.3566131172106
 20
877.81078662910022
 11
1395.0966081172105
 21
877.81078662910022
  0
LINE
  8
_0-0_
  6
CONTINUOUS
 62
    7
 10
1395.0966081172105
 20
877.81078662910022
 11
1395.0966081172105
 21
862.56626362909992
  0
LINE
  8
_0-0_
  6
CONTINUOUS
 62
    7
 10
992.3566131172106
 20
877.81078662910022
 11
992.3566131172106
 21
862.56626362909992
  0
POINT
  8
_0-0_
 62
    7
 10
1340.3807253105538
 20
869.25477412825876
  0
LINE
  8
_0-0_
  6
CONTINUOUS
 62
    7
 10
1340.3807253105538
 20
869.25477412825876
 11
1400.1386703011326
 21
972.75857100784742
  0
LINE
  8
_0-0_
  6
CONTINUOUS
 62
    7
 10
1073.3679901172095
 20
1041.2726166290993
 11
1073.3679901172095
 21
877.81078662910022
  0
LINE
  8
_0-0_
  6
CONTINUOUS
 62
    7
 10
1330.6494301172083
 20
1041.2726166290993
 11
1330.6494301172083
 21
877.81078662910022
  0
LINE
  8
_0-0_
  6
CONTINUOUS
 62
    7
 10
1269.800115249504
 20
877.8107866290984
 11
1330.649430117212
 21
938.66010149680369
  0
LINE
  8
_0-0_
  6
CONTINUOUS
 62
    7
 10
1262.7290474376409
 20
877.81078662909931
 11
1330.6494301172083
 21
945.73116930866763
  0
LINE
  8
_0-0_
  6
CONTINUOUS
 62
    7
 10
1255.6579796257779
 20
877.81078662910022
 11
1330.6494301172083
 21
952.80223712053157
  0
LINE
  8
_0-0_
  6
CONTINUOUS
 62
    7
 10
1073.3679901172095
 20
907.65283147649734
 11
1206.9877752698108
 21
1041.2726166290993
  0
LINE
  8
_0-0_
  6
CONTINUOUS
 62
    7
 10
1073.3679901172095
 20
914.7238992883631
 11
1199.9167074579459
 21
1041.2726166290993
  0
LINE
  8
_0-0_
  6
CONTINUOUS
 62
    7
 10
1073.3679901172131
 20
921.79496710023068
 11
1192.8456396460792
 21
1041.2726166290975
  0
CIRCLE
  8
_0-0_
  6
CONTINUOUS
 62
    7
 10
1197.176381617212
 20
1126.2760652597074
 40
7.3062537407017327
  0
LINE
  8
_0-0_
  6
CONTINUOUS
 62
    7
 10
1169.176381617212
 20
1107.4124586290998
 11
1225.176381617212
 21
1107.4124586290998
  0
LINE
  8
_0-0_
  6
CONTINUOUS
 62
    7
 10
1169.176381617212
 20
1107.4124586290998
 11
1169.176381617212
 21
1226.3806486291003
  0
TEXT
  8
_0-0_
 62
    7
 10
1403.6519721874306
 20
962.79779700946824
 40
30
 41
1
 50
0
  1
ﾊﾟｯｷﾝ
  0
LINE
  8
_0-0_
  6
CONTINUOUS
 62
    7
 10
1225.176381617212
 20
1226.3807886291022
 11
1223.9983516172128
 21
1224.6316216291023
  0
LINE
  8
_0-0_
  6
CONTINUOUS
 62
    7
 10
1222.6007666172104
 20
1223.0482146291022
 11
1221.0093096172118
 21
1221.660044629102
  0
LINE
  8
_0-0_
  6
CONTINUOUS
 62
    7
 10
1219.2510636172105
 20
1220.490799629101
 11
1217.3554776172118
 21
1219.5600656291015
  0
LINE
  8
_0-0_
  6
CONTINUOUS
 62
    7
 10
1215.3549406172119
 20
1218.8837746291017
 11
1213.2836756172114
 21
1218.4734136291015
  0
LINE
  8
_0-0_
  6
CONTINUOUS
 62
    7
 10
1211.176381617212
 20
1218.3358286291011
 11
1209.0690946172112
 21
1218.4734136291015
  0
LINE
  8
_0-0_
  6
CONTINUOUS
 62
    7
 10
1206.9978296172108
 20
1218.8837746291017
 11
1204.9972926172109
 21
1219.5600656291015
  0
LINE
  8
_0-0_
  6
CONTINUOUS
 62
    7
 10
1203.1017066172121
 20
1220.490799629101
 11
1201.3434606172109
 21
1221.660044629102
  0
LINE
  8
_0-0_
  6
CONTINUOUS
 62
    7
 10
1199.7520036172123
 20
1223.0482146291022
 11
1198.3544186172116
 21
1224.6316216291023
  0
LINE
  8
_0-0_
  6
CONTINUOUS
 62
    7
 10
1197.176381617212
 20
1226.3807886291022
 11
1195.998351617211
 21
1228.1298086291015
  0
LINE
  8
_0-0_
  6
CONTINUOUS
 62
    7
 10
1194.6007666172104
 20
1229.7132156291016
 11
1193.0093096172118
 21
1231.1013856291017
  0
LINE
  8
_0-0_
  6
CONTINUOUS
 62
    7
 10
1191.2510636172105
 20
1232.2706306291027
 11
1189.3554776172118
 21
1233.2013646291005
  0
LINE
  8
_0-0_
  6
CONTINUOUS
 62
    7
 10
1187.3549406172119
 20
1233.877655629102
 11
1185.2836756172114
 21
1234.2880166291004
  0
LINE
  8
_0-0_
  6
CONTINUOUS
 62
    7
 10
1183.176381617212
 20
1234.4256086291014
 11
1181.0690946172112
 21
1234.2880166291004
  0
LINE
  8
_0-0_
  6
CONTINUOUS
 62
    7
 10
1178.9978296172108
 20
1233.877655629102
 11
1176.9972926172109
 21
1233.2013646291005
  0
LINE
  8
_0-0_
  6
CONTINUOUS
 62
    7
 10
1175.1017066172121
 20
1232.2706306291027
 11
1173.3434606172109
 21
1231.1013856291017
  0
LINE
  8
_0-0_
  6
CONTINUOUS
 62
    7
 10
1171.7520036172123
 20
1229.7132156291016
 11
1170.3544186172116
 21
1228.1298086291015
  0
LINE
  8
_0-0_
  6
CONTINUOUS
 62
    7
 10
1169.176381617212
 20
1226.3806486291003
 11
1170.3544186172116
 21
1228.1298086291015
  0
LINE
  8
_0-0_
  6
CONTINUOUS
 62
    7
 10
1171.7520036172123
 20
1229.7132156291016
 11
1173.3434606172109
 21
1231.1013856291017
  0
LINE
  8
_0-0_
  6
CONTINUOUS
 62
    7
 10
1175.1017066172121
 20
1232.2706306291027
 11
1176.9972926172109
 21
1233.2013646291005
  0
LINE
  8
_0-0_
  6
CONTINUOUS
 62
    7
 10
1178.9978296172108
 20
1233.877655629102
 11
1181.0690946172112
 21
1234.2880166291004
  0
LINE
  8
_0-0_
  6
CONTINUOUS
 62
    7
 10
1183.176381617212
 20
1234.4256086291014
 11
1185.2836756172114
 21
1234.2880166291004
  0
LINE
  8
_0-0_
  6
CONTINUOUS
 62
    7
 10
1187.3549406172119
 20
1233.877655629102
 11
1189.3554776172118
 21
1233.2013646291005
  0
LINE
  8
_0-0_
  6
CONTINUOUS
 62
    7
 10
1191.2510636172105
 20
1232.2706306291027
 11
1193.0093096172118
 21
1231.1013856291017
  0
LINE
  8
_0-0_
  6
CONTINUOUS
 62
    7
 10
1194.6007666172104
 20
1229.7132156291016
 11
1195.998351617211
 21
1228.1298086291015
  0
LINE
  8
_0-0_
  6
CONTINUOUS
 62
    7
 10
1197.176381617212
 20
1226.3807886291022
 11
1198.3544186172116
 21
1224.6316216291023
  0
LINE
  8
_0-0_
  6
CONTINUOUS
 62
    7
 10
1197.176381617212
 20
1226.3807886291022
 11
1198.3544186172116
 21
1228.1298086291015
  0
LINE
  8
_0-0_
  6
CONTINUOUS
 62
    7
 10
1199.7520036172123
 20
1229.7132156291016
 11
1201.3434606172109
 21
1231.1013856291017
  0
LINE
  8
_0-0_
  6
CONTINUOUS
 62
    7
 10
1203.1017066172121
 20
1232.2706306291027
 11
1204.9972926172109
 21
1233.2013646291005
  0
LINE
  8
_0-0_
  6
CONTINUOUS
 62
    7
 10
1199.7520036172123
 20
1223.0482146291022
 11
1201.3434606172109
 21
1221.660044629102
  0
LINE
  8
_0-0_
  6
CONTINUOUS
 62
    7
 10
1203.1017066172121
 20
1220.490799629101
 11
1204.9972926172109
 21
1219.5600656291015
  0
LINE
  8
_0-0_
  6
CONTINUOUS
 62
    7
 10
1206.9978296172108
 20
1218.8837746291017
 11
1209.0690946172112
 21
1218.4734136291015
  0
LINE
  8
_0-0_
  6
CONTINUOUS
 62
    7
 10
1211.176381617212
 20
1218.3358286291011
 11
1213.2836756172114
 21
1218.4734136291015
  0
LINE
  8
_0-0_
  6
CONTINUOUS
 62
    7
 10
1215.3549406172119
 20
1218.8837746291017
 11
1217.3554776172118
 21
1219.5600656291015
  0
LINE
  8
_0-0_
  6
CONTINUOUS
 62
    7
 10
1219.2510636172105
 20
1220.490799629101
 11
1221.0093096172118
 21
1221.660044629102
  0
LINE
  8
_0-0_
  6
CONTINUOUS
 62
    7
 10
1222.6007666172104
 20
1223.0482146291022
 11
1223.9983516172128
 21
1224.6316216291023
  0
LINE
  8
_0-0_
  6
CONTINUOUS
 62
    7
 10
1223.9983516172128
 20
1228.1298086291015
 11
1222.6007666172104
 21
1229.7132156291016
  0
LINE
  8
_0-0_
  6
CONTINUOUS
 62
    7
 10
1221.0093096172118
 20
1231.1013856291017
 11
1219.2510636172105
 21
1232.2706306291027
  0
LINE
  8
_0-0_
  6
CONTINUOUS
 62
    7
 10
1217.3554776172118
 20
1233.2013646291005
 11
1215.3549406172119
 21
1233.877655629102
  0
LINE
  8
_0-0_
  6
CONTINUOUS
 62
    7
 10
1213.2836756172114
 20
1234.2880166291004
 11
1211.176381617212
 21
1234.4256086291014
  0
LINE
  8
_0-0_
  6
CONTINUOUS
 62
    7
 10
1209.0690946172112
 20
1234.2880166291004
 11
1206.9978296172108
 21
1233.877655629102
  0
LINE
  8
_0-0_
  6
CONTINUOUS
 62
    7
 10
1225.176381617212
 20
1226.3806486291003
 11
1223.9983516172128
 21
1228.1298086291015
  0
LINE
  8
_0-0_
  6
CONTINUOUS
 62
    7
 10
1198.3544186172116
 20
1228.1298086291015
 11
1199.7520036172123
 21
1229.7132156291016
  0
LINE
  8
_0-0_
  6
CONTINUOUS
 62
    7
 10
1201.3434606172109
 20
1231.1013856291017
 11
1203.1017066172121
 21
1232.2706306291027
  0
LINE
  8
_0-0_
  6
CONTINUOUS
 62
    7
 10
1204.9972926172109
 20
1233.2013646291005
 11
1206.9978296172108
 21
1233.877655629102
  0
LINE
  8
_0-0_
  6
CONTINUOUS
 62
    7
 10
1209.0690946172112
 20
1234.2880166291004
 11
1211.176381617212
 21
1234.4256086291014
  0
LINE
  8
_0-0_
  6
CONTINUOUS
 62
    7
 10
1213.2836756172114
 20
1234.2880166291004
 11
1215.3549406172119
 21
1233.877655629102
  0
LINE
  8
_0-0_
  6
CONTINUOUS
 62
    7
 10
1217.3554776172118
 20
1233.2013646291005
 11
1219.2510636172105
 21
1232.2706306291027
  0
LINE
  8
_0-0_
  6
CONTINUOUS
 62
    7
 10
1221.0093096172118
 20
1231.1013856291017
 11
1222.6007666172104
 21
1229.7132156291016
  0
LINE
  8
_0-0_
  6
CONTINUOUS
 62
    7
 10
1225.176381617212
 20
1107.4124586290998
 11
1225.176381617212
 21
1226.3807886291022
  0
LINE
  8
_0-0_
  6
CONTINUOUS
 62
    7
 10
672.13606690525205
 20
1633.3565543671132
 11
1706.8525777203668
 21
1633.3565543671132
  0
LINE
  8
_0-0_
  6
CONTINUOUS
 62
    7
 10
672.13606690525205
 20
1553.3565543671132
 11
1706.8525777203668
 21
1553.3565543671132
  0
LINE
  8
_0-0_
  6
CONTINUOUS
 62
    7
 10
672.13606690525205
 20
1473.3565543671132
 11
1706.8525777203668
 21
1473.3565543671132
  0
LINE
  8
_0-0_
  6
CONTINUOUS
 62
    7
 10
1189.4943223128084
 20
1633.3565543671132
 11
1189.4943223128084
 21
1473.3565543671132
  0
TEXT
  8
_0-0_
 62
    7
 10
1213.4943223128084
 20
1577.3565543671132
 40
20
 41
1
 50
0
  1
構造：ＲＣ造
  0
TEXT
  8
_0-0_
 62
    7
 10
1213.4943223128084
 20
1497.3565543671132
 40
20
 41
1
 50
0
  1
下地：コンクリートスラブ
  0
TEXT
  8
_0-0_
 62
    7
 10
696.13606690525205
 20
1577.3565543671132
 40
20
 41
1
 50
0
  1
図面番号：UPM-10-kiso-01
  0
TEXT
  8
_0-0_
 62
    7
 10
696.13606690525194
 20
1497.3565543671132
 40
20
 41
1
 50
0
  1
施工部位：基礎･架台(置き基礎)
  0
ENDSEC
  0
EOF
