  0
SECTION
  2
HEADER
  9
$ACADVER
  1
AC1009
  9
$INSBASE
 10
0
 20
0
 30
0
  9
$EXTMIN
 10
0
 20
0
  9
$EXTMAX
 10
2378
 20
1682
  9
$LIMMIN
 10
0
 20
0
  9
$LIMMAX
 10
2378
 20
1682
  9
$LTSCALE
 40
1
  0
ENDSEC
  0
SECTION
  2
TABLES
  0
TABLE
  2
LTYPE
 70
     9
  0
LTYPE
  2
CONTINUOUS
 70
    64
  3
実線
 72
    65
 73
     0
 40
0.0
  0
LTYPE
  2
DASHED1
 70
    64
  3
--  --  --  --  --  --  --  --  
 72
    65
 73
     2
 40
2.5
 49
1.25
 49
-1.25
  0
LTYPE
  2
DASHED2
 70
    64
  3
----    ----    ----    ----    
 72
    65
 73
     2
 40
5.0
 49
2.5
 49
-2.5
  0
LTYPE
  2
DASHED3
 70
    64
  3
------  ------  ------  ------  
 72
    65
 73
     2
 40
5.0
 49
3.75
 49
-1.25
  0
LTYPE
  2
CENTER1
 70
    64
  3
----- - ----- - ----- - ----- - 
 72
    65
 73
     4
 40
10.0
 49
6.25
 49
-1.25
 49
1.25
 49
-1.25
  0
LTYPE
  2
CENTER2
 70
    64
  3
----------  --  ----------  --  
 72
    65
 73
     4
 40
20.0
 49
12.5
 49
-2.5
 49
2.5
 49
-2.5
  0
LTYPE
  2
PHANTOM1
 70
    64
  3
--- - - --- - - --- - - --- - - 
 72
    65
 73
     6
 40
10.0
 49
3.25
 49
-1.25
 49
1.25
 49
-1.25
 49
1.25
 49
-1.25
  0
LTYPE
  2
PHANTOM2
 70
    64
  3
--------  -  -  --------  -  -  
 72
    65
 73
     6
 40
20.0
 49
10.0
 49
-2.5
 49
1.25
 49
-2.5
 49
1.25
 49
-2.5
  0
LTYPE
  2
DOT
 70
    64
  3
-   -   -   -   -   -   -   -   
 72
    65
 73
     2
 40
2.5
 49
0.625
 49
-1.875
  0
LTYPE
  2
DUMMY
 70
    64
  3
ダミー
 72
    65
 73
     0
 40
0.0
  0
LTYPE
  2
RAND1
 70
    64
  3
ランダム線1
 72
    65
 73
     4
 40
10.0
 49
1.0
 49
-2.0
 49
3.0
 49
-4.0
  0
LTYPE
  2
RAND2
 70
    64
  3
ランダム線2
 72
    65
 73
     4
 40
14.0
 49
2.0
 49
-3.0
 49
4.0
 49
-5.0
  0
LTYPE
  2
RAND3
 70
    64
  3
ランダム線3
 72
    65
 73
     4
 40
18.0
 49
3.0
 49
-4.0
 49
5.0
 49
-6.0
  0
LTYPE
  2
RAND4
 70
    64
  3
ランダム線4
 72
    65
 73
     4
 40
22.0
 49
4.0
 49
-5.0
 49
6.0
 49
-7.0
  0
LTYPE
  2
RAND5
 70
    64
  3
ランダム線5
 72
    65
 73
     4
 40
26.0
 49
5.0
 49
-6.0
 49
7.0
 49
-8.0
  0
LTYPE
  2
LONG1
 70
    64
  3
----------  --  ----------  --  
 72
    65
 73
     4
 40
40.0
 49
32.5
 49
-2.5
 49
2.5
 49
-2.5
  0
LTYPE
  2
LONG2
 70
    64
  3
--------  -  -  --------  -  -  
 72
    65
 73
     6
 40
40.0
 49
30.0
 49
-2.5
 49
1.25
 49
-2.5
 49
1.25
 49
-2.5
  0
LTYPE
  2
LONG3
 70
    64
  3
+++++++++++++++..+++++++++++++++
 72
    65
 73
     2
 40
40.0
 49
37.5
 49
-2.5
  0
LTYPE
  2
LONG4
 70
    64
  3
+++++++++++++++..+++++++++++++++
 72
    65
 73
     2
 40
80.0
 49
75.0
 49
-5.0
  0
LTYPE
  2
LONG5
 70
    64
  3
----------  --  ----------  --  
 72
    65
 73
     4
 40
60.0
 49
37.5
 49
-7.5
 49
7.5
 49
-7.5
  0
LTYPE
  2
dashed
 70
   64
  3
-------   -------------   ------
 72
   65
 73
    2
 40
7.5
 49
6
 49
-1.5
  0
LTYPE
  2
dashed_spaced
 70
   64
  3
----        --------        ----
 72
   65
 73
    2
 40
12
 49
6
 49
-6
  0
LTYPE
  2
long_dashed_dotted
 70
   64
  3
------------- --- --------------
 72
   65
 73
    4
 40
15.25
 49
12
 49
-1.5
 49
0.25
 49
-1.5
  0
LTYPE
  2
long_dashed_double-dotted
 70
   64
  3
----------- --- --- ------------
 72
   65
 73
    6
 40
17
 49
12
 49
-1.5
 49
0.25
 49
-1.5
 49
0.25
 49
-1.5
  0
LTYPE
  2
long_dashed_triplicate-dotted
 70
   64
  3
--------- --- --- --- ----------
 72
   65
 73
    8
 40
18.75
 49
12
 49
-1.5
 49
0.25
 49
-1.5
 49
0.25
 49
-1.5
 49
0.25
 49
-1.5
  0
LTYPE
  2
dotted
 70
   64
  3
   -       -       -       -    
 72
   65
 73
    2
 40
1.75
 49
0.25
 49
-1.5
  0
LTYPE
  2
chain
 70
   64
  3
-------------- -- --------------
 72
   65
 73
    4
 40
18.5
 49
12
 49
-1.5
 49
3.5
 49
-1.5
  0
LTYPE
  2
chain_double_dash
 70
   64
  3
------------ -- -- -------------
 72
   65
 73
    6
 40
23.5
 49
12
 49
-1.5
 49
3.5
 49
-1.5
 49
3.5
 49
-1.5
  0
LTYPE
  2
dashed_dotted
 70
   64
  3
-----------     -     ----------
 72
   65
 73
    4
 40
9.25
 49
6
 49
-1.5
 49
0.25
 49
-1.5
  0
LTYPE
  2
double-dashed_dotted
 70
   64
  3
------   -----------   -   -----
 72
   65
 73
    6
 40
16.75
 49
6
 49
-1.5
 49
6
 49
-1.5
 49
0.25
 49
-1.5
  0
LTYPE
  2
dashed_double-dotted
 70
   64
  3
---------    -    -    ---------
 72
   65
 73
    6
 40
11
 49
6
 49
-1.5
 49
0.25
 49
-1.5
 49
0.25
 49
-1.5
  0
LTYPE
  2
double-dashed_double-dotted
 70
   64
  3
-----   ---------   -   -   ----
 72
   65
 73
    8
 40
18.5
 49
6
 49
-1.5
 49
6
 49
-1.5
 49
0.25
 49
-1.5
 49
0.25
 49
-1.5
  0
LTYPE
  2
dashed_triplicate-dotted
 70
   64
  3
-------    -    -    -    ------
 72
   65
 73
    8
 40
12.75
 49
6
 49
-1.5
 49
0.25
 49
-1.5
 49
0.25
 49
-1.5
 49
0.25
 49
-1.5
  0
LTYPE
  2
double-dashed_triplicate-dotted
 70
   64
  3
-----  ---------  -  -  -  -----
 72
   65
 73
   10
 40
20.25
 49
6
 49
-1.5
 49
6
 49
-1.5
 49
0.25
 49
-1.5
 49
0.25
 49
-1.5
 49
0.25
 49
-1.5
  0
LTYPE
  2
undefined
 70
   64
  3
--------------------------------
 72
   65
 73
    0
 40
0
  0
ENDTAB
  0
TABLE
  2
STYLE
  5
3
100
AcDbSymbolTable
 70
     1
  0
STYLE
  5
10
100
AcDbSymbolTableRecord
100
AcDbTextStyleTableRecord
  2
STANDARD
 70
     0
 40
0.0
 41
1.0
 50
0.0
 71
     0
 42
0.2
  3
txt
  4
bigfont.shx
  0
STYLE
  5
26
100
AcDbSymbolTableRecord
100
AcDbTextStyleTableRecord
  2
TATEGAKI
 70
    68
 40
0.0
 41
1.0
 50
0.0
 71
     0
 42
1.0
  3
txt
  4
bigfont.shx
  0
ENDTAB
  0
TABLE
  2
LAYER
 70
    2
  0
LAYER
  2
_0-0_
 70
   64
 62
    7
  6
CONTINUOUS
  0
LAYER
  2
ADD_LINE
 70
   64
 62
    7
  6
CONTINUOUS
  0
ENDTAB
  0
ENDSEC
  0
SECTION
  2
BLOCKS
  0
ENDSEC
  0
SECTION
  2
ENTITIES
  0
LINE
  8
_0-0_
  6
CONTINUOUS
 62
    7
 10
672.13606690525205
 20
1633.3565543671127
 11
672.13606690525205
 21
167.53106997205509
  0
LINE
  8
_0-0_
  6
CONTINUOUS
 62
    7
 10
1246.7101308514902
 20
1158.4308759007222
 11
1246.7101308514902
 21
1407.9188809007235
  0
LINE
  8
_0-0_
  6
CONTINUOUS
 62
    3
 10
1321.7101508514897
 20
935.43079690072273
 11
1533.1415198514915
 21
935.43079690072273
  0
LINE
  8
_0-0_
  6
CONTINUOUS
 62
    7
 10
1234.7577348514897
 20
1158.4308759007222
 11
1219.7577478514904
 21
1158.4308759007222
  0
LINE
  8
_0-0_
  6
CONTINUOUS
 62
    7
 10
1227.7577248514899
 20
1202.8308589007233
 11
1227.7577248514899
 21
1188.8308989007223
  0
LINE
  8
_0-0_
  6
CONTINUOUS
 62
    7
 10
1199.7578058514919
 20
1188.8308989007223
 11
1199.7578058514919
 21
1202.8308589007233
  0
LINE
  8
_0-0_
  6
CONTINUOUS
 62
    7
 10
1218.7527088514908
 20
1162.8897409007227
 11
1218.2577678514899
 21
1159.9308559007227
  0
LINE
  8
_0-0_
  6
CONTINUOUS
 62
    7
 10
1224.8271708514912
 20
1158.4308759007222
 11
1224.7577638514922
 21
1158.3614689007231
  0
LINE
  8
_0-0_
  6
CONTINUOUS
 62
    3
 10
1321.7101508514897
 20
935.43079690072273
 11
1321.7101508514897
 21
928.43079690072273
  0
LINE
  8
_0-0_
  6
CONTINUOUS
 62
    4
 10
1277.7101508514897
 20
944.43079690072273
 11
1533.1415198514915
 21
944.43079690072273
  0
LINE
  8
_0-0_
  6
CONTINUOUS
 62
    2
 10
1290.8584366317336
 20
1117.4315592129446
 11
1292.2578008514902
 21
1118.830923432703
  0
LINE
  8
_0-0_
  6
CONTINUOUS
 62
    2
 10
1288.6827866533313
 20
1118.084336359289
 11
1292.2578008514902
 21
1121.659350557446
  0
LINE
  8
_0-0_
  6
CONTINUOUS
 62
    2
 10
1286.3354227919044
 20
1118.5653996226069
 11
1292.2578008514902
 21
1124.4877776821927
  0
LINE
  8
_0-0_
  6
CONTINUOUS
 62
    2
 10
1283.7904937724852
 20
1118.8488977279344
 11
1292.2578008514902
 21
1127.3162048069375
  0
LINE
  8
_0-0_
  6
CONTINUOUS
 62
    2
 10
1281.0032744238306
 20
1118.8901055040246
 11
1292.2578008514902
 21
1130.1446319316842
  0
LINE
  8
_0-0_
  6
CONTINUOUS
 62
    2
 10
1277.8897504679371
 20
1118.6050086728778
 11
1292.2578008514902
 21
1132.9730590564309
  0
LINE
  8
_0-0_
  6
CONTINUOUS
 62
    2
 10
1234.1488606690509
 20
1142.7463698678989
 11
1234.6512779960431
 21
1143.2487871948929
  0
LINE
  8
_0-0_
  6
CONTINUOUS
 62
    2
 10
1231.6467906053113
 20
1143.0727269289059
 11
1234.178881823038
 21
1145.6048181466344
  0
LINE
  8
_0-0_
  6
CONTINUOUS
 62
    2
 10
1229.1447205415716
 20
1143.3990839899147
 11
1233.878946400615
 21
1148.1333098489599
  0
LINE
  8
_0-0_
  6
CONTINUOUS
 62
    2
 10
1226.6426504778356
 20
1143.7254410509217
 11
1233.7828777669201
 21
1150.8656683400081
  0
LINE
  8
_0-0_
  6
CONTINUOUS
 62
    2
 10
1224.7577638514922
 20
1144.6689815493251
 11
1233.9448988117474
 21
1153.8561165095821
  0
LINE
  8
_0-0_
  6
CONTINUOUS
 62
    2
 10
1224.7577638514886
 20
1147.4974086740699
 11
1234.4700328534818
 21
1157.2096776760613
  0
LINE
  8
_0-0_
  6
CONTINUOUS
 62
    2
 10
1224.7577638514922
 20
1150.3258357988166
 11
1232.8628039533978
 21
1158.4308759007222
  0
LINE
  8
_0-0_
  6
CONTINUOUS
 62
    2
 10
1224.7577638514922
 20
1153.1542629235632
 11
1230.0343768286511
 21
1158.4308759007222
  0
LINE
  8
_0-0_
  6
CONTINUOUS
 62
    2
 10
1224.7577638514886
 20
1155.9826900483099
 11
1227.2059497039045
 21
1158.4308759007222
  0
LINE
  8
_0-0_
  6
CONTINUOUS
 62
    2
 10
1234.7577348514906
 20
1158.4308759007222
 11
1234.0242643880733
 21
1154.5601293686811
  0
LINE
  8
_0-0_
  6
CONTINUOUS
 62
    2
 10
1234.0242643880733
 20
1154.5601293686811
 11
1233.7820427615941
 21
1150.5698760408991
  0
LINE
  8
_0-0_
  6
CONTINUOUS
 62
    2
 10
1233.7820427615941
 20
1150.5698760408991
 11
1234.0384297536036
 21
1146.5813577455751
  0
LINE
  8
_0-0_
  6
CONTINUOUS
 62
    2
 10
1234.0384297536036
 20
1146.5813577455751
 11
1234.7856351750877
 21
1142.7157635928249
  0
LINE
  8
_0-0_
  6
CONTINUOUS
 62
    2
 10
1234.7856351750877
 20
1142.7157635928249
 11
1234.7999205922001
 21
1142.6614489833323
  0
LINE
  8
_0-0_
  6
CONTINUOUS
 62
    2
 10
1224.7577638514922
 20
1153.9206659007218
 11
1224.7577638514922
 21
1158.3614689007231
  0
TEXT
  8
_0-0_
 62
    7
 10
1429.6891920142116
 20
576.0272128734764
 40
40
 41
1
 50
0
  1
Ｂ
  0
LINE
  8
_0-0_
  6
CONTINUOUS
 62
    7
 10
672.13606690525205
 20
567.53106997205441
 11
1706.8525777203686
 21
567.53106997205441
  0
LINE
  8
_0-0_
  6
CONTINUOUS
 62
    7
 10
672.13606690525205
 20
167.53106997205509
 11
1706.8525777203686
 21
167.53106997205509
  0
LINE
  8
_0-0_
  6
CONTINUOUS
 62
    7
 10
672.13606690525205
 20
627.53106997205441
 11
1706.8525777203686
 21
627.53106997205441
  0
LINE
  8
_0-0_
  6
CONTINUOUS
 62
    7
 10
1189.4943223128103
 20
627.53106997205441
 11
1189.4943223128103
 21
167.53106997205509
  0
LINE
  8
_0-0_
  6
CONTINUOUS
 62
    7
 10
1706.8525777203686
 20
1633.3565543671127
 11
1706.8525777203686
 21
167.53106997205509
  0
TEXT
  8
_0-0_
 62
    7
 10
906.73245032900388
 20
575.67973412100991
 40
40
 41
1
 50
0
  1
Ａ
  0
LINE
  8
_0-0_
  6
CONTINUOUS
 62
    7
 10
1227.7577248514899
 20
1261.8306569007223
 11
1227.7577248514899
 21
1203.8308869007219
  0
LINE
  8
_0-0_
  6
CONTINUOUS
 62
    7
 10
1199.7578058514919
 20
1261.8306569007223
 11
1199.7578058514919
 21
1203.8308869007219
  0
LINE
  8
_0-0_
  6
CONTINUOUS
 62
    7
 10
1227.7577248514899
 20
1291.8307559007233
 11
1227.7577248514899
 21
1262.8308089007228
  0
LINE
  8
_0-0_
  6
CONTINUOUS
 62
    7
 10
1199.7578058514919
 20
1291.8307559007233
 11
1199.7578058514919
 21
1262.8308089007228
  0
TEXT
  8
_0-0_
 62
    7
 10
1331.2957000494898
 20
1362.9522484540255
 40
24
 41
1
 50
0
  1
屋外側
  0
LINE
  8
_0-0_
  6
CONTINUOUS
 62
    4
 10
1277.7101508514897
 20
944.43079690072273
 11
1277.7101508514897
 21
1135.551751052612
  0
LINE
  8
_0-0_
  6
CONTINUOUS
 62
    2
 10
1277.7101508514897
 20
1124.0822633059256
 11
1287.8562358039126
 21
1134.2283482583466
  0
LINE
  8
_0-0_
  6
CONTINUOUS
 62
    2
 10
1277.7101508514897
 20
1126.9106904306705
 11
1285.3541657443602
 21
1134.5547053235391
  0
LINE
  8
_0-0_
  6
CONTINUOUS
 62
    2
 10
1277.7101508514897
 20
1129.7391175554171
 11
1282.8520956848042
 21
1134.8810623887316
  0
LINE
  8
_0-0_
  6
CONTINUOUS
 62
    2
 10
1277.7101508514897
 20
1132.567544680162
 11
1280.3500256252519
 21
1135.2074194539223
  0
LINE
  8
_0-0_
  6
CONTINUOUS
 62
    2
 10
1277.7101508514897
 20
1135.3959718049086
 11
1277.8479555656959
 21
1135.5337765191148
  0
LINE
  8
_0-0_
  6
CONTINUOUS
 62
    2
 10
1277.7101508514897
 20
1121.2538361811789
 11
1290.3583058634649
 21
1133.9019911931541
  0
LINE
  8
_0-0_
  6
CONTINUOUS
 62
    2
 10
1292.257806551477
 20
1116.8933563878638
 11
1288.9219918256699
 21
1118.0227373127179
  0
LINE
  8
_0-0_
  6
CONTINUOUS
 62
    2
 10
1288.9219918256699
 20
1118.0227373127179
 11
1285.3753690350925
 21
1118.7005167924899
  0
LINE
  8
_0-0_
  6
CONTINUOUS
 62
    2
 10
1285.3753690350925
 20
1118.7005167924899
 11
1281.7257005185588
 21
1118.9061008406604
  0
LINE
  8
_0-0_
  6
CONTINUOUS
 62
    2
 10
1281.7257005185588
 20
1118.9061008406604
 11
1278.0838796071223
 21
1118.6332428899557
  0
LINE
  8
_0-0_
  6
CONTINUOUS
 62
    2
 10
1278.0838796071223
 20
1118.6332428899557
 11
1277.710150851492
 21
1118.5776172159317
  0
LINE
  8
_0-0_
  6
CONTINUOUS
 62
    2
 10
842.74235731494821
 20
451.85146659662905
 11
841.27541638811363
 21
444.10997353254692
  0
LINE
  8
_0-0_
  6
CONTINUOUS
 62
    2
 10
841.27541638811363
 20
444.10997353254692
 11
840.79097313515535
 21
436.1294668769828
  0
LINE
  8
_0-0_
  6
CONTINUOUS
 62
    2
 10
840.79097313515535
 20
436.1294668769828
 11
841.30374711917432
 21
428.15243028633478
  0
LINE
  8
_0-0_
  6
CONTINUOUS
 62
    2
 10
841.30374711917432
 20
428.15243028633478
 11
842.79815796214234
 21
420.4212419808344
  0
LINE
  8
_0-0_
  6
CONTINUOUS
 62
    2
 10
842.79815796214234
 20
420.4212419808344
 11
842.82672879636721
 21
420.31261276184927
  0
LINE
  8
_0-0_
  6
CONTINUOUS
 62
    2
 10
822.7424153149442
 20
446.95509489180449
 11
827.63878701977239
 21
451.85146659662905
  0
LINE
  8
_0-0_
  6
CONTINUOUS
 62
    2
 10
822.74241531494783
 20
441.29824064231116
 11
833.29564126926573
 21
451.85146659662905
  0
LINE
  8
_0-0_
  6
CONTINUOUS
 62
    2
 10
822.74241531494783
 20
435.64138639281782
 11
838.95249551875906
 21
451.85146659662905
  0
LINE
  8
_0-0_
  6
CONTINUOUS
 62
    2
 10
822.7424153149442
 20
429.98453214332449
 11
842.16695331892709
 21
449.40907014730556
  0
LINE
  8
_0-0_
  6
CONTINUOUS
 62
    2
 10
822.74241531494783
 20
424.32767789383297
 11
841.11668523546189
 21
442.70194781434884
  0
LINE
  8
_0-0_
  6
CONTINUOUS
 62
    2
 10
826.51218856763455
 20
422.44059689702817
 11
840.79264314580735
 21
436.72105147519915
  0
LINE
  8
_0-0_
  6
CONTINUOUS
 62
    2
 10
831.51632869511025
 20
421.78788277501417
 11
840.98478041319697
 21
431.25633449310271
  0
LINE
  8
_0-0_
  6
CONTINUOUS
 62
    2
 10
836.52046882258594
 20
421.13516865299653
 11
841.58465125803934
 21
426.19935108845175
  0
LINE
  8
_0-0_
  6
CONTINUOUS
 62
    2
 10
841.52460895006527
 20
420.48245453098252
 11
842.5294436040532
 21
421.48728918497045
  0
LINE
  8
_0-0_
  6
CONTINUOUS
 62
    2
 10
929.00638854784131
 20
372.19973214094034
 11
957.74248931494742
 21
400.93583290804645
  0
LINE
  8
_0-0_
  6
CONTINUOUS
 62
    2
 10
935.23343645962461
 20
372.76992580323395
 11
957.74248931494378
 21
395.27897865855311
  0
LINE
  8
_0-0_
  6
CONTINUOUS
 62
    2
 10
940.80787515693385
 20
372.68751025105166
 11
957.74248931494378
 21
389.62212440905978
  0
LINE
  8
_0-0_
  6
CONTINUOUS
 62
    2
 10
945.89773319577591
 20
372.12051404039858
 11
957.74248931494378
 21
383.96527015956826
  0
LINE
  8
_0-0_
  6
CONTINUOUS
 62
    2
 10
950.59246091862963
 20
371.15838751376259
 11
957.74248931494378
 21
378.30841591007675
  0
LINE
  8
_0-0_
  6
CONTINUOUS
 62
    2
 10
954.94376087543071
 20
369.85283322107398
 11
957.74248931494742
 21
372.65156166058887
  0
LINE
  8
_0-0_
  6
CONTINUOUS
 62
    2
 10
928.64718931494656
 20
405.78165840500196
 11
928.92279874335884
 21
406.05726783341242
  0
LINE
  8
_0-0_
  6
CONTINUOUS
 62
    2
 10
928.64718931494656
 20
400.12480415551045
 11
933.92693886246718
 21
405.40455370302743
  0
LINE
  8
_0-0_
  6
CONTINUOUS
 62
    2
 10
928.64718931494656
 20
394.46794990601711
 11
938.93107898157552
 21
404.75183957264608
  0
LINE
  8
_0-0_
  6
CONTINUOUS
 62
    2
 10
928.64718931494656
 20
388.81109565652559
 11
943.93521910068387
 21
404.0991254422629
  0
LINE
  8
_0-0_
  6
CONTINUOUS
 62
    2
 10
928.64718931494656
 20
383.15424140703408
 11
948.93935921978857
 21
403.44641131187609
  0
LINE
  8
_0-0_
  6
CONTINUOUS
 62
    2
 10
928.64718931494656
 20
377.49738715754074
 11
953.94349933889691
 21
402.7936971814911
  0
LINE
  8
_0-0_
  6
CONTINUOUS
 62
    2
 10
957.74250071491758
 20
368.77642757091064
 11
951.07087126330327
 21
371.03518942061862
  0
LINE
  8
_0-0_
  6
CONTINUOUS
 62
    2
 10
951.07087126330327
 20
371.03518942061862
 11
943.97762568214853
 21
372.39074838016285
  0
LINE
  8
_0-0_
  6
CONTINUOUS
 62
    2
 10
943.97762568214853
 20
372.39074838016285
 11
936.6782886490812
 21
372.80191647650355
  0
LINE
  8
_0-0_
  6
CONTINUOUS
 62
    2
 10
936.6782886490812
 20
372.80191647650355
 11
929.39464682620815
 21
372.25620057509445
  0
LINE
  8
_0-0_
  6
CONTINUOUS
 62
    2
 10
929.39464682620815
 20
372.25620057509445
 11
928.64718931494747
 21
372.14494922704642
  0
LINE
  8
_0-0_
  6
CONTINUOUS
 62
    4
 10
928.64718931494656
 20
214.67089664052332
 11
928.64718931494656
 21
406.05726783341242
  0
POINT
  8
_0-0_
 62
    7
 10
942.75965935177749
 20
388.05603718148132
  0
POINT
  8
_0-0_
 62
    7
 10
831.68997338364727
 20
436.45852422687994
  0
LINE
  8
_0-0_
  6
CONTINUOUS
 62
    7
 10
831.68997338364727
 20
436.45852422687994
 11
996.14633613430863
 21
480.52447381607954
  0
LINE
  8
_0-0_
  6
CONTINUOUS
 62
    7
 10
942.75965935177749
 20
388.05603718148132
 11
996.14633613430863
 21
480.52447381607954
  0
LINE
  8
_0-0_
  6
CONTINUOUS
 62
    7
 10
1366.8790359378436
 20
940.49616201541403
 11
1408.4200301671299
 21
1012.4472746174602
  0
POINT
  8
_0-0_
 62
    7
 10
1366.8790359378436
 20
940.49616201541403
  0
POINT
  8
_0-0_
 62
    7
 10
1286.903082906887
 20
1123.6868402357736
  0
POINT
  8
_0-0_
 62
    7
 10
1229.1151358979732
 20
1151.5106665733988
  0
LINE
  8
_0-0_
  6
CONTINUOUS
 62
    7
 10
1229.1151358979732
 20
1151.5106665733988
 11
1316.4830380296335
 21
1174.9208253939792
  0
LINE
  8
_0-0_
  6
CONTINUOUS
 62
    7
 10
1286.903082906887
 20
1123.6868402357736
 11
1316.4830380296335
 21
1174.9208253939792
  0
POINT
  8
_0-0_
 62
    7
 10
1261.8511876595694
 20
1138.493193464054
  0
LINE
  8
_0-0_
  6
CONTINUOUS
 62
    7
 10
1261.8511876595694
 20
1138.493193464054
 11
1327.7826796257614
 21
1252.6898873683162
  0
LINE
  8
_0-0_
  6
DASHED2
 62
    5
 10
1424.5867505107708
 20
295.61676246479738
 11
1523.5473375933798
 21
295.61676246479738
  0
LINE
  8
_0-0_
  6
CONTINUOUS
 62
    7
 10
1372.9324584889109
 20
307.97205600610187
 11
1419.9495074673287
 21
389.40797365867411
  0
LINE
  8
_0-0_
  6
CONTINUOUS
 62
    7
 10
1222.6654120827807
 20
421.74412018622616
 11
1297.1889999871964
 21
496.2677080906401
  0
LINE
  8
_0-0_
  6
CONTINUOUS
 62
    7
 10
1222.6654120827807
 20
437.65402276292343
 11
1281.2790974104973
 21
496.2677080906401
  0
LINE
  8
_0-0_
  6
CONTINUOUS
 62
    7
 10
1222.6654120827807
 20
453.56392533961889
 11
1265.3691948338019
 21
496.2677080906401
  0
LINE
  8
_0-0_
  6
CONTINUOUS
 62
    7
 10
1312.0867505107708
 20
279.11676246479738
 11
1672.2583531301607
 21
279.11676246479738
  0
LINE
  8
_0-0_
  6
CONTINUOUS
 62
    3
 10
1424.5867505107708
 20
292.61676246479738
 11
1672.2583531301607
 21
292.61676246479738
  0
LINE
  8
_0-0_
  6
CONTINUOUS
 62
    4
 10
1325.5867505107708
 20
312.86676246479738
 11
1672.2583531301607
 21
312.86676246479738
  0
LINE
  8
_0-0_
  6
CONTINUOUS
 62
    7
 10
1507.9371335543292
 20
197.89895920346066
 11
1589.1549368156666
 21
279.11676246479556
  0
LINE
  8
_0-0_
  6
CONTINUOUS
 62
    7
 10
1492.0272309776337
 20
197.89895920346066
 11
1573.2450342389675
 21
279.11676246479556
  0
LINE
  8
_0-0_
  6
CONTINUOUS
 62
    7
 10
1476.1173284009383
 20
197.89895920346066
 11
1557.3351316622757
 21
279.11676246479556
  0
LINE
  8
_0-0_
  6
CONTINUOUS
 62
    4
 10
1325.5867505107708
 20
496.2677080906401
 11
1325.5867505107708
 21
312.86676246479738
  0
LINE
  8
_0-0_
  6
CONTINUOUS
 62
    7
 10
1312.0867505107708
 20
279.11676246479738
 11
1312.0867505107708
 21
496.2677080906401
  0
LINE
  8
_0-0_
  6
DASHED2
 62
    5
 10
1312.0867505107708
 20
285.11676246479738
 11
1414.0867505107708
 21
285.11676246479738
  0
LINE
  8
_0-0_
  6
CONTINUOUS
 62
    3
 10
1424.5867505107708
 20
292.61676246479738
 11
1424.5867505107708
 21
279.11676246479738
  0
LINE
  8
_0-0_
  6
DASHED2
 62
    5
 10
1424.5867505107708
 20
295.61676246479738
 11
1414.0867505107708
 21
285.11676246479738
  0
POINT
  8
_0-0_
 62
    7
 10
1372.9324584889109
 20
307.97205600610187
  0
LINE
  8
_0-0_
  6
CONTINUOUS
 62
    7
 10
1333.0682734260481
 20
312.86676246479738
 11
1411.780139139024
 21
449.1997130382083
  0
POINT
  8
_0-0_
 62
    7
 10
1333.0682734260481
 20
312.86676246479738
  0
POINT
  8
_0-0_
 62
    7
 10
1472.4333984896875
 20
295.61676246479738
  0
POINT
  8
_0-0_
 62
    7
 10
1530.3432002796944
 20
285.86676246479738
  0
LINE
  8
_0-0_
  6
CONTINUOUS
 62
    7
 10
1577.3217469277079
 20
279.11676246479738
 11
1608.6864549428647
 21
333.44203031161169
  0
POINT
  8
_0-0_
 62
    7
 10
1577.3217469277079
 20
279.11676246479738
  0
TEXT
  8
_0-0_
 62
    7
 10
1401.3889274125868
 20
451.54825052789556
 40
21.617968000000001
 41
1
 50
0
  1
ﾄｯﾌﾟｺｰﾄ
  0
TEXT
  8
_0-0_
 62
    7
 10
1403.8590176271973
 20
392.29616381550795
 40
21.617968000000001
 41
1
 50
0
  1
ｳﾚﾀﾝ防水
  0
LINE
  8
_0-0_
  6
CONTINUOUS
 62
    7
 10
1472.4333984896875
 20
295.61676246479738
 11
1535.0124010006293
 21
404.00677430072619
  0
TEXT
  8
_0-0_
 62
    7
 10
1524.4322238543973
 20
411.0227925755903
 40
21.617968000000001
 41
1
 50
0
  1
DFﾒｯｼｭﾃｰﾌﾟ
  0
TEXT
  8
_0-0_
 62
    7
 10
1603.2811870547448
 20
334.80212814858669
 40
21.617968000000001
 41
1
 50
0
  1
ﾌﾟﾗｲﾏｰ
  0
TEXT
  8
_0-0_
 62
    7
 10
1551.1195652452843
 20
369.30404348430284
 40
21.617968000000001
 41
1
 50
0
  1
通気緩衝ｼｰﾄ
  0
LINE
  8
_0-0_
  6
CONTINUOUS
 62
    7
 10
1530.3432002796944
 20
285.86676246479738
 11
1575.2448842868944
 21
363.638760510667
  0
CIRCLE
  8
_0-0_
  6
DASHED2
 62
    1
 10
1258.5714548320211
 20
1144.3159067424881
 40
52.755020399010462
  0
CIRCLE
  8
_0-0_
  6
DASHED2
 62
    1
 10
1321.7101508514897
 20
935.43079690072273
 40
66.591868756255622
  0
TEXT
  8
_0-0_
 62
    7
 10
1253.8413721441866
 20
1193.8341614730275
 40
24
 41
1
 50
0
  1
Ａ
  0
TEXT
  8
_0-0_
 62
    7
 10
1308.2129901090884
 20
995.60430430932547
 40
24
 41
1
 50
0
  1
Ｂ
  0
TEXT
  8
_0-0_
 62
    7
 10
946.89278712563839
 20
1361.7621465564287
 40
24
 41
1
 50
0
  1
ＰＨ屋内側
  0
TEXT
  8
_0-0_
 62
    7
 10
1324.4513888072288
 20
1254.1932942301924
 40
30
 41
1
 50
0
  1
水切板
  0
TEXT
  8
_0-0_
 62
    7
 10
1411.7035174750781
 20
1001.0415333943151
 40
30
 41
1
 50
0
  1
防水層
  0
TEXT
  8
_0-0_
 62
    7
 10
1323.2880865791667
 20
1165.3036745014529
 40
30
 41
1
 50
0
  1
ｼｰﾘﾝｸﾞ
  0
LINE
  8
_0-0_
  6
CONTINUOUS
 62
    7
 10
809.30481685149073
 20
823.43079690072273
 11
998.75777785148978
 21
823.43079690072273
  0
LINE
  8
_0-0_
  6
CONTINUOUS
 62
    7
 10
1398.7577778514897
 20
823.43079690072273
 11
1533.1415198514915
 21
823.43079690072273
  0
LINE
  8
_0-0_
  6
CONTINUOUS
 62
    7
 10
998.75777785148978
 20
756.46821290072194
 11
998.75777785148978
 21
823.43079690072273
  0
LINE
  8
_0-0_
  6
CONTINUOUS
 62
    7
 10
1398.7577778514897
 20
756.46821290072194
 11
1398.7577778514897
 21
823.43079690072273
  0
LINE
  8
_0-0_
  6
CONTINUOUS
 62
    7
 10
1136.7101388514893
 20
1093.4307849007223
 11
1271.7101508514897
 21
1082.1808099007235
  0
LINE
  8
_0-0_
  6
CONTINUOUS
 62
    7
 10
1136.7101388514893
 20
1093.4307849007223
 11
1136.7101388514893
 21
928.43079690072273
  0
LINE
  8
_0-0_
  6
CONTINUOUS
 62
    7
 10
924.71006985149154
 20
1085.4308079007228
 11
924.71006985149154
 21
928.43079690072273
  0
LINE
  8
_0-0_
  6
CONTINUOUS
 62
    7
 10
924.71006985149154
 20
1085.4308079007228
 11
1136.7101388514893
 21
1085.4308079007228
  0
LINE
  8
_0-0_
  6
CONTINUOUS
 62
    7
 10
906.71009385149239
 20
1093.4308469007233
 11
906.71009385149239
 21
963.43078890072184
  0
LINE
  8
_0-0_
  6
CONTINUOUS
 62
    7
 10
909.7100258514912
 20
963.43078890072184
 11
909.7100258514912
 21
1093.4308469007233
  0
LINE
  8
_0-0_
  6
CONTINUOUS
 62
    7
 10
896.71002685149153
 20
953.43078990072172
 11
809.30481685149073
 21
953.43078990072172
  0
LINE
  8
_0-0_
  6
CONTINUOUS
 62
    7
 10
896.71002685149153
 20
950.43078990072172
 11
809.30481685149073
 21
950.43078990072172
  0
LINE
  8
_0-0_
  6
CONTINUOUS
 62
    7
 10
916.71009285149205
 20
1103.4308459007234
 11
1108.7101578514921
 21
1103.4308459007234
  0
LINE
  8
_0-0_
  6
CONTINUOUS
 62
    7
 10
1108.7101578514921
 20
1100.4307899007217
 11
916.71009285149205
 21
1100.4307899007217
  0
ARC
  8
_0-0_
  6
CONTINUOUS
 62
    7
 10
896.71002685149153
 20
963.43078890072184
 40
10.000067000000399
 50
270
 51
0
  0
ARC
  8
_0-0_
  6
CONTINUOUS
 62
    7
 10
896.71002685149153
 20
963.43078890072184
 40
12.999999000000116
 50
270
 51
0
  0
ARC
  8
_0-0_
  6
CONTINUOUS
 62
    7
 10
916.71009285149205
 20
1093.4308469007233
 40
9.9999990000001162
 50
90
 51
180
  0
ARC
  8
_0-0_
  6
CONTINUOUS
 62
    7
 10
916.71009285149205
 20
1093.4308469007233
 40
6.9999990000001162
 50
89.770816709356467
 51
180
  0
ARC
  8
_0-0_
  6
CONTINUOUS
 62
    7
 10
1108.7101578514921
 20
1113.4307889007218
 40
9.9999990000001162
 50
270
 51
0
  0
ARC
  8
_0-0_
  6
CONTINUOUS
 62
    7
 10
1108.7101578514921
 20
1113.4307889007218
 40
12.999999000000116
 50
270
 51
0
  0
LINE
  8
_0-0_
  6
CONTINUOUS
 62
    7
 10
1112.7101458514917
 20
1173.4308629007232
 11
1128.5798848514896
 21
1173.4308629007232
  0
LINE
  8
_0-0_
  6
CONTINUOUS
 62
    7
 10
1114.2101258514922
 20
1174.9308429007219
 11
1114.2101258514922
 21
1201.9308579007234
  0
LINE
  8
_0-0_
  6
CONTINUOUS
 62
    7
 10
1112.7101458514917
 20
1203.4308379007221
 11
1112.7101458514917
 21
1173.4308629007232
  0
LINE
  8
_0-0_
  6
CONTINUOUS
 62
    7
 10
1114.2101258514922
 20
1201.9308579007234
 11
1187.7101458514917
 21
1201.9308579007234
  0
LINE
  8
_0-0_
  6
CONTINUOUS
 62
    7
 10
1136.7101388514893
 20
1407.9188809007235
 11
1136.7101388514893
 21
1203.4308379007221
  0
LINE
  8
_0-0_
  6
CONTINUOUS
 62
    7
 10
1187.7101458514917
 20
1407.9188809007235
 11
1187.7101458514917
 21
1201.9308579007234
  0
LINE
  8
_0-0_
  6
CONTINUOUS
 62
    7
 10
1112.7101458514917
 20
1203.4308379007221
 11
1187.7101458514917
 21
1203.4308379007221
  0
LINE
  8
_0-0_
  6
CONTINUOUS
 62
    7
 10
1118.7101568514918
 20
1113.4307889007218
 11
1118.7101568514918
 21
1173.4308629007232
  0
LINE
  8
_0-0_
  6
CONTINUOUS
 62
    7
 10
1121.7101568514918
 20
1113.4307889007218
 11
1121.7101568514918
 21
1173.4308629007232
  0
LINE
  8
_0-0_
  6
CONTINUOUS
 62
    7
 10
1174.7577228514892
 20
1197.4308559007227
 11
1174.7577228514892
 21
1182.4308679007231
  0
LINE
  8
_0-0_
  6
CONTINUOUS
 62
    7
 10
1173.2577428514924
 20
1195.9308759007222
 11
1173.2577428514924
 21
1181.139107900723
  0
LINE
  8
_0-0_
  6
CONTINUOUS
 62
    7
 10
1174.7577228514892
 20
1182.4308679007231
 11
1234.7577348514897
 21
1173.4308629007232
  0
LINE
  8
_0-0_
  6
CONTINUOUS
 62
    7
 10
1173.2577428514924
 20
1181.139107900723
 11
1233.2577548514892
 21
1172.1391039007217
  0
LINE
  8
_0-0_
  6
CONTINUOUS
 62
    7
 10
1218.2577678514899
 20
1159.9308559007227
 11
1233.2577548514892
 21
1159.9308559007227
  0
LINE
  8
_0-0_
  6
CONTINUOUS
 62
    7
 10
1234.7577348514897
 20
1173.4308629007232
 11
1234.7577348514897
 21
1158.4308759007222
  0
LINE
  8
_0-0_
  6
CONTINUOUS
 62
    7
 10
1233.2577548514892
 20
1172.1391039007217
 11
1233.2577548514892
 21
1159.9308559007227
  0
LINE
  8
_0-0_
  6
CONTINUOUS
 62
    7
 10
1218.2577678514899
 20
1159.9308559007227
 11
1218.2577678514899
 21
1143.4308879007226
  0
LINE
  8
_0-0_
  6
CONTINUOUS
 62
    7
 10
1219.7577478514904
 20
1158.4308759007222
 11
1219.7577478514904
 21
1143.4308879007226
  0
LINE
  8
_0-0_
  6
CONTINUOUS
 62
    7
 10
1218.2577678514899
 20
1143.4308879007226
 11
1219.7577478514904
 21
1143.4308879007226
  0
LINE
  8
_0-0_
  6
CONTINUOUS
 62
    7
 10
1224.7577638514922
 20
1153.9206659007218
 11
1223.2577838514917
 21
1153.9206659007218
  0
LINE
  8
_0-0_
  6
CONTINUOUS
 62
    7
 10
1223.2577838514917
 20
1153.9206659007218
 11
1223.2577838514917
 21
1142.6542359007221
  0
LINE
  8
_0-0_
  6
CONTINUOUS
 62
    7
 10
1224.7577638514922
 20
1153.9206659007218
 11
1224.7577638514922
 21
1143.9712959007234
  0
LINE
  8
_0-0_
  6
CONTINUOUS
 62
    7
 10
1224.7577638514922
 20
1143.9712959007234
 11
1293.757781851491
 21
1134.9712909007235
  0
LINE
  8
_0-0_
  6
CONTINUOUS
 62
    7
 10
1223.2577838514917
 20
1142.6542359007221
 11
1292.2578008514902
 21
1133.6542309007223
  0
LINE
  8
_0-0_
  6
CONTINUOUS
 62
    7
 10
1293.757781851491
 20
1134.9712909007235
 11
1293.757781851491
 21
1113.9713209007227
  0
LINE
  8
_0-0_
  6
CONTINUOUS
 62
    7
 10
1292.2578008514902
 20
1133.6542309007223
 11
1292.2578008514902
 21
1113.9713209007227
  0
LINE
  8
_0-0_
  6
CONTINUOUS
 62
    7
 10
1292.2578008514902
 20
1113.9713209007227
 11
1293.757781851491
 21
1113.9713209007227
  0
LINE
  8
_0-0_
  6
CONTINUOUS
 62
    7
 10
1271.7101508514897
 20
928.43079690072273
 11
1533.1415198514915
 21
928.43079690072273
  0
LINE
  8
_0-0_
  6
CONTINUOUS
 62
    7
 10
1271.7101508514897
 20
928.43079690072273
 11
1271.7101508514897
 21
1136.33435999023
  0
CIRCLE
  8
_0-0_
  6
CONTINUOUS
 62
    7
 10
1198.7577778514897
 20
1375.167745900723
 40
1.25
  0
CIRCLE
  8
_0-0_
  6
CONTINUOUS
 62
    7
 10
1198.7577778514897
 20
1375.167745900723
 40
2.5
  0
LINE
  8
_0-0_
  6
CONTINUOUS
 62
    7
 10
1084.9669458514909
 20
1375.167745900723
 11
1306.0883878514906
 21
1375.167745900723
  0
LINE
  8
_0-0_
  6
CONTINUOUS
 62
    7
 10
1099.4557848514924
 20
1379.0500769007238
 11
1084.9669458514909
 21
1375.167745900723
  0
LINE
  8
_0-0_
  6
CONTINUOUS
 62
    7
 10
1084.9669458514909
 20
1375.167745900723
 11
1099.4557848514924
 21
1371.2854159007227
  0
LINE
  8
_0-0_
  6
CONTINUOUS
 62
    7
 10
1291.5994878514903
 20
1379.0500769007238
 11
1306.0883878514906
 21
1375.167745900723
  0
LINE
  8
_0-0_
  6
CONTINUOUS
 62
    7
 10
1306.0883878514906
 20
1375.167745900723
 11
1291.5994878514903
 21
1371.2854159007227
  0
LINE
  8
_0-0_
  6
CONTINUOUS
 62
    7
 10
1234.7577348514897
 20
1158.4308759007222
 11
1246.7101308514902
 21
1158.4308759007222
  0
LINE
  8
_0-0_
  6
CONTINUOUS
 62
    7
 10
1234.7577348514897
 20
1158.4308759007222
 11
1234.7577348514897
 21
1407.9188809007235
  0
LINE
  8
_0-0_
  6
CONTINUOUS
 62
    7
 10
1199.7578058514919
 20
1188.8308989007223
 11
1227.7577248514899
 21
1188.8308989007223
  0
LINE
  8
_0-0_
  6
CONTINUOUS
 62
    7
 10
1198.7577778514897
 20
1187.8308709007219
 11
1228.7577528514921
 21
1187.8308709007219
  0
ARC
  8
_0-0_
  6
CONTINUOUS
 62
    7
 10
1213.7577648514889
 20
1202.8308599007205
 40
3.999999072974235
 50
112.02387131587876
 51
67.976128684080152
  0
ARC
  8
_0-0_
  6
CONTINUOUS
 62
    7
 10
1213.7577648514889
 20
1202.8308599007205
 40
5.0000285827050082
 50
112.02387131587513
 51
67.976128684075547
  0
LINE
  8
_0-0_
  6
CONTINUOUS
 62
    7
 10
1211.8827898514901
 20
1207.4660249007234
 11
1212.257793773766
 21
1206.5389698437766
  0
LINE
  8
_0-0_
  6
CONTINUOUS
 62
    7
 10
1215.6327398514914
 20
1207.4660249007215
 11
1215.2577359292136
 21
1206.5389698437757
  0
ARC
  8
_0-0_
  6
CONTINUOUS
 62
    7
 10
1213.7577648514925
 20
1262.8308089007232
 40
4.000000000000596
 50
292.02386499999767
 51
247.97613500000236
  0
ARC
  8
_0-0_
  6
CONTINUOUS
 62
    7
 10
1213.7577648514925
 20
1262.8308089007232
 40
5.0000000000003864
 50
292.02386499999795
 51
247.9761350000021
  0
LINE
  8
_0-0_
  6
CONTINUOUS
 62
    7
 10
1215.6327286222331
 20
1258.1956701909967
 11
1215.2577358680865
 21
1259.1226979329417
  0
LINE
  8
_0-0_
  6
CONTINUOUS
 62
    7
 10
1211.8828010807483
 20
1258.1956701909967
 11
1212.2577938348968
 21
1259.1226979329417
  0
CIRCLE
  8
_0-0_
  6
CONTINUOUS
 62
    7
 10
1183.8053922128856
 20
1192.8886145037891
 40
1.2843322407210123
  0
CIRCLE
  8
_0-0_
  6
CONTINUOUS
 62
    7
 10
1183.8053922128856
 20
1192.8886145037891
 40
2.5331176404733706
  0
CIRCLE
  8
_0-0_
  6
CONTINUOUS
 62
    7
 10
1183.8053922128856
 20
1192.8886145037891
 40
7.6084332730519142
  0
LINE
  8
_0-0_
  6
CONTINUOUS
 62
    7
 10
1210.7577396793858
 20
1286.4132203389663
 11
1216.7577900235956
 21
1286.4132203389668
  0
LINE
  8
_0-0_
  6
CONTINUOUS
 62
    7
 10
1210.7577396793858
 20
1286.4132203389663
 11
1210.7577396793858
 21
1407.9188809007235
  0
LINE
  8
_0-0_
  6
CONTINUOUS
 62
    7
 10
1216.7577900235956
 20
1286.4132203389668
 11
1216.7577900235956
 21
1407.9188809007235
  0
ARC
  8
_0-0_
  6
CONTINUOUS
 62
    7
 10
1213.7577648514907
 20
1292.3308319007226
 40
6.6346271657932299
 50
184.32269107201483
 51
243.11656212723824
  0
ARC
  8
_0-0_
  6
CONTINUOUS
 62
    7
 10
1213.7577648514907
 20
1292.3308319007226
 40
6.6346271657932299
 50
296.88343787276705
 51
355.67730892798511
  0
ARC
  8
_0-0_
  6
CONTINUOUS
 62
    7
 10
1213.7577648514907
 20
1292.3308319007226
 40
6.6346271657932299
 50
4.322691072014865
 51
63.11656212723296
  0
ARC
  8
_0-0_
  6
CONTINUOUS
 62
    7
 10
1213.7577648514907
 20
1292.3308319007226
 40
6.6346271657932299
 50
116.88343787276175
 51
175.67730892798517
  0
LINE
  8
_0-0_
  6
CONTINUOUS
 62
    7
 10
762.16355773024782
 20
312.22494080962178
 11
916.64718931494656
 21
299.35133459662984
  0
LINE
  8
_0-0_
  6
CONTINUOUS
 62
    7
 10
762.16355773024782
 20
493.93826483187013
 11
842.74235731494639
 21
481.85144059662935
  0
LINE
  8
_0-0_
  6
CONTINUOUS
 62
    7
 10
842.74235731494639
 20
481.85144059662935
 11
842.74235731494639
 21
451.85146659662905
  0
LINE
  8
_0-0_
  6
CONTINUOUS
 62
    7
 10
842.74235731494639
 20
451.85146659662905
 11
812.74238331494792
 21
451.85146659662905
  0
LINE
  8
_0-0_
  6
CONTINUOUS
 62
    7
 10
812.74238331494792
 20
451.85146659662905
 11
812.74238331494792
 21
421.8514905966299
  0
LINE
  8
_0-0_
  6
CONTINUOUS
 62
    7
 10
762.16355773024782
 20
490.90475137889052
 11
839.74239731494538
 21
479.26792259662807
  0
LINE
  8
_0-0_
  6
CONTINUOUS
 62
    7
 10
839.74239731494538
 20
479.26792259662807
 11
839.74239731494538
 21
454.85142659663006
  0
LINE
  8
_0-0_
  6
CONTINUOUS
 62
    7
 10
960.74245131494547
 20
404.93229659662984
 11
822.74241531494783
 21
422.93230659662959
  0
LINE
  8
_0-0_
  6
CONTINUOUS
 62
    7
 10
957.74248931494742
 20
402.29817659662922
 11
957.74248931494742
 21
362.93235659662832
  0
LINE
  8
_0-0_
  6
CONTINUOUS
 62
    7
 10
960.74245131494547
 20
404.93229659662984
 11
960.74245131494547
 21
362.93235659662832
  0
LINE
  8
_0-0_
  6
CONTINUOUS
 62
    7
 10
960.74245131494547
 20
362.93235659662832
 11
957.74248931494742
 21
362.93235659662832
  0
LINE
  8
_0-0_
  6
CONTINUOUS
 62
    7
 10
819.74245531494682
 20
420.29818659662897
 11
819.74245531494682
 21
442.83104659662831
  0
LINE
  8
_0-0_
  6
CONTINUOUS
 62
    7
 10
819.74245531494682
 20
442.83104659662831
 11
822.74241531494783
 21
442.83104659662831
  0
LINE
  8
_0-0_
  6
CONTINUOUS
 62
    7
 10
822.74241531494783
 20
442.83104659662831
 11
822.74241531494783
 21
422.93230659662959
  0
LINE
  8
_0-0_
  6
CONTINUOUS
 62
    7
 10
809.7424233149469
 20
421.8514905966299
 11
812.74238331494792
 21
421.8514905966299
  0
LINE
  8
_0-0_
  6
CONTINUOUS
 62
    2
 10
822.88122931494593
 20
451.85146659662905
 11
822.74241531494783
 21
451.71265259662914
  0
LINE
  8
_0-0_
  6
CONTINUOUS
 62
    2
 10
822.74241531494783
 20
442.83104659662831
 11
822.74241531494783
 21
451.85146659662905
  0
LINE
  8
_0-0_
  6
CONTINUOUS
 62
    7
 10
839.74239731494538
 20
454.85142659663006
 11
809.7424233149469
 21
454.85142659663006
  0
LINE
  8
_0-0_
  6
CONTINUOUS
 62
    7
 10
809.7424233149469
 20
421.8514905966299
 11
809.7424233149469
 21
454.85142659663006
  0
LINE
  8
_0-0_
  6
CONTINUOUS
 62
    7
 10
819.74245531494682
 20
420.29818659662897
 11
957.74248931494742
 21
402.29817659662922
  0
LINE
  8
_0-0_
  6
CONTINUOUS
 62
    7
 10
916.64718931494656
 20
214.67089664052332
 11
916.64718931494656
 21
407.65846659662975
  0
LINE
  8
_0-0_
  6
CONTINUOUS
 62
    7
 10
1136.7101388514893
 20
928.43079690072273
 11
809.30481685149073
 21
928.43079690072273
  0
LINE
  8
_0-0_
  6
CONTINUOUS
 62
    7
 10
1114.2101258514922
 20
1174.9308429007219
 11
1128.5798848514896
 21
1174.9308429007219
  0
LINE
  8
_0-0_
  6
CONTINUOUS
 62
    7
 10
1128.5798848514896
 20
1173.4308629007232
 11
1128.5798848514896
 21
1174.9308429007219
  0
LINE
  8
_0-0_
  6
CONTINUOUS
 62
    7
 10
1209.7577148514902
 20
1291.8307559007233
 11
1199.7578058514919
 21
1291.8307559007233
  0
LINE
  8
_0-0_
  6
CONTINUOUS
 62
    7
 10
1209.7577148514902
 20
1292.830907900722
 11
1209.7577148514902
 21
1291.8307559007233
  0
LINE
  8
_0-0_
  6
CONTINUOUS
 62
    7
 10
1217.7578148514913
 20
1292.830907900722
 11
1217.7578148514913
 21
1291.8307559007233
  0
LINE
  8
_0-0_
  6
CONTINUOUS
 62
    7
 10
1217.7578148514913
 20
1291.8307559007233
 11
1227.7577248514899
 21
1291.8307559007233
  0
LINE
  8
_0-0_
  6
CONTINUOUS
 62
    7
 10
1217.7578148514913
 20
1292.830907900722
 11
1228.7577528514921
 21
1292.830907900722
  0
LINE
  8
_0-0_
  6
CONTINUOUS
 62
    7
 10
1209.7577148514902
 20
1292.830907900722
 11
1198.7577778514897
 21
1292.830907900722
  0
LINE
  8
_0-0_
  6
CONTINUOUS
 62
    7
 10
1198.7577778514897
 20
1187.8308709007219
 11
1198.7577778514897
 21
1407.9188809007235
  0
LINE
  8
_0-0_
  6
CONTINUOUS
 62
    7
 10
1228.7577528514921
 20
1187.8308709007219
 11
1228.7577528514921
 21
1407.9188809007235
  0
LINE
  8
_0-0_
  6
CONTINUOUS
 62
    7
 10
1208.7577648514907
 20
1262.8308089007228
 11
1198.7577778514897
 21
1262.8308089007228
  0
LINE
  8
_0-0_
  6
CONTINUOUS
 62
    7
 10
1208.8588163952518
 20
1261.8306569007223
 11
1198.7577778514897
 21
1261.8306569007223
  0
LINE
  8
_0-0_
  6
CONTINUOUS
 62
    7
 10
1228.7577528514921
 20
1262.8308089007228
 11
1218.7577648514925
 21
1262.8308089007228
  0
LINE
  8
_0-0_
  6
CONTINUOUS
 62
    7
 10
1228.7577528514921
 20
1261.8306569007223
 11
1218.6567133077315
 21
1261.8306569007223
  0
LINE
  8
_0-0_
  6
CONTINUOUS
 62
    7
 10
1142.7101208514905
 20
1197.4308559007227
 11
1174.7577228514892
 21
1197.4308559007227
  0
LINE
  8
_0-0_
  6
CONTINUOUS
 62
    7
 10
1173.2577428514924
 20
1195.9308759007222
 11
1142.7101208514905
 21
1195.9308759007222
  0
LINE
  8
_0-0_
  6
CONTINUOUS
 62
    7
 10
1142.7101208514905
 20
1197.4308559007227
 11
1142.7101208514905
 21
1195.9308759007222
  0
LINE
  8
_0-0_
  6
CONTINUOUS
 62
    7
 10
1198.7577778514897
 20
1203.8308869007219
 11
1208.858791081484
 21
1203.8308869007219
  0
LINE
  8
_0-0_
  6
CONTINUOUS
 62
    7
 10
1198.7577778514897
 20
1202.8308589007233
 11
1208.7577362687844
 21
1202.8308589007233
  0
LINE
  8
_0-0_
  6
CONTINUOUS
 62
    7
 10
1218.6567679977561
 20
1203.8308869007219
 11
1228.7577528514921
 21
1203.8308869007219
  0
LINE
  8
_0-0_
  6
CONTINUOUS
 62
    7
 10
1228.7577528514921
 20
1202.8308589007233
 11
1218.7577648514925
 21
1202.8308589007233
  0
LINE
  8
_0-0_
  6
CONTINUOUS
 62
    7
 10
924.71006985149154
 20
985.01417794186955
 11
981.29345089263745
 21
928.43079690072182
  0
LINE
  8
_0-0_
  6
CONTINUOUS
 62
    7
 10
924.71006985149154
 20
992.08524575373485
 11
988.36451870450412
 21
928.43079690072364
  0
LINE
  8
_0-0_
  6
CONTINUOUS
 62
    7
 10
1050.5676098723306
 20
1085.4308079007237
 11
1136.710138851493
 21
999.28827892156323
  0
LINE
  8
_0-0_
  6
CONTINUOUS
 62
    7
 10
1057.6386776841991
 20
1085.4308079007224
 11
1136.7101388514893
 21
1006.3593467334313
  0
TEXT
  8
_0-0_
 62
    7
 10
1001.0988581212915
 20
476.35378049865949
 40
21.617968000000001
 41
1
 50
0
  1
ｼｰﾘﾝｸﾞ
  0
LINE
  8
_0-0_
  6
CONTINUOUS
 62
    7
 10
1527.5406939307977
 20
823.43079690072454
 11
1533.1415198514915
 21
829.03162282141648
  0
LINE
  8
_0-0_
  6
CONTINUOUS
 62
    7
 10
1520.4696261189329
 20
823.43079690072364
 11
1533.1415198514915
 21
836.10269063328133
  0
LINE
  8
_0-0_
  6
CONTINUOUS
 62
    7
 10
1156.5221940205811
 20
756.46821290072239
 11
1328.4847780205819
 21
928.43079690072227
  0
LINE
  8
_0-0_
  6
CONTINUOUS
 62
    7
 10
1149.4511262087162
 20
756.46821290072148
 11
1321.413710208717
 21
928.43079690072227
  0
LINE
  8
_0-0_
  6
CONTINUOUS
 62
    7
 10
1142.3800583968477
 20
756.46821290072194
 11
1314.3426423968485
 21
928.43079690072273
  0
LINE
  8
_0-0_
  6
CONTINUOUS
 62
    7
 10
912.35779429850129
 20
823.43079690072227
 11
1017.3577942985013
 21
928.43079690072227
  0
LINE
  8
_0-0_
  6
CONTINUOUS
 62
    7
 10
1136.7101388514893
 20
1047.7831414537113
 11
1178.8464326011654
 21
1089.9194352033865
  0
LINE
  8
_0-0_
  6
CONTINUOUS
 62
    7
 10
905.28672648663826
 20
823.43079690072318
 11
1010.2867264866383
 21
928.43079690072318
  0
LINE
  8
_0-0_
  6
CONTINUOUS
 62
    7
 10
1136.7101388514911
 20
1054.8542092655762
 11
1172.3192919221419
 21
1090.463362336227
  0
LINE
  8
_0-0_
  6
CONTINUOUS
 62
    7
 10
898.21565867476977
 20
823.43079690072273
 11
1003.2156586747716
 21
928.43079690072273
  0
LINE
  8
_0-0_
  6
CONTINUOUS
 62
    7
 10
1136.7101388514893
 20
1061.9252770774424
 11
1165.7921512431167
 21
1091.007289469067
  0
LINE
  8
_0-0_
  6
CONTINUOUS
 62
    7
 10
672.13606690525205
 20
1633.3565543671127
 11
1706.8525777203686
 21
1633.3565543671127
  0
LINE
  8
_0-0_
  6
CONTINUOUS
 62
    7
 10
672.13606690525205
 20
1553.3565543671127
 11
1706.8525777203686
 21
1553.3565543671127
  0
LINE
  8
_0-0_
  6
CONTINUOUS
 62
    7
 10
672.13606690525205
 20
1473.3565543671127
 11
1706.8525777203686
 21
1473.3565543671127
  0
LINE
  8
_0-0_
  6
CONTINUOUS
 62
    7
 10
1189.4943223128103
 20
1633.3565543671127
 11
1189.4943223128103
 21
1473.3565543671127
  0
TEXT
  8
_0-0_
 62
    7
 10
1213.4943223128103
 20
1577.3565543671127
 40
20
 41
1
 50
0
  1
構造：ＲＣ造
  0
TEXT
  8
_0-0_
 62
    7
 10
1213.4943223128103
 20
1497.3565543671127
 40
20
 41
1
 50
0
  1
下地：コンクリートスラブ
  0
TEXT
  8
_0-0_
 62
    7
 10
696.13606690525194
 20
1577.3565543671127
 40
20
 41
1
 50
0
  1
図面番号：tsuki-SP-sash-01
  0
TEXT
  8
_0-0_
 62
    7
 10
696.13606690525205
 20
1497.3565543671127
 40
20
 41
1
 50
0
  1
施工部位：サッシ廻り
  0
ENDSEC
  0
EOF
