  0
SECTION
  2
HEADER
  9
$ACADVER
  1
AC1009
  9
$INSBASE
 10
0
 20
0
 30
0
  9
$EXTMIN
 10
0
 20
0
  9
$EXTMAX
 10
2378
 20
1682
  9
$LIMMIN
 10
0
 20
0
  9
$LIMMAX
 10
2378
 20
1682
  9
$LTSCALE
 40
1
  0
ENDSEC
  0
SECTION
  2
TABLES
  0
TABLE
  2
LTYPE
 70
     9
  0
LTYPE
  2
CONTINUOUS
 70
    64
  3
実線
 72
    65
 73
     0
 40
0.0
  0
LTYPE
  2
DASHED1
 70
    64
  3
--  --  --  --  --  --  --  --  
 72
    65
 73
     2
 40
2.5
 49
1.25
 49
-1.25
  0
LTYPE
  2
DASHED2
 70
    64
  3
----    ----    ----    ----    
 72
    65
 73
     2
 40
5.0
 49
2.5
 49
-2.5
  0
LTYPE
  2
DASHED3
 70
    64
  3
------  ------  ------  ------  
 72
    65
 73
     2
 40
5.0
 49
3.75
 49
-1.25
  0
LTYPE
  2
CENTER1
 70
    64
  3
----- - ----- - ----- - ----- - 
 72
    65
 73
     4
 40
10.0
 49
6.25
 49
-1.25
 49
1.25
 49
-1.25
  0
LTYPE
  2
CENTER2
 70
    64
  3
----------  --  ----------  --  
 72
    65
 73
     4
 40
20.0
 49
12.5
 49
-2.5
 49
2.5
 49
-2.5
  0
LTYPE
  2
PHANTOM1
 70
    64
  3
--- - - --- - - --- - - --- - - 
 72
    65
 73
     6
 40
10.0
 49
3.25
 49
-1.25
 49
1.25
 49
-1.25
 49
1.25
 49
-1.25
  0
LTYPE
  2
PHANTOM2
 70
    64
  3
--------  -  -  --------  -  -  
 72
    65
 73
     6
 40
20.0
 49
10.0
 49
-2.5
 49
1.25
 49
-2.5
 49
1.25
 49
-2.5
  0
LTYPE
  2
DOT
 70
    64
  3
-   -   -   -   -   -   -   -   
 72
    65
 73
     2
 40
2.5
 49
0.625
 49
-1.875
  0
LTYPE
  2
DUMMY
 70
    64
  3
ダミー
 72
    65
 73
     0
 40
0.0
  0
LTYPE
  2
RAND1
 70
    64
  3
ランダム線1
 72
    65
 73
     4
 40
10.0
 49
1.0
 49
-2.0
 49
3.0
 49
-4.0
  0
LTYPE
  2
RAND2
 70
    64
  3
ランダム線2
 72
    65
 73
     4
 40
14.0
 49
2.0
 49
-3.0
 49
4.0
 49
-5.0
  0
LTYPE
  2
RAND3
 70
    64
  3
ランダム線3
 72
    65
 73
     4
 40
18.0
 49
3.0
 49
-4.0
 49
5.0
 49
-6.0
  0
LTYPE
  2
RAND4
 70
    64
  3
ランダム線4
 72
    65
 73
     4
 40
22.0
 49
4.0
 49
-5.0
 49
6.0
 49
-7.0
  0
LTYPE
  2
RAND5
 70
    64
  3
ランダム線5
 72
    65
 73
     4
 40
26.0
 49
5.0
 49
-6.0
 49
7.0
 49
-8.0
  0
LTYPE
  2
LONG1
 70
    64
  3
----------  --  ----------  --  
 72
    65
 73
     4
 40
40.0
 49
32.5
 49
-2.5
 49
2.5
 49
-2.5
  0
LTYPE
  2
LONG2
 70
    64
  3
--------  -  -  --------  -  -  
 72
    65
 73
     6
 40
40.0
 49
30.0
 49
-2.5
 49
1.25
 49
-2.5
 49
1.25
 49
-2.5
  0
LTYPE
  2
LONG3
 70
    64
  3
+++++++++++++++..+++++++++++++++
 72
    65
 73
     2
 40
40.0
 49
37.5
 49
-2.5
  0
LTYPE
  2
LONG4
 70
    64
  3
+++++++++++++++..+++++++++++++++
 72
    65
 73
     2
 40
80.0
 49
75.0
 49
-5.0
  0
LTYPE
  2
LONG5
 70
    64
  3
----------  --  ----------  --  
 72
    65
 73
     4
 40
60.0
 49
37.5
 49
-7.5
 49
7.5
 49
-7.5
  0
LTYPE
  2
dashed
 70
   64
  3
-------   -------------   ------
 72
   65
 73
    2
 40
7.5
 49
6
 49
-1.5
  0
LTYPE
  2
dashed_spaced
 70
   64
  3
----        --------        ----
 72
   65
 73
    2
 40
12
 49
6
 49
-6
  0
LTYPE
  2
long_dashed_dotted
 70
   64
  3
------------- --- --------------
 72
   65
 73
    4
 40
15.25
 49
12
 49
-1.5
 49
0.25
 49
-1.5
  0
LTYPE
  2
long_dashed_double-dotted
 70
   64
  3
----------- --- --- ------------
 72
   65
 73
    6
 40
17
 49
12
 49
-1.5
 49
0.25
 49
-1.5
 49
0.25
 49
-1.5
  0
LTYPE
  2
long_dashed_triplicate-dotted
 70
   64
  3
--------- --- --- --- ----------
 72
   65
 73
    8
 40
18.75
 49
12
 49
-1.5
 49
0.25
 49
-1.5
 49
0.25
 49
-1.5
 49
0.25
 49
-1.5
  0
LTYPE
  2
dotted
 70
   64
  3
   -       -       -       -    
 72
   65
 73
    2
 40
1.75
 49
0.25
 49
-1.5
  0
LTYPE
  2
chain
 70
   64
  3
-------------- -- --------------
 72
   65
 73
    4
 40
18.5
 49
12
 49
-1.5
 49
3.5
 49
-1.5
  0
LTYPE
  2
chain_double_dash
 70
   64
  3
------------ -- -- -------------
 72
   65
 73
    6
 40
23.5
 49
12
 49
-1.5
 49
3.5
 49
-1.5
 49
3.5
 49
-1.5
  0
LTYPE
  2
dashed_dotted
 70
   64
  3
-----------     -     ----------
 72
   65
 73
    4
 40
9.25
 49
6
 49
-1.5
 49
0.25
 49
-1.5
  0
LTYPE
  2
double-dashed_dotted
 70
   64
  3
------   -----------   -   -----
 72
   65
 73
    6
 40
16.75
 49
6
 49
-1.5
 49
6
 49
-1.5
 49
0.25
 49
-1.5
  0
LTYPE
  2
dashed_double-dotted
 70
   64
  3
---------    -    -    ---------
 72
   65
 73
    6
 40
11
 49
6
 49
-1.5
 49
0.25
 49
-1.5
 49
0.25
 49
-1.5
  0
LTYPE
  2
double-dashed_double-dotted
 70
   64
  3
-----   ---------   -   -   ----
 72
   65
 73
    8
 40
18.5
 49
6
 49
-1.5
 49
6
 49
-1.5
 49
0.25
 49
-1.5
 49
0.25
 49
-1.5
  0
LTYPE
  2
dashed_triplicate-dotted
 70
   64
  3
-------    -    -    -    ------
 72
   65
 73
    8
 40
12.75
 49
6
 49
-1.5
 49
0.25
 49
-1.5
 49
0.25
 49
-1.5
 49
0.25
 49
-1.5
  0
LTYPE
  2
double-dashed_triplicate-dotted
 70
   64
  3
-----  ---------  -  -  -  -----
 72
   65
 73
   10
 40
20.25
 49
6
 49
-1.5
 49
6
 49
-1.5
 49
0.25
 49
-1.5
 49
0.25
 49
-1.5
 49
0.25
 49
-1.5
  0
LTYPE
  2
undefined
 70
   64
  3
--------------------------------
 72
   65
 73
    0
 40
0
  0
ENDTAB
  0
TABLE
  2
STYLE
  5
3
100
AcDbSymbolTable
 70
     1
  0
STYLE
  5
10
100
AcDbSymbolTableRecord
100
AcDbTextStyleTableRecord
  2
STANDARD
 70
     0
 40
0.0
 41
1.0
 50
0.0
 71
     0
 42
0.2
  3
txt
  4
bigfont.shx
  0
STYLE
  5
26
100
AcDbSymbolTableRecord
100
AcDbTextStyleTableRecord
  2
TATEGAKI
 70
    68
 40
0.0
 41
1.0
 50
0.0
 71
     0
 42
1.0
  3
txt
  4
bigfont.shx
  0
ENDTAB
  0
TABLE
  2
LAYER
 70
    2
  0
LAYER
  2
_0-0_
 70
   64
 62
    7
  6
CONTINUOUS
  0
LAYER
  2
ADD_LINE
 70
   64
 62
    7
  6
CONTINUOUS
  0
ENDTAB
  0
ENDSEC
  0
SECTION
  2
BLOCKS
  0
ENDSEC
  0
SECTION
  2
ENTITIES
  0
LINE
  8
_0-0_
  6
CONTINUOUS
 62
    7
 10
759.09516684022321
 20
425.60309217314853
 11
1073.1504468372332
 21
414.63604013270924
  0
LINE
  8
_0-0_
  6
CONTINUOUS
 62
    7
 10
873.92549915611391
 20
1232.3991718858965
 11
913.14886520765515
 21
1271.6225379374382
  0
LINE
  8
_0-0_
  6
CONTINUOUS
 62
    7
 10
873.92549915611391
 20
1239.4702396977605
 11
906.31639259689121
 21
1271.8611331385382
  0
LINE
  8
_0-0_
  6
CONTINUOUS
 62
    7
 10
873.92549915611391
 20
1246.5413075096253
 11
899.48391998612362
 21
1272.0997283396373
  0
LINE
  8
_0-0_
  6
CONTINUOUS
 62
    7
 10
1706.8525777203686
 20
1633.3565543671134
 11
1706.8525777203686
 21
167.53106997205509
  0
LINE
  8
_0-0_
  6
CONTINUOUS
 62
    7
 10
672.13606690525205
 20
567.53106997205487
 11
1706.8525777203686
 21
567.53106997205487
  0
LINE
  8
_0-0_
  6
CONTINUOUS
 62
    7
 10
672.13606690525205
 20
167.53106997205509
 11
1706.8525777203686
 21
167.53106997205509
  0
LINE
  8
_0-0_
  6
CONTINUOUS
 62
    7
 10
672.13606690525205
 20
627.53106997205487
 11
1706.8525777203686
 21
627.53106997205487
  0
LINE
  8
_0-0_
  6
CONTINUOUS
 62
    7
 10
1189.4943223128103
 20
627.53106997205487
 11
1189.4943223128103
 21
167.53106997205509
  0
LINE
  8
_0-0_
  6
CONTINUOUS
 62
    7
 10
672.13606690525205
 20
1633.3565543671134
 11
672.13606690525205
 21
167.53106997205509
  0
LINE
  8
_0-0_
  6
CONTINUOUS
 62
    7
 10
1013.5056235992271
 20
1268.1180027107075
 11
1023.9254991561139
 21
1257.3279057056279
  0
LINE
  8
_0-0_
  6
CONTINUOUS
 62
    4
 10
1016.1377012032937
 20
1274.0297458012051
 11
1029.9254991561138
 21
1259.7520630606386
  0
LINE
  8
_0-0_
  6
CONTINUOUS
 62
    7
 10
1223.9254991561138
 20
872.99224806201528
 11
1523.9254991561138
 21
872.99224806201528
  0
LINE
  8
_0-0_
  6
CONTINUOUS
 62
    7
 10
1223.9254991561138
 20
872.99224806201528
 11
1223.9254991561138
 21
772.99224806201528
  0
LINE
  8
_0-0_
  6
CONTINUOUS
 62
    7
 10
1023.9254991561139
 20
1052.9922480620153
 11
1023.9254991561139
 21
1257.3279057056279
  0
LINE
  8
_0-0_
  6
CONTINUOUS
 62
    7
 10
1023.9254991561139
 20
1052.9922480620153
 11
1523.9254991561138
 21
1052.9922480620153
  0
LINE
  8
_0-0_
  6
CONTINUOUS
 62
    4
 10
1029.9254991561138
 20
1259.7520630606386
 11
1029.9254991561138
 21
1067.9922480620153
  0
LINE
  8
_0-0_
  6
CONTINUOUS
 62
    4
 10
1029.9254991561138
 20
1067.9922480620153
 11
1523.9254991561138
 21
1067.9922480620153
  0
LINE
  8
_0-0_
  6
CONTINUOUS
 62
    3
 10
1073.9254991561138
 20
1058.9922480620153
 11
1523.9254991561138
 21
1058.9922480620153
  0
LINE
  8
_0-0_
  6
CONTINUOUS
 62
    3
 10
1073.9254991561138
 20
1058.9922480620153
 11
1073.9254991561138
 21
1052.9922480620153
  0
CIRCLE
  8
_0-0_
  6
DASHED2
 62
    1
 10
951.16433613602578
 20
1269.5458920707847
 40
94.513505632925799
  0
LINE
  8
_0-0_
  6
CONTINUOUS
 62
    4
 10
1110.0951668402231
 20
395.81267592005315
 11
1110.0951668402231
 21
252.65735719276381
  0
LINE
  8
_0-0_
  6
CONTINUOUS
 62
    7
 10
1096.5951668402231
 20
252.65735719276381
 11
1096.5951668402231
 21
390.35832187127926
  0
LINE
  8
_0-0_
  6
CONTINUOUS
 62
    4
 10
1079.0726214463757
 20
427.93746208632729
 11
1110.0951668402231
 21
395.81267592005315
  0
LINE
  8
_0-0_
  6
CONTINUOUS
 62
    7
 10
1073.1504468372332
 20
414.63604013270924
 11
1096.5951668402231
 21
390.35832187127926
  0
LINE
  8
_0-0_
  6
CONTINUOUS
 62
    7
 10
759.09516684022685
 20
334.26867077688439
 11
847.34774045619281
 21
422.52124439285217
  0
LINE
  8
_0-0_
  6
CONTINUOUS
 62
    7
 10
759.09516684022321
 20
350.17857335357894
 11
831.97467708197303
 21
423.05808359532784
  0
LINE
  8
_0-0_
  6
CONTINUOUS
 62
    7
 10
759.09516684022321
 20
366.08847593027531
 11
816.60161370774961
 21
423.59492279780079
  0
LINE
  8
_0-0_
  6
CONTINUOUS
 62
    7
 10
1216.173326509459
 20
1060.4922480620153
 11
1275.9312715000378
 21
1163.9960449416039
  0
POINT
  8
_0-0_
 62
    7
 10
1216.173326509459
 20
1060.4922480620153
  0
CIRCLE
  8
_0-0_
  6
DASHED2
 62
    1
 10
1073.9254991561138
 20
1058.9922480620153
 40
67.350194333739935
  0
TEXT
  8
_0-0_
 62
    7
 10
941.25844822474039
 20
1351.4850665766121
 40
24
 41
1
 50
0
  1
Ａ
  0
TEXT
  8
_0-0_
 62
    7
 10
1281.854390677061
 20
1152.7130571416201
 40
30
 41
1
 50
0
  1
防水層
  0
TEXT
  8
_0-0_
 62
    7
 10
1060.6039995918036
 20
1114.1237376053605
 40
24
 41
1
 50
0
  1
Ｂ
  0
LINE
  8
_0-0_
  6
DASHED2
 62
    5
 10
1422.7047158659043
 20
296.19485465313892
 11
1521.6653029485133
 21
296.19485465313892
  0
LINE
  8
_0-0_
  6
CONTINUOUS
 62
    7
 10
1371.0504238440481
 20
308.55014819444341
 11
1418.0674728224622
 21
389.98606584701565
  0
LINE
  8
_0-0_
  6
CONTINUOUS
 62
    7
 10
1220.7833774379178
 20
422.3222123745677
 11
1295.3069653423299
 21
496.84580027898073
  0
LINE
  8
_0-0_
  6
CONTINUOUS
 62
    7
 10
1220.7833774379178
 20
438.23211495126498
 11
1279.3970627656345
 21
496.84580027898073
  0
LINE
  8
_0-0_
  6
CONTINUOUS
 62
    7
 10
1220.7833774379178
 20
454.14201752796043
 11
1263.487160188939
 21
496.84580027898073
  0
LINE
  8
_0-0_
  6
CONTINUOUS
 62
    7
 10
1310.2047158659043
 20
279.69485465313892
 11
1670.3763184852978
 21
279.69485465313892
  0
LINE
  8
_0-0_
  6
CONTINUOUS
 62
    3
 10
1422.7047158659043
 20
293.19485465313892
 11
1670.3763184852978
 21
293.19485465313892
  0
LINE
  8
_0-0_
  6
CONTINUOUS
 62
    4
 10
1323.7047158659043
 20
313.44485465313892
 11
1670.3763184852978
 21
313.44485465313892
  0
LINE
  8
_0-0_
  6
CONTINUOUS
 62
    7
 10
1506.0550989094663
 20
198.47705139180175
 11
1587.2729021708001
 21
279.69485465313619
  0
LINE
  8
_0-0_
  6
CONTINUOUS
 62
    7
 10
1490.1451963327672
 20
198.47705139180175
 11
1571.3629995941046
 21
279.69485465313619
  0
LINE
  8
_0-0_
  6
CONTINUOUS
 62
    7
 10
1474.2352937560718
 20
198.47705139180175
 11
1555.4530970174092
 21
279.69485465313619
  0
LINE
  8
_0-0_
  6
CONTINUOUS
 62
    4
 10
1323.7047158659043
 20
496.84580027898073
 11
1323.7047158659043
 21
313.44485465313892
  0
LINE
  8
_0-0_
  6
CONTINUOUS
 62
    7
 10
1310.2047158659043
 20
279.69485465313892
 11
1310.2047158659043
 21
496.84580027898073
  0
LINE
  8
_0-0_
  6
DASHED2
 62
    5
 10
1310.2047158659043
 20
285.69485465313892
 11
1412.2047158659043
 21
285.69485465313892
  0
LINE
  8
_0-0_
  6
CONTINUOUS
 62
    3
 10
1422.7047158659043
 20
293.19485465313892
 11
1422.7047158659043
 21
279.69485465313892
  0
LINE
  8
_0-0_
  6
DASHED2
 62
    5
 10
1422.7047158659043
 20
296.19485465313892
 11
1412.2047158659043
 21
285.69485465313892
  0
POINT
  8
_0-0_
 62
    7
 10
1371.0504238440481
 20
308.55014819444341
  0
LINE
  8
_0-0_
  6
CONTINUOUS
 62
    7
 10
1331.1862387811852
 20
313.44485465313892
 11
1409.8981044941575
 21
449.77780522654894
  0
POINT
  8
_0-0_
 62
    7
 10
1331.1862387811852
 20
313.44485465313892
  0
POINT
  8
_0-0_
 62
    7
 10
1470.551363844821
 20
296.19485465313892
  0
POINT
  8
_0-0_
 62
    7
 10
1528.4611656348316
 20
286.44485465313892
  0
LINE
  8
_0-0_
  6
CONTINUOUS
 62
    7
 10
1575.439712282845
 20
279.69485465313892
 11
1606.8044202980018
 21
334.02012249995323
  0
POINT
  8
_0-0_
 62
    7
 10
1575.439712282845
 20
279.69485465313892
  0
TEXT
  8
_0-0_
 62
    7
 10
1429.6891920142079
 20
576.02721287347686
 40
40
 41
1
 50
0
  1
Ｂ
  0
TEXT
  8
_0-0_
 62
    7
 10
906.73245032900388
 20
575.67973412101128
 40
40
 41
1
 50
0
  1
Ａ
  0
LINE
  8
_0-0_
  6
CONTINUOUS
 62
    7
 10
1470.551363844821
 20
296.19485465313892
 11
1533.1303663557628
 21
404.58486648906683
  0
TEXT
  8
_0-0_
 62
    7
 10
1399.5068927677239
 20
452.12634271623642
 40
21.617968000000001
 41
1
 50
0
  1
ﾄｯﾌﾟｺｰﾄ
  0
TEXT
  8
_0-0_
 62
    7
 10
1522.5501892095308
 20
411.60088476393184
 40
21.617968000000001
 41
1
 50
0
  1
DFﾒｯｼｭﾃｰﾌﾟ
  0
LINE
  8
_0-0_
  6
CONTINUOUS
 62
    7
 10
1528.4611656348316
 20
286.44485465313892
 11
1573.3628496420279
 21
364.21685269900786
  0
TEXT
  8
_0-0_
 62
    7
 10
1401.9769829823308
 20
392.87425600384904
 40
21.617968000000001
 41
1
 50
0
  1
ｳﾚﾀﾝ防水
  0
TEXT
  8
_0-0_
 62
    7
 10
1549.2375306004178
 20
369.8821356726437
 40
21.617968000000001
 41
1
 50
0
  1
通気緩衝ｼｰﾄ
  0
TEXT
  8
_0-0_
 62
    7
 10
1601.3991524098783
 20
335.38022033692801
 40
21.617968000000001
 41
1
 50
0
  1
ﾌﾟﾗｲﾏｰ
  0
LINE
  8
_0-0_
  6
CONTINUOUS
 62
    7
 10
1470.0169725248961
 20
872.9922480620146
 11
1523.9254991561138
 21
926.90077469323182
  0
LINE
  8
_0-0_
  6
CONTINUOUS
 62
    7
 10
1462.9459047130294
 20
872.99224806201596
 11
1523.9254991561138
 21
933.97184250509849
  0
LINE
  8
_0-0_
  6
CONTINUOUS
 62
    7
 10
1455.8748369011628
 20
872.99224806201505
 11
1523.9254991561138
 21
941.04291031696516
  0
LINE
  8
_0-0_
  6
CONTINUOUS
 62
    7
 10
1058.8899888028136
 20
772.99224806201596
 11
1338.8899888028136
 21
1052.9922480620155
  0
LINE
  8
_0-0_
  6
CONTINUOUS
 62
    7
 10
1051.8189209909506
 20
772.99224806201551
 11
1331.8189209909469
 21
1052.9922480620146
  0
LINE
  8
_0-0_
  6
CONTINUOUS
 62
    7
 10
1044.7478531790803
 20
772.99224806201642
 11
1324.7478531790803
 21
1052.992248062016
  0
LINE
  8
_0-0_
  6
CONTINUOUS
 62
    7
 10
873.92549915611391
 20
899.15474213739731
 11
1027.7630050807311
 21
1052.9922480620164
  0
LINE
  8
_0-0_
  6
CONTINUOUS
 62
    7
 10
873.92549915611391
 20
906.22580994926034
 11
1023.9254991561139
 21
1056.2258099492599
  0
LINE
  8
_0-0_
  6
CONTINUOUS
 62
    7
 10
873.92549915611391
 20
913.29687776112655
 11
1023.9254991561139
 21
1063.2968777611261
  0
LINE
  8
_0-0_
  6
CONTINUOUS
 62
    7
 10
1470.0169725248961
 20
872.9922480620146
 11
1523.9254991561138
 21
926.90077469323182
  0
LINE
  8
_0-0_
  6
CONTINUOUS
 62
    7
 10
1462.9459047130294
 20
872.99224806201596
 11
1523.9254991561138
 21
933.97184250509849
  0
LINE
  8
_0-0_
  6
CONTINUOUS
 62
    7
 10
1455.8748369011628
 20
872.99224806201505
 11
1523.9254991561138
 21
941.04291031696516
  0
LINE
  8
_0-0_
  6
CONTINUOUS
 62
    7
 10
1058.8899888028136
 20
772.99224806201596
 11
1338.8899888028136
 21
1052.9922480620155
  0
LINE
  8
_0-0_
  6
CONTINUOUS
 62
    7
 10
1051.8189209909506
 20
772.99224806201551
 11
1331.8189209909469
 21
1052.9922480620146
  0
LINE
  8
_0-0_
  6
CONTINUOUS
 62
    7
 10
1044.7478531790803
 20
772.99224806201642
 11
1324.7478531790803
 21
1052.992248062016
  0
LINE
  8
_0-0_
  6
CONTINUOUS
 62
    7
 10
873.92549915611391
 20
899.15474213739731
 11
1027.7630050807311
 21
1052.9922480620164
  0
LINE
  8
_0-0_
  6
CONTINUOUS
 62
    7
 10
873.92549915611391
 20
906.22580994926034
 11
1023.9254991561139
 21
1056.2258099492599
  0
LINE
  8
_0-0_
  6
CONTINUOUS
 62
    7
 10
873.92549915611391
 20
913.29687776112655
 11
1023.9254991561139
 21
1063.2968777611261
  0
LINE
  8
_0-0_
  6
CONTINUOUS
 62
    4
 10
873.92549915611391
 20
1273.8182537588555
 11
873.92549915611391
 21
1272.9922480620144
  0
ARC
  8
_0-0_
  6
CONTINUOUS
 62
    4
 10
878.92549915611391
 20
1273.8182537588555
 40
5
 50
87.999999999996234
 51
180.00000000000003
  0
LINE
  8
_0-0_
  6
CONTINUOUS
 62
    4
 10
879.09999663962674
 20
1278.8152078939506
 11
1016.1377012032937
 21
1274.0297458012051
  0
LINE
  8
_0-0_
  6
CONTINUOUS
 62
    7
 10
873.92549915611391
 20
1272.9922480620148
 11
873.92549915611391
 21
772.99224806201528
  0
LINE
  8
_0-0_
  6
CONTINUOUS
 62
    7
 10
873.92549915611391
 20
1272.9922480620148
 11
1013.5056235992271
 21
1268.1180027107075
  0
LINE
  8
_0-0_
  6
CONTINUOUS
 62
    7
 10
759.09516684022321
 20
425.60309217314853
 11
759.09516684022321
 21
252.65735719276381
  0
LINE
  8
_0-0_
  6
CONTINUOUS
 62
    4
 10
769.44416180724886
 20
438.74992615346991
 11
1079.0726214463757
 21
427.93746208632729
  0
LINE
  8
_0-0_
  6
CONTINUOUS
 62
    4
 10
759.09516684022321
 20
428.75601788327913
 11
759.09516684022321
 21
425.60309217314853
  0
ARC
  8
_0-0_
  6
CONTINUOUS
 62
    4
 10
769.09516684022321
 20
428.75601788327913
 40
10
 50
88.000000000000028
 51
180
  0
LINE
  8
_0-0_
  6
CONTINUOUS
 62
    7
 10
1124.4670144048614
 20
439.41937688108027
 11
1084.8728068387284
 21
402.49718100199408
  0
POINT
  8
_0-0_
 62
    7
 10
1084.8728068387284
 20
402.49718100199408
  0
TEXT
  8
_0-0_
 62
    7
 10
1101.6880596118021
 20
442.88041584039422
 40
21.617968000000001
 41
1
 50
0
  1
面取り
  0
LINE
  8
_0-0_
  6
CONTINUOUS
 62
    7
 10
672.13606690525205
 20
1633.3565543671134
 11
1706.8525777203686
 21
1633.3565543671134
  0
LINE
  8
_0-0_
  6
CONTINUOUS
 62
    7
 10
672.13606690525205
 20
1553.3565543671134
 11
1706.8525777203686
 21
1553.3565543671134
  0
TEXT
  8
_0-0_
 62
    7
 10
1213.4943223128103
 20
1577.3565543671134
 40
20
 41
1
 50
0
  1
構造：ＲＣ造
  0
TEXT
  8
_0-0_
 62
    7
 10
696.13606690525205
 20
1497.3565543671134
 40
20
 41
1
 50
0
  1
施工部位：パラペット
  0
LINE
  8
_0-0_
  6
CONTINUOUS
 62
    7
 10
672.13606690525205
 20
1473.3565543671134
 11
1706.8525777203686
 21
1473.3565543671134
  0
TEXT
  8
_0-0_
 62
    7
 10
1213.4943223128103
 20
1497.3565543671134
 40
20
 41
1
 50
0
  1
下地：コンクリートスラブ
  0
LINE
  8
_0-0_
  6
CONTINUOUS
 62
    7
 10
1189.4943223128103
 20
1633.3565543671134
 11
1189.4943223128103
 21
1473.3565543671134
  0
TEXT
  8
_0-0_
 62
    7
 10
696.13606690525194
 20
1577.3565543671134
 40
20
 41
1
 50
0
  1
図面番号：tsuki-SP-para-01
  0
ENDSEC
  0
EOF
