  0
SECTION
  2
HEADER
  9
$ACADVER
  1
AC1009
  9
$INSBASE
 10
0
 20
0
 30
0
  9
$EXTMIN
 10
0
 20
0
  9
$EXTMAX
 10
2378
 20
1682
  9
$LIMMIN
 10
0
 20
0
  9
$LIMMAX
 10
2378
 20
1682
  9
$LTSCALE
 40
1
  0
ENDSEC
  0
SECTION
  2
TABLES
  0
TABLE
  2
LTYPE
 70
     9
  0
LTYPE
  2
CONTINUOUS
 70
    64
  3
実線
 72
    65
 73
     0
 40
0.0
  0
LTYPE
  2
DASHED1
 70
    64
  3
--  --  --  --  --  --  --  --  
 72
    65
 73
     2
 40
2.5
 49
1.25
 49
-1.25
  0
LTYPE
  2
DASHED2
 70
    64
  3
----    ----    ----    ----    
 72
    65
 73
     2
 40
5.0
 49
2.5
 49
-2.5
  0
LTYPE
  2
DASHED3
 70
    64
  3
------  ------  ------  ------  
 72
    65
 73
     2
 40
5.0
 49
3.75
 49
-1.25
  0
LTYPE
  2
CENTER1
 70
    64
  3
----- - ----- - ----- - ----- - 
 72
    65
 73
     4
 40
10.0
 49
6.25
 49
-1.25
 49
1.25
 49
-1.25
  0
LTYPE
  2
CENTER2
 70
    64
  3
----------  --  ----------  --  
 72
    65
 73
     4
 40
20.0
 49
12.5
 49
-2.5
 49
2.5
 49
-2.5
  0
LTYPE
  2
PHANTOM1
 70
    64
  3
--- - - --- - - --- - - --- - - 
 72
    65
 73
     6
 40
10.0
 49
3.25
 49
-1.25
 49
1.25
 49
-1.25
 49
1.25
 49
-1.25
  0
LTYPE
  2
PHANTOM2
 70
    64
  3
--------  -  -  --------  -  -  
 72
    65
 73
     6
 40
20.0
 49
10.0
 49
-2.5
 49
1.25
 49
-2.5
 49
1.25
 49
-2.5
  0
LTYPE
  2
DOT
 70
    64
  3
-   -   -   -   -   -   -   -   
 72
    65
 73
     2
 40
2.5
 49
0.625
 49
-1.875
  0
LTYPE
  2
DUMMY
 70
    64
  3
ダミー
 72
    65
 73
     0
 40
0.0
  0
LTYPE
  2
RAND1
 70
    64
  3
ランダム線1
 72
    65
 73
     4
 40
10.0
 49
1.0
 49
-2.0
 49
3.0
 49
-4.0
  0
LTYPE
  2
RAND2
 70
    64
  3
ランダム線2
 72
    65
 73
     4
 40
14.0
 49
2.0
 49
-3.0
 49
4.0
 49
-5.0
  0
LTYPE
  2
RAND3
 70
    64
  3
ランダム線3
 72
    65
 73
     4
 40
18.0
 49
3.0
 49
-4.0
 49
5.0
 49
-6.0
  0
LTYPE
  2
RAND4
 70
    64
  3
ランダム線4
 72
    65
 73
     4
 40
22.0
 49
4.0
 49
-5.0
 49
6.0
 49
-7.0
  0
LTYPE
  2
RAND5
 70
    64
  3
ランダム線5
 72
    65
 73
     4
 40
26.0
 49
5.0
 49
-6.0
 49
7.0
 49
-8.0
  0
LTYPE
  2
LONG1
 70
    64
  3
----------  --  ----------  --  
 72
    65
 73
     4
 40
40.0
 49
32.5
 49
-2.5
 49
2.5
 49
-2.5
  0
LTYPE
  2
LONG2
 70
    64
  3
--------  -  -  --------  -  -  
 72
    65
 73
     6
 40
40.0
 49
30.0
 49
-2.5
 49
1.25
 49
-2.5
 49
1.25
 49
-2.5
  0
LTYPE
  2
LONG3
 70
    64
  3
+++++++++++++++..+++++++++++++++
 72
    65
 73
     2
 40
40.0
 49
37.5
 49
-2.5
  0
LTYPE
  2
LONG4
 70
    64
  3
+++++++++++++++..+++++++++++++++
 72
    65
 73
     2
 40
80.0
 49
75.0
 49
-5.0
  0
LTYPE
  2
LONG5
 70
    64
  3
----------  --  ----------  --  
 72
    65
 73
     4
 40
60.0
 49
37.5
 49
-7.5
 49
7.5
 49
-7.5
  0
LTYPE
  2
dashed
 70
   64
  3
-------   -------------   ------
 72
   65
 73
    2
 40
7.5
 49
6
 49
-1.5
  0
LTYPE
  2
dashed_spaced
 70
   64
  3
----        --------        ----
 72
   65
 73
    2
 40
12
 49
6
 49
-6
  0
LTYPE
  2
long_dashed_dotted
 70
   64
  3
------------- --- --------------
 72
   65
 73
    4
 40
15.25
 49
12
 49
-1.5
 49
0.25
 49
-1.5
  0
LTYPE
  2
long_dashed_double-dotted
 70
   64
  3
----------- --- --- ------------
 72
   65
 73
    6
 40
17
 49
12
 49
-1.5
 49
0.25
 49
-1.5
 49
0.25
 49
-1.5
  0
LTYPE
  2
long_dashed_triplicate-dotted
 70
   64
  3
--------- --- --- --- ----------
 72
   65
 73
    8
 40
18.75
 49
12
 49
-1.5
 49
0.25
 49
-1.5
 49
0.25
 49
-1.5
 49
0.25
 49
-1.5
  0
LTYPE
  2
dotted
 70
   64
  3
   -       -       -       -    
 72
   65
 73
    2
 40
1.75
 49
0.25
 49
-1.5
  0
LTYPE
  2
chain
 70
   64
  3
-------------- -- --------------
 72
   65
 73
    4
 40
18.5
 49
12
 49
-1.5
 49
3.5
 49
-1.5
  0
LTYPE
  2
chain_double_dash
 70
   64
  3
------------ -- -- -------------
 72
   65
 73
    6
 40
23.5
 49
12
 49
-1.5
 49
3.5
 49
-1.5
 49
3.5
 49
-1.5
  0
LTYPE
  2
dashed_dotted
 70
   64
  3
-----------     -     ----------
 72
   65
 73
    4
 40
9.25
 49
6
 49
-1.5
 49
0.25
 49
-1.5
  0
LTYPE
  2
double-dashed_dotted
 70
   64
  3
------   -----------   -   -----
 72
   65
 73
    6
 40
16.75
 49
6
 49
-1.5
 49
6
 49
-1.5
 49
0.25
 49
-1.5
  0
LTYPE
  2
dashed_double-dotted
 70
   64
  3
---------    -    -    ---------
 72
   65
 73
    6
 40
11
 49
6
 49
-1.5
 49
0.25
 49
-1.5
 49
0.25
 49
-1.5
  0
LTYPE
  2
double-dashed_double-dotted
 70
   64
  3
-----   ---------   -   -   ----
 72
   65
 73
    8
 40
18.5
 49
6
 49
-1.5
 49
6
 49
-1.5
 49
0.25
 49
-1.5
 49
0.25
 49
-1.5
  0
LTYPE
  2
dashed_triplicate-dotted
 70
   64
  3
-------    -    -    -    ------
 72
   65
 73
    8
 40
12.75
 49
6
 49
-1.5
 49
0.25
 49
-1.5
 49
0.25
 49
-1.5
 49
0.25
 49
-1.5
  0
LTYPE
  2
double-dashed_triplicate-dotted
 70
   64
  3
-----  ---------  -  -  -  -----
 72
   65
 73
   10
 40
20.25
 49
6
 49
-1.5
 49
6
 49
-1.5
 49
0.25
 49
-1.5
 49
0.25
 49
-1.5
 49
0.25
 49
-1.5
  0
LTYPE
  2
undefined
 70
   64
  3
--------------------------------
 72
   65
 73
    0
 40
0
  0
ENDTAB
  0
TABLE
  2
STYLE
  5
3
100
AcDbSymbolTable
 70
     1
  0
STYLE
  5
10
100
AcDbSymbolTableRecord
100
AcDbTextStyleTableRecord
  2
STANDARD
 70
     0
 40
0.0
 41
1.0
 50
0.0
 71
     0
 42
0.2
  3
txt
  4
bigfont.shx
  0
STYLE
  5
26
100
AcDbSymbolTableRecord
100
AcDbTextStyleTableRecord
  2
TATEGAKI
 70
    68
 40
0.0
 41
1.0
 50
0.0
 71
     0
 42
1.0
  3
txt
  4
bigfont.shx
  0
ENDTAB
  0
TABLE
  2
LAYER
 70
    2
  0
LAYER
  2
_0-0_
 70
   64
 62
    7
  6
CONTINUOUS
  0
LAYER
  2
ADD_LINE
 70
   64
 62
    7
  6
CONTINUOUS
  0
ENDTAB
  0
ENDSEC
  0
SECTION
  2
BLOCKS
  0
ENDSEC
  0
SECTION
  2
ENTITIES
  0
LINE
  8
_0-0_
  6
CONTINUOUS
 62
    7
 10
873.962180922279
 20
1272.9712960257827
 11
873.962180922279
 21
772.97129602578366
  0
LINE
  8
_0-0_
  6
CONTINUOUS
 62
    7
 10
1706.8892594865342
 20
1633.3356023308813
 11
1706.8892594865342
 21
167.51011793582325
  0
LINE
  8
_0-0_
  6
CONTINUOUS
 62
    7
 10
672.1727486714185
 20
567.51011793582325
 11
1706.8892594865342
 21
567.51011793582325
  0
LINE
  8
_0-0_
  6
CONTINUOUS
 62
    7
 10
672.1727486714185
 20
167.51011793582325
 11
1706.8892594865342
 21
167.51011793582325
  0
LINE
  8
_0-0_
  6
CONTINUOUS
 62
    7
 10
672.1727486714185
 20
627.51011793582325
 11
1706.8892594865342
 21
627.51011793582325
  0
LINE
  8
_0-0_
  6
CONTINUOUS
 62
    7
 10
1189.5310040789764
 20
627.51011793582325
 11
1189.5310040789764
 21
167.51011793582325
  0
LINE
  8
_0-0_
  6
CONTINUOUS
 62
    7
 10
672.1727486714185
 20
1633.3356023308813
 11
672.1727486714185
 21
167.51011793582325
  0
LINE
  8
_0-0_
  6
CONTINUOUS
 62
    7
 10
1093.377767037483
 20
772.97129602578275
 11
1373.3777670374839
 21
1052.9712960257837
  0
LINE
  8
_0-0_
  6
CONTINUOUS
 62
    7
 10
1086.306699225619
 20
772.97129602578366
 11
1366.306699225619
 21
1052.9712960257827
  0
LINE
  8
_0-0_
  6
CONTINUOUS
 62
    7
 10
873.96218092227991
 20
779.82987989027492
 11
1147.1035970577886
 21
1052.9712960257827
  0
LINE
  8
_0-0_
  6
CONTINUOUS
 62
    7
 10
873.962180922279
 20
786.90094770213886
 11
1140.0325292459229
 21
1052.9712960257827
  0
LINE
  8
_0-0_
  6
CONTINUOUS
 62
    7
 10
873.962180922279
 20
793.97201551400462
 11
1132.9614614340589
 21
1052.9712960257827
  0
LINE
  8
_0-0_
  6
CONTINUOUS
 62
    7
 10
873.96218092227991
 20
1006.1040498699701
 11
1023.962180922279
 21
1156.1040498699692
  0
LINE
  8
_0-0_
  6
CONTINUOUS
 62
    7
 10
873.962180922279
 20
1013.1751176818341
 11
1023.9621809222799
 21
1163.175117681835
  0
LINE
  8
_0-0_
  6
CONTINUOUS
 62
    7
 10
873.962180922279
 20
1020.2461854936989
 11
1023.962180922279
 21
1170.2461854936989
  0
LINE
  8
_0-0_
  6
CONTINUOUS
 62
    7
 10
1013.542305365394
 20
1268.0970506744759
 11
1023.962180922279
 21
1257.3069536693963
  0
LINE
  8
_0-0_
  6
CONTINUOUS
 62
    4
 10
1016.1743829694578
 20
1274.008793764973
 11
1029.962180922279
 21
1259.731111024407
  0
LINE
  8
_0-0_
  6
CONTINUOUS
 62
    7
 10
1223.962180922279
 20
872.97129602578366
 11
1523.962180922279
 21
872.97129602578366
  0
LINE
  8
_0-0_
  6
CONTINUOUS
 62
    7
 10
1223.962180922279
 20
872.97129602578366
 11
1223.962180922279
 21
772.97129602578366
  0
LINE
  8
_0-0_
  6
CONTINUOUS
 62
    7
 10
1405.5098013934494
 20
872.97129602578366
 11
1523.9621809222799
 21
991.42367555461419
  0
LINE
  8
_0-0_
  6
CONTINUOUS
 62
    7
 10
1412.5808692053142
 20
872.97129602578366
 11
1523.962180922279
 21
984.35260774274843
  0
LINE
  8
_0-0_
  6
CONTINUOUS
 62
    7
 10
1419.6519370171791
 20
872.97129602578366
 11
1523.9621809222799
 21
977.28153993088358
  0
LINE
  8
_0-0_
  6
CONTINUOUS
 62
    7
 10
1079.2356314137542
 20
772.97129602578366
 11
1359.2356314137542
 21
1052.9712960257837
  0
LINE
  8
_0-0_
  6
CONTINUOUS
 62
    7
 10
1023.962180922279
 20
1052.9712960257837
 11
1023.962180922279
 21
1257.3069536693963
  0
LINE
  8
_0-0_
  6
CONTINUOUS
 62
    7
 10
1023.962180922279
 20
1052.9712960257837
 11
1523.962180922279
 21
1052.9712960257837
  0
LINE
  8
_0-0_
  6
CONTINUOUS
 62
    4
 10
1029.962180922279
 20
1259.731111024407
 11
1029.962180922279
 21
1067.9712960257837
  0
LINE
  8
_0-0_
  6
CONTINUOUS
 62
    4
 10
1029.962180922279
 20
1067.9712960257837
 11
1523.962180922279
 21
1067.9712960257837
  0
LINE
  8
_0-0_
  6
CONTINUOUS
 62
    3
 10
1073.962180922279
 20
1058.9712960257837
 11
1523.962180922279
 21
1058.9712960257837
  0
LINE
  8
_0-0_
  6
CONTINUOUS
 62
    3
 10
1073.962180922279
 20
1058.9712960257837
 11
1073.962180922279
 21
1052.9712960257837
  0
CIRCLE
  8
_0-0_
  6
DASHED2
 62
    1
 10
951.20101790219132
 20
1269.5249400345526
 40
94.513505632925799
  0
LINE
  8
_0-0_
  6
DASHED2
 62
    5
 10
1102.6318486063892
 20
252.63640515653219
 11
1102.6318486063892
 21
392.76152719005927
  0
LINE
  8
_0-0_
  6
DASHED2
 62
    5
 10
1075.8192062074618
 20
420.52683118697473
 11
1102.6318486063892
 21
392.76152719005927
  0
LINE
  8
_0-0_
  6
CONTINUOUS
 62
    4
 10
1110.1318486063892
 20
395.79172388382153
 11
1110.1318486063892
 21
252.63640515653219
  0
LINE
  8
_0-0_
  6
CONTINUOUS
 62
    7
 10
1096.6318486063892
 20
252.63640515653219
 11
1096.6318486063892
 21
390.33736983504764
  0
LINE
  8
_0-0_
  6
CONTINUOUS
 62
    4
 10
1079.1093032125418
 20
427.91651005009567
 11
1110.1318486063892
 21
395.79172388382153
  0
LINE
  8
_0-0_
  6
CONTINUOUS
 62
    7
 10
1073.1871286033979
 20
414.61508809647762
 11
1096.6318486063892
 21
390.33736983504764
  0
LINE
  8
_0-0_
  6
CONTINUOUS
 62
    7
 10
759.13184860639149
 20
334.24771874065277
 11
847.38442222235926
 21
422.50029235662055
  0
LINE
  8
_0-0_
  6
CONTINUOUS
 62
    7
 10
759.13184860638921
 20
350.15762131734732
 11
832.01135884813812
 21
423.03713155909622
  0
LINE
  8
_0-0_
  6
CONTINUOUS
 62
    7
 10
759.13184860638921
 20
366.06752389404369
 11
816.6382954739156
 21
423.57397076156917
  0
TEXT
  8
_0-0_
 62
    7
 10
906.76913209517033
 20
575.65878208477966
 40
40
 41
1
 50
0
  1
Ａ
  0
TEXT
  8
_0-0_
 62
    7
 10
1429.7258737803754
 20
576.00626083724524
 40
40
 41
1
 50
0
  1
Ｂ
  0
LINE
  8
_0-0_
  6
CONTINUOUS
 62
    7
 10
1216.2100082756242
 20
1060.4712960257837
 11
1275.967953266203
 21
1163.9750929053723
  0
POINT
  8
_0-0_
 62
    7
 10
1216.2100082756242
 20
1060.4712960257837
  0
CIRCLE
  8
_0-0_
  6
DASHED2
 62
    1
 10
1073.962180922279
 20
1058.9712960257837
 40
67.350194333739935
  0
TEXT
  8
_0-0_
 62
    7
 10
1060.6406813579697
 20
1114.1027855691289
 40
24
 41
1
 50
0
  1
Ｂ
  0
TEXT
  8
_0-0_
 62
    7
 10
941.29512999090457
 20
1351.46411454038
 40
24
 41
1
 50
0
  1
Ａ
  0
LINE
  8
_0-0_
  6
DASHED2
 62
    5
 10
1419.7413976320709
 20
306.63448969951628
 11
1521.7019847146798
 21
306.63448969951628
  0
LINE
  8
_0-0_
  6
DASHED2
 62
    5
 10
1422.7413976320709
 20
296.1739026169073
 11
1521.7019847146798
 21
296.1739026169073
  0
LINE
  8
_0-0_
  6
CONTINUOUS
 62
    7
 10
1371.0871056102128
 20
308.52919615821179
 11
1418.1041545886287
 21
389.96511381078403
  0
LINE
  8
_0-0_
  6
CONTINUOUS
 62
    4
 10
1419.7413976320709
 20
299.1739026169073
 11
1521.7019847146798
 21
299.1739026169073
  0
LINE
  8
_0-0_
  6
CONTINUOUS
 62
    7
 10
1220.8200592040826
 20
422.30126033833608
 11
1295.3436471084965
 21
496.82484824274911
  0
LINE
  8
_0-0_
  6
CONTINUOUS
 62
    7
 10
1220.8200592040826
 20
438.21116291503336
 11
1279.4337445317992
 21
496.82484824274911
  0
LINE
  8
_0-0_
  6
CONTINUOUS
 62
    7
 10
1220.8200592040826
 20
454.12106549172881
 11
1263.5238419551038
 21
496.82484824274911
  0
LINE
  8
_0-0_
  6
CONTINUOUS
 62
    7
 10
1310.2413976320709
 20
279.6739026169073
 11
1670.4130002514626
 21
279.6739026169073
  0
LINE
  8
_0-0_
  6
CONTINUOUS
 62
    3
 10
1422.7413976320709
 20
293.1739026169073
 11
1670.4130002514626
 21
293.1739026169073
  0
LINE
  8
_0-0_
  6
CONTINUOUS
 62
    4
 10
1323.7413976320709
 20
313.4239026169073
 11
1670.4130002514626
 21
313.4239026169073
  0
LINE
  8
_0-0_
  6
CONTINUOUS
 62
    7
 10
1506.0917806756311
 20
198.4560993555699
 11
1587.3095839369666
 21
279.67390261690457
  0
LINE
  8
_0-0_
  6
CONTINUOUS
 62
    7
 10
1490.1818780989338
 20
198.4560993555699
 11
1571.3996813602694
 21
279.67390261690457
  0
LINE
  8
_0-0_
  6
CONTINUOUS
 62
    7
 10
1474.2719755222383
 20
198.4560993555699
 11
1555.4897787835757
 21
279.67390261690457
  0
LINE
  8
_0-0_
  6
CONTINUOUS
 62
    4
 10
1323.7413976320709
 20
496.82484824274911
 11
1323.7413976320709
 21
313.4239026169073
  0
LINE
  8
_0-0_
  6
DASHED2
 62
    5
 10
1316.9913976320709
 20
306.63448969951628
 11
1316.9913976320709
 21
496.82484824274911
  0
LINE
  8
_0-0_
  6
CONTINUOUS
 62
    7
 10
1310.2413976320709
 20
279.6739026169073
 11
1310.2413976320709
 21
496.82484824274911
  0
LINE
  8
_0-0_
  6
DASHED2
 62
    5
 10
1521.7019847146798
 20
306.63448969951628
 11
1524.7019847146798
 21
303.63448969951628
  0
LINE
  8
_0-0_
  6
DASHED2
 62
    5
 10
1524.7019847146798
 20
303.63448969951628
 11
1647.7019847146817
 21
303.63448969951628
  0
LINE
  8
_0-0_
  6
DASHED2
 62
    5
 10
1316.9913976320709
 20
303.63448969951628
 11
1416.7413976320709
 21
303.63448969951628
  0
LINE
  8
_0-0_
  6
DASHED2
 62
    5
 10
1419.7413976320709
 20
306.63448969951628
 11
1416.7413976320709
 21
303.63448969951628
  0
LINE
  8
_0-0_
  6
CONTINUOUS
 62
    4
 10
1310.2413976320709
 20
291.6739026169073
 11
1412.2413976320709
 21
291.6739026169073
  0
LINE
  8
_0-0_
  6
CONTINUOUS
 62
    4
 10
1412.2413976320709
 20
291.6739026169073
 11
1419.7413976320709
 21
299.1739026169073
  0
LINE
  8
_0-0_
  6
DASHED2
 62
    5
 10
1310.2413976320709
 20
285.6739026169073
 11
1412.2413976320709
 21
285.6739026169073
  0
LINE
  8
_0-0_
  6
CONTINUOUS
 62
    4
 10
1521.7019847146798
 20
299.1739026169073
 11
1527.7019847146798
 21
293.1739026169073
  0
LINE
  8
_0-0_
  6
CONTINUOUS
 62
    3
 10
1422.7413976320709
 20
293.1739026169073
 11
1422.7413976320709
 21
279.6739026169073
  0
LINE
  8
_0-0_
  6
DASHED2
 62
    5
 10
1422.7413976320709
 20
296.1739026169073
 11
1412.2413976320709
 21
285.6739026169073
  0
LINE
  8
_0-0_
  6
CONTINUOUS
 62
    7
 10
1426.3824364520101
 20
306.63448969951628
 11
1453.8270979368349
 21
354.17003778776166
  0
POINT
  8
_0-0_
 62
    7
 10
1426.3824364520101
 20
306.63448969951628
  0
POINT
  8
_0-0_
 62
    7
 10
1371.0871056102128
 20
308.52919615821179
  0
LINE
  8
_0-0_
  6
CONTINUOUS
 62
    7
 10
1331.22292054735
 20
313.4239026169073
 11
1409.934786260324
 21
449.75685319031732
  0
POINT
  8
_0-0_
 62
    7
 10
1331.22292054735
 20
313.4239026169073
  0
POINT
  8
_0-0_
 62
    7
 10
1470.5880456109876
 20
296.1739026169073
  0
POINT
  8
_0-0_
 62
    7
 10
1528.4978474009963
 20
286.4239026169073
  0
LINE
  8
_0-0_
  6
CONTINUOUS
 62
    7
 10
1575.4763940490097
 20
279.6739026169073
 11
1606.8411020641665
 21
333.99917046372161
  0
POINT
  8
_0-0_
 62
    7
 10
1575.4763940490097
 20
279.6739026169073
  0
TEXT
  8
_0-0_
 62
    7
 10
1399.5435745338887
 20
452.1053906800048
 40
21.617968000000001
 41
1
 50
0
  1
ﾄｯﾌﾟｺｰﾄ
  0
TEXT
  8
_0-0_
 62
    7
 10
1522.5868709756965
 20
411.57993272770022
 40
21.617968000000001
 41
1
 50
0
  1
DFﾒｯｼｭﾃｰﾌﾟ
  0
TEXT
  8
_0-0_
 62
    7
 10
1402.013664748496
 20
392.85330396761742
 40
21.617968000000001
 41
1
 50
0
  1
ｳﾚﾀﾝ防水
  0
LINE
  8
_0-0_
  6
CONTINUOUS
 62
    7
 10
1470.5880456109876
 20
296.1739026169073
 11
1533.167048121928
 21
404.56391445283521
  0
TEXT
  8
_0-0_
 62
    7
 10
1549.2742123665835
 20
369.86118363641208
 40
21.617968000000001
 41
1
 50
0
  1
通気緩衝ｼｰﾄ
  0
TEXT
  8
_0-0_
 62
    7
 10
1437.1671608419852
 20
357.04273318079231
 40
21.617968000000001
 41
1
 50
0
  1
LSﾒｯｼｭ
  0
TEXT
  8
_0-0_
 62
    7
 10
1601.4358341760453
 20
335.35926830069639
 40
21.617968000000001
 41
1
 50
0
  1
ﾌﾟﾗｲﾏｰ
  0
LINE
  8
_0-0_
  6
CONTINUOUS
 62
    7
 10
1528.4978474009963
 20
286.4239026169073
 11
1573.3995314081931
 21
364.19590066277624
  0
TEXT
  8
_0-0_
 62
    7
 10
1281.8910724432262
 20
1152.6921051053885
 40
30
 41
1
 50
0
  1
防水層
  0
LINE
  8
_0-0_
  6
CONTINUOUS
 62
    7
 10
873.96218092227991
 20
1232.3782198496651
 11
913.18554697382115
 21
1271.6015859012066
  0
LINE
  8
_0-0_
  6
CONTINUOUS
 62
    7
 10
873.962180922279
 20
1239.4492876615291
 11
906.35307436305629
 21
1271.8401811023066
  0
LINE
  8
_0-0_
  6
CONTINUOUS
 62
    7
 10
873.962180922279
 20
1246.5203554733939
 11
899.52060175229053
 21
1272.0787763034057
  0
LINE
  8
_0-0_
  6
CONTINUOUS
 62
    4
 10
873.962180922279
 20
1273.7973017226229
 11
873.962180922279
 21
1272.9712960257827
  0
ARC
  8
_0-0_
  6
CONTINUOUS
 62
    4
 10
878.962180922279
 20
1273.7973017226229
 40
5
 50
87.999999999999019
 51
180
  0
LINE
  8
_0-0_
  6
CONTINUOUS
 62
    4
 10
879.1366784057916
 20
1278.7942558577186
 11
1016.1743829694578
 21
1274.008793764973
  0
LINE
  8
_0-0_
  6
CONTINUOUS
 62
    7
 10
873.962180922279
 20
1272.9712960257827
 11
1013.542305365394
 21
1268.0970506744759
  0
LINE
  8
_0-0_
  6
CONTINUOUS
 62
    7
 10
759.13184860638921
 20
425.58214013691691
 11
1073.1871286033979
 21
414.61508809647762
  0
LINE
  8
_0-0_
  6
CONTINUOUS
 62
    7
 10
759.13184860638921
 20
425.58214013691691
 11
759.13184860638921
 21
252.63640515653219
  0
LINE
  8
_0-0_
  6
CONTINUOUS
 62
    4
 10
769.48084357341418
 20
438.72897411723829
 11
1079.1093032125418
 21
427.91651005009567
  0
LINE
  8
_0-0_
  6
CONTINUOUS
 62
    4
 10
759.13184860638921
 20
428.73506584704751
 11
759.13184860638921
 21
425.58214013691691
  0
ARC
  8
_0-0_
  6
CONTINUOUS
 62
    4
 10
769.13184860638921
 20
428.73506584704751
 40
10
 50
88.000000000000028
 51
180
  0
LINE
  8
_0-0_
  6
DASHED2
 62
    5
 10
769.2190973481454
 20
431.23354291459327
 11
1075.8192062074618
 21
420.52683118697473
  0
POINT
  8
_0-0_
 62
    7
 10
1084.9094886048938
 20
402.47622896576252
  0
LINE
  8
_0-0_
  6
CONTINUOUS
 62
    7
 10
1124.5036961710273
 20
439.39842484484865
 11
1084.9094886048938
 21
402.47622896576252
  0
TEXT
  8
_0-0_
 62
    7
 10
1111.208914760341
 20
440.43038237395376
 40
21.617968000000001
 41
1
 50
0
  1
面取り
  0
LINE
  8
_0-0_
  6
CONTINUOUS
 62
    7
 10
672.1727486714185
 20
1633.3356023308813
 11
1706.8892594865342
 21
1633.3356023308813
  0
LINE
  8
_0-0_
  6
CONTINUOUS
 62
    7
 10
672.1727486714185
 20
1553.3356023308813
 11
1706.8892594865342
 21
1553.3356023308813
  0
LINE
  8
_0-0_
  6
CONTINUOUS
 62
    7
 10
672.1727486714185
 20
1473.3356023308813
 11
1706.8892594865342
 21
1473.3356023308813
  0
LINE
  8
_0-0_
  6
CONTINUOUS
 62
    7
 10
1189.5310040789764
 20
1633.3356023308813
 11
1189.5310040789764
 21
1473.3356023308813
  0
TEXT
  8
_0-0_
 62
    7
 10
696.1727486714185
 20
1497.3356023308813
 40
20
 41
1
 50
0
  1
施工部位：パラペット
  0
TEXT
  8
_0-0_
 62
    7
 10
1213.5310040789764
 20
1577.3356023308813
 40
20
 41
1
 50
0
  1
構造：ＲＣ造
  0
TEXT
  8
_0-0_
 62
    7
 10
1213.5310040789764
 20
1497.3356023308813
 40
20
 41
1
 50
0
  1
下地：コンクリートスラブ
  0
TEXT
  8
_0-0_
 62
    7
 10
696.17274867141839
 20
1577.3356023308813
 40
20
 41
1
 50
0
  1
図面番号：tsuki-PU-para-01
  0
ENDSEC
  0
EOF
