  0
SECTION
  2
HEADER
  9
$ACADVER
  1
AC1009
  9
$INSBASE
 10
0
 20
0
 30
0
  9
$EXTMIN
 10
0
 20
0
  9
$EXTMAX
 10
2378
 20
1682
  9
$LIMMIN
 10
0
 20
0
  9
$LIMMAX
 10
2378
 20
1682
  9
$LTSCALE
 40
1
  0
ENDSEC
  0
SECTION
  2
TABLES
  0
TABLE
  2
LTYPE
 70
     9
  0
LTYPE
  2
CONTINUOUS
 70
    64
  3
実線
 72
    65
 73
     0
 40
0.0
  0
LTYPE
  2
DASHED1
 70
    64
  3
--  --  --  --  --  --  --  --  
 72
    65
 73
     2
 40
2.5
 49
1.25
 49
-1.25
  0
LTYPE
  2
DASHED2
 70
    64
  3
----    ----    ----    ----    
 72
    65
 73
     2
 40
5.0
 49
2.5
 49
-2.5
  0
LTYPE
  2
DASHED3
 70
    64
  3
------  ------  ------  ------  
 72
    65
 73
     2
 40
5.0
 49
3.75
 49
-1.25
  0
LTYPE
  2
CENTER1
 70
    64
  3
----- - ----- - ----- - ----- - 
 72
    65
 73
     4
 40
10.0
 49
6.25
 49
-1.25
 49
1.25
 49
-1.25
  0
LTYPE
  2
CENTER2
 70
    64
  3
----------  --  ----------  --  
 72
    65
 73
     4
 40
20.0
 49
12.5
 49
-2.5
 49
2.5
 49
-2.5
  0
LTYPE
  2
PHANTOM1
 70
    64
  3
--- - - --- - - --- - - --- - - 
 72
    65
 73
     6
 40
10.0
 49
3.25
 49
-1.25
 49
1.25
 49
-1.25
 49
1.25
 49
-1.25
  0
LTYPE
  2
PHANTOM2
 70
    64
  3
--------  -  -  --------  -  -  
 72
    65
 73
     6
 40
20.0
 49
10.0
 49
-2.5
 49
1.25
 49
-2.5
 49
1.25
 49
-2.5
  0
LTYPE
  2
DOT
 70
    64
  3
-   -   -   -   -   -   -   -   
 72
    65
 73
     2
 40
2.5
 49
0.625
 49
-1.875
  0
LTYPE
  2
DUMMY
 70
    64
  3
ダミー
 72
    65
 73
     0
 40
0.0
  0
LTYPE
  2
RAND1
 70
    64
  3
ランダム線1
 72
    65
 73
     4
 40
10.0
 49
1.0
 49
-2.0
 49
3.0
 49
-4.0
  0
LTYPE
  2
RAND2
 70
    64
  3
ランダム線2
 72
    65
 73
     4
 40
14.0
 49
2.0
 49
-3.0
 49
4.0
 49
-5.0
  0
LTYPE
  2
RAND3
 70
    64
  3
ランダム線3
 72
    65
 73
     4
 40
18.0
 49
3.0
 49
-4.0
 49
5.0
 49
-6.0
  0
LTYPE
  2
RAND4
 70
    64
  3
ランダム線4
 72
    65
 73
     4
 40
22.0
 49
4.0
 49
-5.0
 49
6.0
 49
-7.0
  0
LTYPE
  2
RAND5
 70
    64
  3
ランダム線5
 72
    65
 73
     4
 40
26.0
 49
5.0
 49
-6.0
 49
7.0
 49
-8.0
  0
LTYPE
  2
LONG1
 70
    64
  3
----------  --  ----------  --  
 72
    65
 73
     4
 40
40.0
 49
32.5
 49
-2.5
 49
2.5
 49
-2.5
  0
LTYPE
  2
LONG2
 70
    64
  3
--------  -  -  --------  -  -  
 72
    65
 73
     6
 40
40.0
 49
30.0
 49
-2.5
 49
1.25
 49
-2.5
 49
1.25
 49
-2.5
  0
LTYPE
  2
LONG3
 70
    64
  3
+++++++++++++++..+++++++++++++++
 72
    65
 73
     2
 40
40.0
 49
37.5
 49
-2.5
  0
LTYPE
  2
LONG4
 70
    64
  3
+++++++++++++++..+++++++++++++++
 72
    65
 73
     2
 40
80.0
 49
75.0
 49
-5.0
  0
LTYPE
  2
LONG5
 70
    64
  3
----------  --  ----------  --  
 72
    65
 73
     4
 40
60.0
 49
37.5
 49
-7.5
 49
7.5
 49
-7.5
  0
LTYPE
  2
dashed
 70
   64
  3
-------   -------------   ------
 72
   65
 73
    2
 40
7.5
 49
6
 49
-1.5
  0
LTYPE
  2
dashed_spaced
 70
   64
  3
----        --------        ----
 72
   65
 73
    2
 40
12
 49
6
 49
-6
  0
LTYPE
  2
long_dashed_dotted
 70
   64
  3
------------- --- --------------
 72
   65
 73
    4
 40
15.25
 49
12
 49
-1.5
 49
0.25
 49
-1.5
  0
LTYPE
  2
long_dashed_double-dotted
 70
   64
  3
----------- --- --- ------------
 72
   65
 73
    6
 40
17
 49
12
 49
-1.5
 49
0.25
 49
-1.5
 49
0.25
 49
-1.5
  0
LTYPE
  2
long_dashed_triplicate-dotted
 70
   64
  3
--------- --- --- --- ----------
 72
   65
 73
    8
 40
18.75
 49
12
 49
-1.5
 49
0.25
 49
-1.5
 49
0.25
 49
-1.5
 49
0.25
 49
-1.5
  0
LTYPE
  2
dotted
 70
   64
  3
   -       -       -       -    
 72
   65
 73
    2
 40
1.75
 49
0.25
 49
-1.5
  0
LTYPE
  2
chain
 70
   64
  3
-------------- -- --------------
 72
   65
 73
    4
 40
18.5
 49
12
 49
-1.5
 49
3.5
 49
-1.5
  0
LTYPE
  2
chain_double_dash
 70
   64
  3
------------ -- -- -------------
 72
   65
 73
    6
 40
23.5
 49
12
 49
-1.5
 49
3.5
 49
-1.5
 49
3.5
 49
-1.5
  0
LTYPE
  2
dashed_dotted
 70
   64
  3
-----------     -     ----------
 72
   65
 73
    4
 40
9.25
 49
6
 49
-1.5
 49
0.25
 49
-1.5
  0
LTYPE
  2
double-dashed_dotted
 70
   64
  3
------   -----------   -   -----
 72
   65
 73
    6
 40
16.75
 49
6
 49
-1.5
 49
6
 49
-1.5
 49
0.25
 49
-1.5
  0
LTYPE
  2
dashed_double-dotted
 70
   64
  3
---------    -    -    ---------
 72
   65
 73
    6
 40
11
 49
6
 49
-1.5
 49
0.25
 49
-1.5
 49
0.25
 49
-1.5
  0
LTYPE
  2
double-dashed_double-dotted
 70
   64
  3
-----   ---------   -   -   ----
 72
   65
 73
    8
 40
18.5
 49
6
 49
-1.5
 49
6
 49
-1.5
 49
0.25
 49
-1.5
 49
0.25
 49
-1.5
  0
LTYPE
  2
dashed_triplicate-dotted
 70
   64
  3
-------    -    -    -    ------
 72
   65
 73
    8
 40
12.75
 49
6
 49
-1.5
 49
0.25
 49
-1.5
 49
0.25
 49
-1.5
 49
0.25
 49
-1.5
  0
LTYPE
  2
double-dashed_triplicate-dotted
 70
   64
  3
-----  ---------  -  -  -  -----
 72
   65
 73
   10
 40
20.25
 49
6
 49
-1.5
 49
6
 49
-1.5
 49
0.25
 49
-1.5
 49
0.25
 49
-1.5
 49
0.25
 49
-1.5
  0
LTYPE
  2
undefined
 70
   64
  3
--------------------------------
 72
   65
 73
    0
 40
0
  0
ENDTAB
  0
TABLE
  2
STYLE
  5
3
100
AcDbSymbolTable
 70
     1
  0
STYLE
  5
10
100
AcDbSymbolTableRecord
100
AcDbTextStyleTableRecord
  2
STANDARD
 70
     0
 40
0.0
 41
1.0
 50
0.0
 71
     0
 42
0.2
  3
txt
  4
bigfont.shx
  0
STYLE
  5
26
100
AcDbSymbolTableRecord
100
AcDbTextStyleTableRecord
  2
TATEGAKI
 70
    68
 40
0.0
 41
1.0
 50
0.0
 71
     0
 42
1.0
  3
txt
  4
bigfont.shx
  0
ENDTAB
  0
TABLE
  2
LAYER
 70
    2
  0
LAYER
  2
_0-0_
 70
   64
 62
    7
  6
CONTINUOUS
  0
LAYER
  2
ADD_LINE
 70
   64
 62
    7
  6
CONTINUOUS
  0
ENDTAB
  0
ENDSEC
  0
SECTION
  2
BLOCKS
  0
ENDSEC
  0
SECTION
  2
ENTITIES
  0
LINE
  8
_0-0_
  6
CONTINUOUS
 62
    7
 10
672.13606690525205
 20
567.53106997205509
 11
1706.8525777203677
 21
567.53106997205509
  0
LINE
  8
_0-0_
  6
CONTINUOUS
 62
    7
 10
672.13606690525205
 20
167.53106997205509
 11
1706.8525777203677
 21
167.53106997205509
  0
LINE
  8
_0-0_
  6
CONTINUOUS
 62
    7
 10
672.13606690525205
 20
627.53106997205509
 11
1706.8525777203677
 21
627.53106997205509
  0
LINE
  8
_0-0_
  6
CONTINUOUS
 62
    7
 10
1189.4943223128103
 20
627.53106997205509
 11
1189.4943223128103
 21
167.53106997205509
  0
LINE
  8
_0-0_
  6
CONTINUOUS
 62
    7
 10
672.13606690525205
 20
1633.3565543671132
 11
672.13606690525205
 21
167.53106997205509
  0
LINE
  8
_0-0_
  6
CONTINUOUS
 62
    7
 10
1706.8525777203677
 20
1633.3565543671132
 11
1706.8525777203677
 21
167.53106997205509
  0
TEXT
  8
_0-0_
 62
    7
 10
906.73245032900388
 20
575.67973412101151
 40
40
 41
1
 50
0
  1
Ａ
  0
TEXT
  8
_0-0_
 62
    7
 10
1429.6891920142098
 20
576.02721287347708
 40
40
 41
1
 50
0
  1
Ｂ
  0
LINE
  8
_0-0_
  6
CONTINUOUS
 62
    7
 10
939.50457202305108
 20
332.52048861090793
 11
905.75457202305108
 21
332.52048861090793
  0
LINE
  8
_0-0_
  6
CONTINUOUS
 62
    7
 10
905.75457202305108
 20
332.52048861090793
 11
905.75457202305108
 21
366.27048861090793
  0
LINE
  8
_0-0_
  6
CONTINUOUS
 62
    7
 10
905.75457202305108
 20
366.27048861090793
 11
939.50457202305108
 21
366.27048861090793
  0
LINE
  8
_0-0_
  6
CONTINUOUS
 62
    4
 10
953.00457202305108
 20
346.02048861090793
 11
905.75457202305108
 21
346.02048861090793
  0
LINE
  8
_0-0_
  6
CONTINUOUS
 62
    7
 10
934.38607072024126
 20
366.27048861090793
 11
939.50457202305108
 21
371.38898991371775
  0
ARC
  8
_0-0_
  6
CONTINUOUS
 62
    2
 10
993.09851076150892
 20
387.37478110321376
 40
57.599491587186634
 50
201.49359415795911
 51
225.88654089400154
  0
LINE
  8
_0-0_
  6
CONTINUOUS
 62
    2
 10
951.26796832288539
 20
346.02048861090793
 11
952.13209080748504
 21
346.88461109550758
  0
LINE
  8
_0-0_
  6
CONTINUOUS
 62
    2
 10
944.90400729220539
 20
346.02048861090793
 11
949.09326520920251
 21
350.20974652790596
  0
LINE
  8
_0-0_
  6
CONTINUOUS
 62
    2
 10
938.54004626152994
 20
346.02048861090793
 11
946.30608790975941
 21
353.78653025913832
  0
LINE
  8
_0-0_
  6
CONTINUOUS
 62
    2
 10
932.17608523084721
 20
346.02048861090611
 11
943.77809694140626
 21
357.62250032146517
  0
LINE
  8
_0-0_
  6
CONTINUOUS
 62
    2
 10
925.8121242001672
 20
346.02048861090611
 11
941.52246062093684
 21
361.73082503167757
  0
LINE
  8
_0-0_
  6
CONTINUOUS
 62
    2
 10
919.44816316949357
 20
346.02048861090793
 11
939.55941580511364
 21
366.13174124652983
  0
LINE
  8
_0-0_
  6
CONTINUOUS
 62
    2
 10
913.08420213881357
 20
346.02048861090793
 11
933.33420213881357
 21
366.27048861090975
  0
LINE
  8
_0-0_
  6
CONTINUOUS
 62
    2
 10
906.72024110813356
 20
346.02048861090975
 11
926.97024110813356
 21
366.27048861090793
  0
LINE
  8
_0-0_
  6
CONTINUOUS
 62
    2
 10
905.7545720230529
 20
351.41878055650727
 11
920.60628007745174
 21
366.27048861090793
  0
LINE
  8
_0-0_
  6
CONTINUOUS
 62
    2
 10
905.75457202305108
 20
357.78274158718182
 11
914.24231904677538
 21
366.27048861090611
  0
LINE
  8
_0-0_
  6
CONTINUOUS
 62
    2
 10
905.75457202305108
 20
364.14670261786182
 11
907.8783580160972
 21
366.27048861090793
  0
LINE
  8
_0-0_
  6
CONTINUOUS
 62
    7
 10
939.50457202305108
 20
366.27048861090793
 11
939.50457202305108
 21
511.18606721464153
  0
LINE
  8
_0-0_
  6
CONTINUOUS
 62
    7
 10
791.24028774411556
 20
223.12470563478223
 11
905.75457202305108
 21
337.63898991371775
  0
LINE
  8
_0-0_
  6
CONTINUOUS
 62
    7
 10
807.15019032081193
 20
223.12470563478223
 11
916.54597329693763
 21
332.52048861090793
  0
LINE
  8
_0-0_
  6
CONTINUOUS
 62
    7
 10
823.0600928975083
 20
223.12470563478223
 11
932.455875873634
 21
332.52048861090793
  0
LINE
  8
_0-0_
  6
CONTINUOUS
 62
    4
 10
953.00457202305108
 20
346.02048861090793
 11
953.00457202305108
 21
223.12470563478223
  0
LINE
  8
_0-0_
  6
CONTINUOUS
 62
    7
 10
939.50457202305108
 20
223.12470563478223
 11
939.50457202305108
 21
332.52048861090793
  0
LINE
  8
_0-0_
  6
DASHED2
 62
    5
 10
945.50457202305108
 20
223.12470563478223
 11
945.50457202305108
 21
338.52048861090793
  0
LINE
  8
_0-0_
  6
DASHED2
 62
    5
 10
945.50457202305108
 20
338.52048861090793
 11
911.75457202305108
 21
338.52048861090793
  0
LINE
  8
_0-0_
  6
CONTINUOUS
 62
    7
 10
929.3430728469026
 20
352.70888111874274
 11
985.75992633854787
 21
450.42573776944187
  0
POINT
  8
_0-0_
 62
    7
 10
929.3430728469026
 20
352.70888111874274
  0
TEXT
  8
_0-0_
 62
    7
 10
987.28360781870936
 20
442.52673463905262
 40
21.617968000000001
 41
1
 50
0
  1
ｼｰﾘﾝｸﾞ
  0
LINE
  8
_0-0_
  6
DASHED2
 62
    5
 10
1422.5701831473493
 20
302.7222342495204
 11
1524.5307702299583
 21
302.7222342495204
  0
LINE
  8
_0-0_
  6
DASHED2
 62
    5
 10
1425.5701831473493
 20
292.26164716691142
 11
1524.5307702299583
 21
292.26164716691142
  0
LINE
  8
_0-0_
  6
CONTINUOUS
 62
    7
 10
1373.9158911254913
 20
304.61694070821591
 11
1420.9329401039072
 21
386.05285836078815
  0
LINE
  8
_0-0_
  6
CONTINUOUS
 62
    4
 10
1422.5701831473493
 20
295.26164716691142
 11
1524.5307702299583
 21
295.26164716691142
  0
LINE
  8
_0-0_
  6
CONTINUOUS
 62
    7
 10
1223.648844719361
 20
418.3890048883402
 11
1298.172432623775
 21
492.91259279275323
  0
LINE
  8
_0-0_
  6
CONTINUOUS
 62
    7
 10
1223.648844719361
 20
434.29890746503747
 11
1282.2625300470777
 21
492.91259279275323
  0
LINE
  8
_0-0_
  6
CONTINUOUS
 62
    7
 10
1223.648844719361
 20
450.20881004173293
 11
1266.3526274703822
 21
492.91259279275323
  0
LINE
  8
_0-0_
  6
CONTINUOUS
 62
    7
 10
1313.0701831473493
 20
275.76164716691142
 11
1673.241785766741
 21
275.76164716691142
  0
LINE
  8
_0-0_
  6
CONTINUOUS
 62
    3
 10
1425.5701831473493
 20
289.26164716691142
 11
1673.241785766741
 21
289.26164716691142
  0
LINE
  8
_0-0_
  6
CONTINUOUS
 62
    4
 10
1326.5701831473493
 20
309.51164716691142
 11
1673.241785766741
 21
309.51164716691142
  0
LINE
  8
_0-0_
  6
CONTINUOUS
 62
    7
 10
1508.9205661909095
 20
194.54384390557402
 11
1590.1383694522451
 21
275.76164716690869
  0
LINE
  8
_0-0_
  6
CONTINUOUS
 62
    7
 10
1493.0106636142123
 20
194.54384390557402
 11
1574.2284668755478
 21
275.76164716690869
  0
LINE
  8
_0-0_
  6
CONTINUOUS
 62
    7
 10
1477.1007610375168
 20
194.54384390557402
 11
1558.3185642988542
 21
275.76164716690869
  0
LINE
  8
_0-0_
  6
CONTINUOUS
 62
    4
 10
1326.5701831473493
 20
492.91259279275323
 11
1326.5701831473493
 21
309.51164716691142
  0
LINE
  8
_0-0_
  6
DASHED2
 62
    5
 10
1319.8201831473493
 20
302.7222342495204
 11
1319.8201831473493
 21
492.91259279275323
  0
LINE
  8
_0-0_
  6
CONTINUOUS
 62
    7
 10
1313.0701831473493
 20
275.76164716691142
 11
1313.0701831473493
 21
492.91259279275323
  0
LINE
  8
_0-0_
  6
DASHED2
 62
    5
 10
1524.5307702299583
 20
302.7222342495204
 11
1527.5307702299583
 21
299.7222342495204
  0
LINE
  8
_0-0_
  6
DASHED2
 62
    5
 10
1527.5307702299583
 20
299.7222342495204
 11
1650.5307702299601
 21
299.7222342495204
  0
LINE
  8
_0-0_
  6
DASHED2
 62
    5
 10
1319.8201831473493
 20
299.7222342495204
 11
1419.5701831473493
 21
299.7222342495204
  0
LINE
  8
_0-0_
  6
DASHED2
 62
    5
 10
1422.5701831473493
 20
302.7222342495204
 11
1419.5701831473493
 21
299.7222342495204
  0
LINE
  8
_0-0_
  6
CONTINUOUS
 62
    4
 10
1313.0701831473493
 20
287.76164716691142
 11
1415.0701831473493
 21
287.76164716691142
  0
LINE
  8
_0-0_
  6
CONTINUOUS
 62
    4
 10
1415.0701831473493
 20
287.76164716691142
 11
1422.5701831473493
 21
295.26164716691142
  0
LINE
  8
_0-0_
  6
DASHED2
 62
    5
 10
1313.0701831473493
 20
281.76164716691142
 11
1415.0701831473493
 21
281.76164716691142
  0
LINE
  8
_0-0_
  6
CONTINUOUS
 62
    4
 10
1524.5307702299583
 20
295.26164716691142
 11
1530.5307702299583
 21
289.26164716691142
  0
LINE
  8
_0-0_
  6
CONTINUOUS
 62
    3
 10
1425.5701831473493
 20
289.26164716691142
 11
1425.5701831473493
 21
275.76164716691142
  0
LINE
  8
_0-0_
  6
DASHED2
 62
    5
 10
1425.5701831473493
 20
292.26164716691142
 11
1415.0701831473493
 21
281.76164716691142
  0
LINE
  8
_0-0_
  6
CONTINUOUS
 62
    7
 10
1429.2112219672886
 20
302.7222342495204
 11
1456.6558834521134
 21
350.25778233776578
  0
POINT
  8
_0-0_
 62
    7
 10
1429.2112219672886
 20
302.7222342495204
  0
POINT
  8
_0-0_
 62
    7
 10
1373.9158911254913
 20
304.61694070821591
  0
LINE
  8
_0-0_
  6
CONTINUOUS
 62
    7
 10
1334.0517060626285
 20
309.51164716691142
 11
1412.7635717756025
 21
445.84459774032143
  0
POINT
  8
_0-0_
 62
    7
 10
1334.0517060626285
 20
309.51164716691142
  0
POINT
  8
_0-0_
 62
    7
 10
1473.4168311262661
 20
292.26164716691142
  0
POINT
  8
_0-0_
 62
    7
 10
1531.3266329162748
 20
282.51164716691142
  0
LINE
  8
_0-0_
  6
CONTINUOUS
 62
    7
 10
1578.3051795642882
 20
275.76164716691142
 11
1609.669887579445
 21
330.08691501372573
  0
POINT
  8
_0-0_
 62
    7
 10
1578.3051795642882
 20
275.76164716691142
  0
TEXT
  8
_0-0_
 62
    7
 10
1402.3723600491671
 20
448.19313523000892
 40
21.617968000000001
 41
1
 50
0
  1
ﾄｯﾌﾟｺｰﾄ
  0
TEXT
  8
_0-0_
 62
    7
 10
1525.4156564909749
 20
407.66767727770434
 40
21.617968000000001
 41
1
 50
0
  1
DFﾒｯｼｭﾃｰﾌﾟ
  0
TEXT
  8
_0-0_
 62
    7
 10
1404.8424502637745
 20
388.94104851762154
 40
21.617968000000001
 41
1
 50
0
  1
ｳﾚﾀﾝ防水
  0
LINE
  8
_0-0_
  6
CONTINUOUS
 62
    7
 10
1473.4168311262661
 20
292.26164716691142
 11
1535.9958336372065
 21
400.65165900283932
  0
TEXT
  8
_0-0_
 62
    7
 10
1552.1029978818619
 20
365.9489281864162
 40
21.617968000000001
 41
1
 50
0
  1
通気緩衝ｼｰﾄ
  0
TEXT
  8
_0-0_
 62
    7
 10
1439.9959463572636
 20
353.13047773079643
 40
21.617968000000001
 41
1
 50
0
  1
LSﾒｯｼｭ
  0
TEXT
  8
_0-0_
 62
    7
 10
1604.2646196913238
 20
331.4470128507005
 40
21.617968000000001
 41
1
 50
0
  1
ﾌﾟﾗｲﾏｰ
  0
LINE
  8
_0-0_
  6
CONTINUOUS
 62
    7
 10
1531.3266329162748
 20
282.51164716691142
 11
1576.2283169234715
 21
360.28364521278036
  0
LINE
  8
_0-0_
  6
CONTINUOUS
 62
    7
 10
1024.6826713109276
 20
1125.4449104915213
 11
1024.6826713109276
 21
1391.8853326468609
  0
LINE
  8
_0-0_
  6
CONTINUOUS
 62
    7
 10
1094.0982574261316
 20
730.44491049152043
 11
1374.0982574261325
 21
1010.4449104915213
  0
LINE
  8
_0-0_
  6
CONTINUOUS
 62
    7
 10
1087.0271896142676
 20
730.44491049152134
 11
1367.0271896142676
 21
1010.4449104915204
  0
LINE
  8
_0-0_
  6
CONTINUOUS
 62
    7
 10
874.68267131092841
 20
737.30349435601261
 11
1147.8240874464373
 21
1010.4449104915204
  0
LINE
  8
_0-0_
  6
CONTINUOUS
 62
    7
 10
874.6826713109275
 20
744.37456216787655
 11
1140.7530196345715
 21
1010.4449104915204
  0
LINE
  8
_0-0_
  6
CONTINUOUS
 62
    7
 10
874.6826713109275
 20
751.44562997974231
 11
1133.6819518227076
 21
1010.4449104915204
  0
LINE
  8
_0-0_
  6
CONTINUOUS
 62
    7
 10
1224.6826713109276
 20
830.44491049152134
 11
1524.6826713109276
 21
830.44491049152134
  0
LINE
  8
_0-0_
  6
CONTINUOUS
 62
    7
 10
1224.6826713109276
 20
830.44491049152134
 11
1224.6826713109276
 21
730.44491049152134
  0
LINE
  8
_0-0_
  6
CONTINUOUS
 62
    7
 10
1406.230291782098
 20
830.44491049152134
 11
1524.6826713109285
 21
948.89729002035187
  0
LINE
  8
_0-0_
  6
CONTINUOUS
 62
    7
 10
1413.3013595939628
 20
830.44491049152134
 11
1524.6826713109276
 21
941.82622220848612
  0
LINE
  8
_0-0_
  6
CONTINUOUS
 62
    7
 10
1420.3724274058277
 20
830.44491049152134
 11
1524.6826713109285
 21
934.75515439662126
  0
LINE
  8
_0-0_
  6
CONTINUOUS
 62
    7
 10
1079.9561218024028
 20
730.44491049152134
 11
1359.9561218024028
 21
1010.4449104915213
  0
LINE
  8
_0-0_
  6
CONTINUOUS
 62
    7
 10
1024.6826713109276
 20
1010.4449104915213
 11
1524.6826713109276
 21
1010.4449104915213
  0
LINE
  8
_0-0_
  6
CONTINUOUS
 62
    4
 10
1030.6826713109276
 20
1025.4449104915213
 11
1524.6826713109276
 21
1025.4449104915213
  0
LINE
  8
_0-0_
  6
CONTINUOUS
 62
    3
 10
1074.6826713109276
 20
1016.4449104915213
 11
1524.6826713109276
 21
1016.4449104915213
  0
LINE
  8
_0-0_
  6
CONTINUOUS
 62
    3
 10
1074.6826713109276
 20
1016.4449104915213
 11
1074.6826713109276
 21
1010.4449104915213
  0
LINE
  8
_0-0_
  6
CONTINUOUS
 62
    7
 10
1216.9304986642728
 20
1017.9449104915213
 11
1276.6884436548517
 21
1121.44870737111
  0
POINT
  8
_0-0_
 62
    7
 10
1216.9304986642728
 20
1017.9449104915213
  0
LINE
  8
_0-0_
  6
CONTINUOUS
 62
    7
 10
1024.6826713109276
 20
1110.4449104915213
 11
1009.6826713109275
 21
1110.4449104915213
  0
LINE
  8
_0-0_
  6
CONTINUOUS
 62
    7
 10
1009.6826713109275
 20
1110.4449104915213
 11
1009.6826713109275
 21
1125.4449104915213
  0
LINE
  8
_0-0_
  6
CONTINUOUS
 62
    7
 10
1009.6826713109275
 20
1125.4449104915213
 11
1024.6826713109276
 21
1125.4449104915213
  0
LINE
  8
_0-0_
  6
CONTINUOUS
 62
    4
 10
1030.6826713109276
 20
1116.4449104915213
 11
1009.6826713109275
 21
1116.4449104915213
  0
LINE
  8
_0-0_
  6
CONTINUOUS
 62
    4
 10
1030.6826713109276
 20
1116.4449104915213
 11
1030.6826713109276
 21
1025.4449104915213
  0
LINE
  8
_0-0_
  6
CONTINUOUS
 62
    7
 10
874.6826713109275
 20
977.71979995943661
 11
1009.6826713109275
 21
1112.7197999594366
  0
LINE
  8
_0-0_
  6
CONTINUOUS
 62
    7
 10
1022.4077818430122
 20
1125.4449104915213
 11
1024.6826713109276
 21
1127.7197999594366
  0
LINE
  8
_0-0_
  6
CONTINUOUS
 62
    7
 10
874.6826713109275
 20
970.64873214757176
 11
1014.4788496548771
 21
1110.4449104915213
  0
LINE
  8
_0-0_
  6
CONTINUOUS
 62
    7
 10
874.68267131092841
 20
963.57766433570782
 11
1021.5499174667419
 21
1110.4449104915213
  0
LINE
  8
_0-0_
  6
CONTINUOUS
 62
    7
 10
1024.6826713109276
 20
1010.4449104915213
 11
1024.6826713109276
 21
1110.4449104915213
  0
ARC
  8
_0-0_
  6
CONTINUOUS
 62
    2
 10
1048.502199639131
 20
1134.8245960436573
 40
25.599774038749615
 50
201.49359415795911
 51
225.88654089400154
  0
LINE
  8
_0-0_
  6
CONTINUOUS
 62
    2
 10
1029.9108474441873
 20
1116.4449104915213
 11
1030.2949018817872
 21
1116.8289649291212
  0
LINE
  8
_0-0_
  6
CONTINUOUS
 62
    2
 10
1027.0824203194406
 20
1116.4449104915213
 11
1028.9443127269951
 21
1118.3068028990758
  0
LINE
  8
_0-0_
  6
CONTINUOUS
 62
    2
 10
1024.2539931946958
 20
1116.4449104915213
 11
1027.7055672605757
 21
1119.8964845574012
  0
LINE
  8
_0-0_
  6
CONTINUOUS
 62
    2
 10
1021.4255660699481
 20
1116.4449104915204
 11
1026.5820157190856
 21
1121.6013601406578
  0
LINE
  8
_0-0_
  6
CONTINUOUS
 62
    2
 10
1018.5971389452014
 20
1116.4449104915204
 11
1025.5795106877658
 21
1123.4272822340856
  0
LINE
  8
_0-0_
  6
CONTINUOUS
 62
    2
 10
1015.7687118204575
 20
1116.4449104915213
 11
1024.7070463251775
 21
1125.3832449962422
  0
LINE
  8
_0-0_
  6
CONTINUOUS
 62
    2
 10
1012.9402846957108
 20
1116.4449104915213
 11
1021.9402846957108
 21
1125.4449104915223
  0
LINE
  8
_0-0_
  6
CONTINUOUS
 62
    2
 10
1010.1118575709642
 20
1116.4449104915223
 11
1019.1118575709642
 21
1125.4449104915213
  0
LINE
  8
_0-0_
  6
CONTINUOUS
 62
    2
 10
1009.6826713109284
 20
1118.8441513562323
 11
1016.2834304462166
 21
1125.4449104915213
  0
LINE
  8
_0-0_
  6
CONTINUOUS
 62
    2
 10
1009.6826713109275
 20
1121.6725784809762
 11
1013.4550033214717
 21
1125.4449104915204
  0
LINE
  8
_0-0_
  6
CONTINUOUS
 62
    2
 10
1009.6826713109275
 20
1124.5010056057229
 11
1010.626576196726
 21
1125.4449104915213
  0
LINE
  8
_0-0_
  6
CONTINUOUS
 62
    7
 10
954.27127964426052
 20
1398.4385326468612
 11
951.88617964426101
 21
1391.8853326468609
  0
LINE
  8
_0-0_
  6
CONTINUOUS
 62
    7
 10
954.27127964426052
 20
1398.4385326468612
 11
945.09407964426043
 21
1385.3321326468606
  0
LINE
  8
_0-0_
  6
CONTINUOUS
 62
    7
 10
945.09407964425998
 20
1385.3321326468597
 11
947.47917964426085
 21
1391.8853326468609
  0
LINE
  8
_0-0_
  6
CONTINUOUS
 62
    7
 10
861.62384935758007
 20
1391.8853326468609
 11
947.47917964426085
 21
1391.8853326468609
  0
LINE
  8
_0-0_
  6
CONTINUOUS
 62
    7
 10
951.88617964426101
 20
1391.8853326468609
 11
1038.2818136301075
 21
1391.8853326468609
  0
LINE
  8
_0-0_
  6
CONTINUOUS
 62
    7
 10
874.6826713109275
 20
1203.9939699391318
 11
1024.6826713109276
 21
1353.9939699391318
  0
LINE
  8
_0-0_
  6
CONTINUOUS
 62
    7
 10
874.6826713109275
 20
1196.922902127267
 11
1024.6826713109276
 21
1346.922902127267
  0
LINE
  8
_0-0_
  6
CONTINUOUS
 62
    7
 10
874.68267131092841
 20
1189.851834315403
 11
1024.6826713109276
 21
1339.8518343154039
  0
LINE
  8
_0-0_
  6
CONTINUOUS
 62
    7
 10
874.6826713109275
 20
1391.8853326468609
 11
874.6826713109275
 21
730.44491049152134
  0
CIRCLE
  8
_0-0_
  6
DASHED2
 62
    1
 10
1074.6826713109276
 20
1016.4449104915213
 40
67.350194333739935
  0
TEXT
  8
_0-0_
 62
    7
 10
1062.8598979157209
 20
1071.7995074054436
 40
24
 41
1
 50
0
  1
Ｂ
  0
CIRCLE
  8
_0-0_
  6
DASHED2
 62
    1
 10
1024.6826713109276
 20
1125.4449104915213
 40
47.507213168919911
  0
TEXT
  8
_0-0_
 62
    7
 10
991.63742964082883
 20
1156.7669447678084
 40
24
 41
1
 50
0
  1
Ａ
  0
TEXT
  8
_0-0_
 62
    7
 10
1281.002305526818
 20
1109.0717039147842
 40
30
 41
1
 50
0
  1
防水層
  0
LINE
  8
_0-0_
  6
CONTINUOUS
 62
    7
 10
1023.376793561163
 20
1120.8632998066557
 11
1072.7928828355889
 21
1206.4544771413209
  0
POINT
  8
_0-0_
 62
    7
 10
1023.376793561163
 20
1120.8632998066557
  0
TEXT
  8
_0-0_
 62
    7
 10
1075.266062585009
 20
1191.6486610183758
 40
30
 41
1
 50
0
  1
ｼｰﾘﾝｸﾞ
  0
LINE
  8
_0-0_
  6
CONTINUOUS
 62
    7
 10
672.13606690525205
 20
1553.3565543671132
 11
1706.8525777203677
 21
1553.3565543671132
  0
LINE
  8
_0-0_
  6
CONTINUOUS
 62
    7
 10
672.13606690525205
 20
1633.3565543671132
 11
1706.8525777203677
 21
1633.3565543671132
  0
LINE
  8
_0-0_
  6
CONTINUOUS
 62
    7
 10
672.13606690525205
 20
1473.3565543671132
 11
1706.8525777203677
 21
1473.3565543671132
  0
LINE
  8
_0-0_
  6
CONTINUOUS
 62
    7
 10
1189.4943223128098
 20
1633.3565543671132
 11
1189.4943223128098
 21
1473.3565543671132
  0
TEXT
  8
_0-0_
 62
    7
 10
1213.4943223128098
 20
1577.3565543671132
 40
20
 41
1
 50
0
  1
構造：ＲＣ造
  0
TEXT
  8
_0-0_
 62
    7
 10
1213.4943223128098
 20
1497.3565543671132
 40
20
 41
1
 50
0
  1
下地：コンクリートスラブ
  0
TEXT
  8
_0-0_
 62
    7
 10
696.13606690525216
 20
1577.3565543671132
 40
20
 41
1
 50
0
  1
図面番号：tsuki-PU-kabe-02
  0
TEXT
  8
_0-0_
 62
    7
 10
696.13606690525205
 20
1497.3565543671132
 40
20
 41
1
 50
0
  1
施工部位：壁面立上り（目地切り）
  0
ENDSEC
  0
EOF
