  0
SECTION
  2
HEADER
  9
$ACADVER
  1
AC1009
  9
$INSBASE
 10
0
 20
0
 30
0
  9
$EXTMIN
 10
0
 20
0
  9
$EXTMAX
 10
2378
 20
1682
  9
$LIMMIN
 10
0
 20
0
  9
$LIMMAX
 10
2378
 20
1682
  9
$LTSCALE
 40
1
  0
ENDSEC
  0
SECTION
  2
TABLES
  0
TABLE
  2
LTYPE
 70
     9
  0
LTYPE
  2
CONTINUOUS
 70
    64
  3
実線
 72
    65
 73
     0
 40
0.0
  0
LTYPE
  2
DASHED1
 70
    64
  3
--  --  --  --  --  --  --  --  
 72
    65
 73
     2
 40
2.5
 49
1.25
 49
-1.25
  0
LTYPE
  2
DASHED2
 70
    64
  3
----    ----    ----    ----    
 72
    65
 73
     2
 40
5.0
 49
2.5
 49
-2.5
  0
LTYPE
  2
DASHED3
 70
    64
  3
------  ------  ------  ------  
 72
    65
 73
     2
 40
5.0
 49
3.75
 49
-1.25
  0
LTYPE
  2
CENTER1
 70
    64
  3
----- - ----- - ----- - ----- - 
 72
    65
 73
     4
 40
10.0
 49
6.25
 49
-1.25
 49
1.25
 49
-1.25
  0
LTYPE
  2
CENTER2
 70
    64
  3
----------  --  ----------  --  
 72
    65
 73
     4
 40
20.0
 49
12.5
 49
-2.5
 49
2.5
 49
-2.5
  0
LTYPE
  2
PHANTOM1
 70
    64
  3
--- - - --- - - --- - - --- - - 
 72
    65
 73
     6
 40
10.0
 49
3.25
 49
-1.25
 49
1.25
 49
-1.25
 49
1.25
 49
-1.25
  0
LTYPE
  2
PHANTOM2
 70
    64
  3
--------  -  -  --------  -  -  
 72
    65
 73
     6
 40
20.0
 49
10.0
 49
-2.5
 49
1.25
 49
-2.5
 49
1.25
 49
-2.5
  0
LTYPE
  2
DOT
 70
    64
  3
-   -   -   -   -   -   -   -   
 72
    65
 73
     2
 40
2.5
 49
0.625
 49
-1.875
  0
LTYPE
  2
DUMMY
 70
    64
  3
ダミー
 72
    65
 73
     0
 40
0.0
  0
LTYPE
  2
RAND1
 70
    64
  3
ランダム線1
 72
    65
 73
     4
 40
10.0
 49
1.0
 49
-2.0
 49
3.0
 49
-4.0
  0
LTYPE
  2
RAND2
 70
    64
  3
ランダム線2
 72
    65
 73
     4
 40
14.0
 49
2.0
 49
-3.0
 49
4.0
 49
-5.0
  0
LTYPE
  2
RAND3
 70
    64
  3
ランダム線3
 72
    65
 73
     4
 40
18.0
 49
3.0
 49
-4.0
 49
5.0
 49
-6.0
  0
LTYPE
  2
RAND4
 70
    64
  3
ランダム線4
 72
    65
 73
     4
 40
22.0
 49
4.0
 49
-5.0
 49
6.0
 49
-7.0
  0
LTYPE
  2
RAND5
 70
    64
  3
ランダム線5
 72
    65
 73
     4
 40
26.0
 49
5.0
 49
-6.0
 49
7.0
 49
-8.0
  0
LTYPE
  2
LONG1
 70
    64
  3
----------  --  ----------  --  
 72
    65
 73
     4
 40
40.0
 49
32.5
 49
-2.5
 49
2.5
 49
-2.5
  0
LTYPE
  2
LONG2
 70
    64
  3
--------  -  -  --------  -  -  
 72
    65
 73
     6
 40
40.0
 49
30.0
 49
-2.5
 49
1.25
 49
-2.5
 49
1.25
 49
-2.5
  0
LTYPE
  2
LONG3
 70
    64
  3
+++++++++++++++..+++++++++++++++
 72
    65
 73
     2
 40
40.0
 49
37.5
 49
-2.5
  0
LTYPE
  2
LONG4
 70
    64
  3
+++++++++++++++..+++++++++++++++
 72
    65
 73
     2
 40
80.0
 49
75.0
 49
-5.0
  0
LTYPE
  2
LONG5
 70
    64
  3
----------  --  ----------  --  
 72
    65
 73
     4
 40
60.0
 49
37.5
 49
-7.5
 49
7.5
 49
-7.5
  0
LTYPE
  2
dashed
 70
   64
  3
-------   -------------   ------
 72
   65
 73
    2
 40
7.5
 49
6
 49
-1.5
  0
LTYPE
  2
dashed_spaced
 70
   64
  3
----        --------        ----
 72
   65
 73
    2
 40
12
 49
6
 49
-6
  0
LTYPE
  2
long_dashed_dotted
 70
   64
  3
------------- --- --------------
 72
   65
 73
    4
 40
15.25
 49
12
 49
-1.5
 49
0.25
 49
-1.5
  0
LTYPE
  2
long_dashed_double-dotted
 70
   64
  3
----------- --- --- ------------
 72
   65
 73
    6
 40
17
 49
12
 49
-1.5
 49
0.25
 49
-1.5
 49
0.25
 49
-1.5
  0
LTYPE
  2
long_dashed_triplicate-dotted
 70
   64
  3
--------- --- --- --- ----------
 72
   65
 73
    8
 40
18.75
 49
12
 49
-1.5
 49
0.25
 49
-1.5
 49
0.25
 49
-1.5
 49
0.25
 49
-1.5
  0
LTYPE
  2
dotted
 70
   64
  3
   -       -       -       -    
 72
   65
 73
    2
 40
1.75
 49
0.25
 49
-1.5
  0
LTYPE
  2
chain
 70
   64
  3
-------------- -- --------------
 72
   65
 73
    4
 40
18.5
 49
12
 49
-1.5
 49
3.5
 49
-1.5
  0
LTYPE
  2
chain_double_dash
 70
   64
  3
------------ -- -- -------------
 72
   65
 73
    6
 40
23.5
 49
12
 49
-1.5
 49
3.5
 49
-1.5
 49
3.5
 49
-1.5
  0
LTYPE
  2
dashed_dotted
 70
   64
  3
-----------     -     ----------
 72
   65
 73
    4
 40
9.25
 49
6
 49
-1.5
 49
0.25
 49
-1.5
  0
LTYPE
  2
double-dashed_dotted
 70
   64
  3
------   -----------   -   -----
 72
   65
 73
    6
 40
16.75
 49
6
 49
-1.5
 49
6
 49
-1.5
 49
0.25
 49
-1.5
  0
LTYPE
  2
dashed_double-dotted
 70
   64
  3
---------    -    -    ---------
 72
   65
 73
    6
 40
11
 49
6
 49
-1.5
 49
0.25
 49
-1.5
 49
0.25
 49
-1.5
  0
LTYPE
  2
double-dashed_double-dotted
 70
   64
  3
-----   ---------   -   -   ----
 72
   65
 73
    8
 40
18.5
 49
6
 49
-1.5
 49
6
 49
-1.5
 49
0.25
 49
-1.5
 49
0.25
 49
-1.5
  0
LTYPE
  2
dashed_triplicate-dotted
 70
   64
  3
-------    -    -    -    ------
 72
   65
 73
    8
 40
12.75
 49
6
 49
-1.5
 49
0.25
 49
-1.5
 49
0.25
 49
-1.5
 49
0.25
 49
-1.5
  0
LTYPE
  2
double-dashed_triplicate-dotted
 70
   64
  3
-----  ---------  -  -  -  -----
 72
   65
 73
   10
 40
20.25
 49
6
 49
-1.5
 49
6
 49
-1.5
 49
0.25
 49
-1.5
 49
0.25
 49
-1.5
 49
0.25
 49
-1.5
  0
LTYPE
  2
undefined
 70
   64
  3
--------------------------------
 72
   65
 73
    0
 40
0
  0
ENDTAB
  0
TABLE
  2
STYLE
  5
3
100
AcDbSymbolTable
 70
     1
  0
STYLE
  5
10
100
AcDbSymbolTableRecord
100
AcDbTextStyleTableRecord
  2
STANDARD
 70
     0
 40
0.0
 41
1.0
 50
0.0
 71
     0
 42
0.2
  3
txt
  4
bigfont.shx
  0
STYLE
  5
26
100
AcDbSymbolTableRecord
100
AcDbTextStyleTableRecord
  2
TATEGAKI
 70
    68
 40
0.0
 41
1.0
 50
0.0
 71
     0
 42
1.0
  3
txt
  4
bigfont.shx
  0
ENDTAB
  0
TABLE
  2
LAYER
 70
    2
  0
LAYER
  2
_0-0_
 70
   64
 62
    7
  6
CONTINUOUS
  0
LAYER
  2
ADD_LINE
 70
   64
 62
    7
  6
CONTINUOUS
  0
ENDTAB
  0
ENDSEC
  0
SECTION
  2
BLOCKS
  0
ENDSEC
  0
SECTION
  2
ENTITIES
  0
POINT
  8
_0-0_
 62
    7
 10
1206.2842424501978
 20
390.29603394242554
  0
POINT
  8
_0-0_
 62
    7
 10
1329.27844048109
 20
465.61685635587787
  0
LINE
  8
_0-0_
  6
CONTINUOUS
 62
    7
 10
672.13606690525205
 20
167.53106997205509
 11
1706.8525777203668
 21
167.53106997205509
  0
LINE
  8
_0-0_
  6
CONTINUOUS
 62
    7
 10
672.13606690525205
 20
1633.3565543671132
 11
672.13606690525205
 21
167.53106997205509
  0
LINE
  8
_0-0_
  6
CONTINUOUS
 62
    7
 10
1706.8525777203668
 20
1633.3565543671132
 11
1706.8525777203668
 21
167.53106997205509
  0
LINE
  8
_0-0_
  6
CONTINUOUS
 62
    7
 10
672.13606690525205
 20
1633.3565543671132
 11
1706.8525777203668
 21
1633.3565543671132
  0
LINE
  8
_0-0_
  6
CONTINUOUS
 62
    7
 10
672.13606690525205
 20
1553.3565543671132
 11
1706.8525777203668
 21
1553.3565543671132
  0
LINE
  8
_0-0_
  6
CONTINUOUS
 62
    7
 10
672.13606690525205
 20
1473.3565543671132
 11
1706.8525777203668
 21
1473.3565543671132
  0
LINE
  8
_0-0_
  6
CONTINUOUS
 62
    7
 10
1189.4943223128103
 20
1633.3565543671132
 11
1189.4943223128103
 21
1473.3565543671132
  0
TEXT
  8
_0-0_
 62
    7
 10
1213.4943223128103
 20
1577.3565543671132
 40
30
 41
1
 50
0
  1
構造：Ｓ造
  0
TEXT
  8
_0-0_
 62
    7
 10
1213.4943223128103
 20
1497.3565543671132
 40
30
 41
1
 50
0
  1
下地：ＰＣ
  0
TEXT
  8
_0-0_
 62
    7
 10
696.13606690525205
 20
1497.3565543671132
 40
30
 41
1
 50
0
  1
施工部位：ＰＣ目地
  0
LINE
  8
_0-0_
  6
CONTINUOUS
 62
    7
 10
672.13606690525205
 20
820.44381216958413
 11
1706.8525777203668
 21
820.44381216958413
  0
LINE
  8
_0-0_
  6
CONTINUOUS
 62
    7
 10
867.95454777179305
 20
897.55914670568222
 11
1092.9545477717929
 21
1122.55914670568
  0
LINE
  8
_0-0_
  6
CONTINUOUS
 62
    7
 10
883.86445034849214
 20
897.55914670568222
 11
1108.864450348492
 21
1122.55914670568
  0
LINE
  8
_0-0_
  6
CONTINUOUS
 62
    7
 10
1377.0714302261076
 20
897.55914670568222
 11
1580.5514944687184
 21
1101.0392109482943
  0
LINE
  8
_0-0_
  6
CONTINUOUS
 62
    7
 10
1392.9813328028031
 20
897.55914670568222
 11
1580.5514944687184
 21
1085.1293083715943
  0
LINE
  8
_0-0_
  6
CONTINUOUS
 62
    7
 10
1198.0514944687184
 20
1122.5591467056822
 11
860.55149446871849
 21
1122.5591467056822
  0
LINE
  8
_0-0_
  6
CONTINUOUS
 62
    7
 10
1198.0514944687184
 20
1122.5591467056822
 11
1198.0514944687184
 21
897.55914670568222
  0
LINE
  8
_0-0_
  6
CONTINUOUS
 62
    7
 10
1243.0514944687184
 20
1122.5591467056822
 11
1580.5514944687184
 21
1122.5591467056822
  0
LINE
  8
_0-0_
  6
CONTINUOUS
 62
    7
 10
1243.0514944687184
 20
1122.5591467056822
 11
1243.0514944687184
 21
897.55914670568222
  0
LINE
  8
_0-0_
  6
CONTINUOUS
 62
    7
 10
1361.1615276494067
 20
897.55914670568222
 11
1580.5514944687184
 21
1116.9491135249943
  0
LINE
  8
_0-0_
  6
CONTINUOUS
 62
    7
 10
852.04464519509759
 20
897.55914670568222
 11
1077.0446451950975
 21
1122.5591467056822
  0
ARC
  8
_0-0_
  6
CONTINUOUS
 62
    2
 10
1220.5514944687184
 20
1573.248373383736
 40
451.25051694558965
 50
267.14196490848917
 51
272.85803509151083
  0
LINE
  8
_0-0_
  6
CONTINUOUS
 62
    2
 10
1198.0514944687129
 20
1070.2109607411915
 11
1243.0514944687184
 21
1115.2109607411937
  0
LINE
  8
_0-0_
  6
CONTINUOUS
 62
    2
 10
1198.0514944687184
 20
1076.5749217718737
 11
1243.0514944687184
 21
1121.5749217718715
  0
LINE
  8
_0-0_
  6
CONTINUOUS
 62
    2
 10
1198.0514944687184
 20
1121.1226489866315
 11
1199.4216755858324
 21
1122.4928301037469
  0
LINE
  8
_0-0_
  6
CONTINUOUS
 62
    2
 10
1198.0514944687184
 20
1114.7586879559537
 11
1205.5404079190448
 21
1122.2476014062811
  0
LINE
  8
_0-0_
  6
CONTINUOUS
 62
    2
 10
1198.0514944687184
 20
1108.3947269252715
 11
1211.7406497936554
 21
1122.0838822502103
  0
LINE
  8
_0-0_
  6
CONTINUOUS
 62
    2
 10
1198.0514944687184
 20
1102.0307658945937
 11
1218.0256541667259
 21
1122.0049255926012
  0
LINE
  8
_0-0_
  6
CONTINUOUS
 62
    2
 10
1198.0514944687184
 20
1095.6668048639137
 11
1224.3989484297254
 21
1122.0142588249189
  0
LINE
  8
_0-0_
  6
CONTINUOUS
 62
    2
 10
1198.0514944687184
 20
1089.3028438332337
 11
1230.8643675959447
 21
1122.1157169604587
  0
LINE
  8
_0-0_
  6
CONTINUOUS
 62
    2
 10
1198.0514944687184
 20
1082.9388828025537
 11
1237.4260928847907
 21
1122.313481218627
  0
LINE
  8
_0-0_
  6
CONTINUOUS
 62
    2
 10
1224.7788063380012
 20
1077.8463895184348
 11
1243.051494468722
 21
1096.1190776491555
  0
LINE
  8
_0-0_
  6
CONTINUOUS
 62
    2
 10
1218.7427050830829
 20
1078.1742492942001
 11
1243.0514944687129
 21
1102.4830386798337
  0
LINE
  8
_0-0_
  6
CONTINUOUS
 62
    2
 10
1198.0514944687129
 20
1063.8469997105137
 11
1200.8884919782959
 21
1066.6839972200958
  0
LINE
  8
_0-0_
  6
CONTINUOUS
 62
    2
 10
1209.6145692581395
 20
1075.4100744999403
 11
1243.0514944687184
 21
1108.8469997105155
  0
LINE
  8
_0-0_
  6
CONTINUOUS
 62
    2
 10
1229.6304161511762
 20
1076.3340383009338
 11
1243.0514944687184
 21
1089.7551166184755
  0
LINE
  8
_0-0_
  6
CONTINUOUS
 62
    2
 10
1233.6800769039528
 20
1074.0197380230309
 11
1243.0514944687184
 21
1083.3911555877974
  0
LINE
  8
_0-0_
  6
CONTINUOUS
 62
    2
 10
1237.0596398469352
 20
1071.035339935341
 11
1243.0514944687129
 21
1077.0271945571196
  0
LINE
  8
_0-0_
  6
CONTINUOUS
 62
    2
 10
1239.7948326892929
 20
1067.4065717470128
 11
1243.051494468722
 21
1070.6632335264437
  0
LINE
  8
_0-0_
  6
CONTINUOUS
 62
    2
 10
1241.8253845116433
 20
1063.0731625386886
 11
1243.0514944687184
 21
1064.2992724957619
  0
LINE
  8
_0-0_
  6
CONTINUOUS
 62
    2
 10
1242.9541333282668
 20
1057.8379503246322
 11
1243.0514944687184
 21
1057.9353114650837
  0
LINE
  8
_0-0_
  6
CONTINUOUS
 62
    7
 10
1333.0514944687184
 20
1127.0591467056822
 11
1108.0514944687184
 21
1127.0591467056822
  0
LINE
  8
_0-0_
  6
CONTINUOUS
 62
    7
 10
1333.0514944687184
 20
1127.0591467056822
 11
1333.0514944687184
 21
1122.5591467056822
  0
LINE
  8
_0-0_
  6
CONTINUOUS
 62
    7
 10
1108.0514944687184
 20
1127.0591467056822
 11
1108.0514944687184
 21
1122.5591467056822
  0
LINE
  8
_0-0_
  6
DASHED2
 62
    5
 10
1100.2572658346562
 20
1127.0591467056822
 11
995.55149446871849
 21
1127.0591467056822
  0
LINE
  8
_0-0_
  6
DASHED2
 62
    5
 10
1108.0514944687184
 20
1131.5591467056822
 11
1100.2572658346562
 21
1127.0591467056822
  0
LINE
  8
_0-0_
  6
DASHED2
 62
    5
 10
1333.0514944687184
 20
1131.5591467056822
 11
1108.0514944687184
 21
1131.5591467056822
  0
LINE
  8
_0-0_
  6
DASHED2
 62
    5
 10
1333.0514944687184
 20
1131.5591467056822
 11
1340.8457231027787
 21
1127.0591467056822
  0
LINE
  8
_0-0_
  6
DASHED2
 62
    5
 10
1340.8457231027787
 20
1127.0591467056822
 11
1445.5514944687184
 21
1127.0591467056822
  0
LINE
  8
_0-0_
  6
CONTINUOUS
 62
    4
 10
1333.0514944687184
 20
1133.8091467056822
 11
1108.0514944687184
 21
1133.8091467056822
  0
LINE
  8
_0-0_
  6
CONTINUOUS
 62
    4
 10
995.55149446871849
 20
1129.3091467056822
 11
983.86015151762888
 21
1122.5591467056822
  0
LINE
  8
_0-0_
  6
CONTINUOUS
 62
    4
 10
1445.5514944687184
 20
1129.3091467056822
 11
1457.2428374198116
 21
1122.5591467056822
  0
LINE
  8
_0-0_
  6
CONTINUOUS
 62
    4
 10
1333.0514944687184
 20
1133.8091467056822
 11
1340.8457231027733
 21
1129.3091467056822
  0
LINE
  8
_0-0_
  6
CONTINUOUS
 62
    4
 10
1340.8457231027733
 20
1129.3091467056822
 11
1445.5514944687184
 21
1129.3091467056822
  0
LINE
  8
_0-0_
  6
CONTINUOUS
 62
    4
 10
1100.2572658346562
 20
1129.3091467056822
 11
995.55149446871849
 21
1129.3091467056822
  0
LINE
  8
_0-0_
  6
CONTINUOUS
 62
    4
 10
1108.0514944687184
 20
1133.8091467056822
 11
1100.2572658346562
 21
1129.3091467056822
  0
LINE
  8
_0-0_
  6
CONTINUOUS
 62
    4
 10
1340.8457231027733
 20
1149.5591467056822
 11
1349.2428374198025
 21
1147.3091467056822
  0
LINE
  8
_0-0_
  6
CONTINUOUS
 62
    4
 10
1457.2428374198116
 20
1147.3091467056822
 11
1474.037066053872
 21
1142.8091467056822
  0
LINE
  8
_0-0_
  6
CONTINUOUS
 62
    4
 10
967.06592288356671
 20
1142.8091467056822
 11
860.55149446871849
 21
1142.8091467056822
  0
LINE
  8
_0-0_
  6
CONTINUOUS
 62
    4
 10
983.86015151762888
 20
1147.3091467056822
 11
967.06592288356671
 21
1142.8091467056822
  0
LINE
  8
_0-0_
  6
CONTINUOUS
 62
    4
 10
1100.2572658346562
 20
1149.5591467056822
 11
1091.8601515176251
 21
1147.3091467056822
  0
LINE
  8
_0-0_
  6
CONTINUOUS
 62
    4
 10
1457.2428374198116
 20
1147.3091467056822
 11
1349.2428374198025
 21
1147.3091467056822
  0
LINE
  8
_0-0_
  6
CONTINUOUS
 62
    4
 10
1091.8601515176251
 20
1147.3091467056822
 11
983.86015151762888
 21
1147.3091467056822
  0
LINE
  8
_0-0_
  6
CONTINUOUS
 62
    4
 10
1340.8457231027733
 20
1149.5591467056822
 11
1100.2572658346562
 21
1149.5591467056822
  0
LINE
  8
_0-0_
  6
CONTINUOUS
 62
    4
 10
1580.5514944687184
 20
1142.8091467056822
 11
1474.037066053872
 21
1142.8091467056822
  0
POINT
  8
_0-0_
 62
    7
 10
1457.2428374198116
 20
1122.5591467056822
  0
POINT
  8
_0-0_
 62
    7
 10
1340.8457231027787
 20
1127.0591467056822
  0
LINE
  8
_0-0_
  6
CONTINUOUS
 62
    7
 10
1457.2428374198116
 20
1122.5591467056822
 11
1497.0396948540038
 21
1191.4893257632796
  0
LINE
  8
_0-0_
  6
CONTINUOUS
 62
    7
 10
1340.8457231027787
 20
1127.0591467056822
 11
1430.9979875214503
 21
1283.2074490962066
  0
TEXT
  8
_0-0_
 62
    7
 10
1499.6258025655243
 20
1176.9726617061622
 40
30
 41
1
 50
0
  1
ﾌﾟﾗｲﾏｰ
  0
LINE
  8
_0-0_
  6
CONTINUOUS
 62
    7
 10
1245.1680410380577
 20
1124.8187753038949
 11
1389.5694630042599
 21
1374.9293748345506
  0
POINT
  8
_0-0_
 62
    7
 10
1245.1680410380577
 20
1124.8187753038949
  0
TEXT
  8
_0-0_
 62
    7
 10
1395.8736433525628
 20
1356.6662178781551
 40
30
 41
1
 50
0
  1
FJﾃｰﾌﾟ
  0
POINT
  8
_0-0_
 62
    7
 10
1220.534845844697
 20
1108.9048735735612
  0
LINE
  8
_0-0_
  6
CONTINUOUS
 62
    7
 10
967.06592288356671
 20
1142.8091467056822
 11
928.84753363751599
 21
1209.0053386632865
  0
POINT
  8
_0-0_
 62
    7
 10
967.06592288356671
 20
1142.8091467056822
  0
TEXT
  8
_0-0_
 62
    7
 10
821.93491486019605
 20
1201.1509639526942
 40
30
 41
1
 50
0
  1
ﾄｯﾌﾟｺｰﾄ
  0
CIRCLE
  8
_0-0_
  6
CONTINUOUS
 62
    5
 10
1220.5514944687184
 20
1055.7470720095209
 40
22.5
  0
LINE
  8
_0-0_
  6
CONTINUOUS
 62
    7
 10
1027.7246298175523
 20
1140.5519258816241
 11
947.52143887605246
 21
1279.4679275214492
  0
POINT
  8
_0-0_
 62
    7
 10
1027.7246298175523
 20
1140.5519258816241
  0
TEXT
  8
_0-0_
 62
    7
 10
823.12440689679909
 20
1269.4961178188194
 40
30
 41
1
 50
0
  1
ｳﾚﾀﾝ防水
  0
POINT
  8
_0-0_
 62
    7
 10
1217.8515250718865
 20
1051.7383242922299
  0
LINE
  8
_0-0_
  6
CONTINUOUS
 62
    7
 10
1217.8515250718865
 20
1051.7383242922299
 11
1054.0756505311019
 21
1335.4064600508925
  0
LINE
  8
_0-0_
  6
CONTINUOUS
 62
    7
 10
1220.534845844697
 20
1108.9048735735612
 11
1057.8352188013741
 21
1390.7088939851049
  0
TEXT
  8
_0-0_
 62
    7
 10
904.04346612269194
 20
1322.784278772456
 40
30
 41
1
 50
0
  1
ﾊﾞｯｸｱｯﾌﾟ材
  0
TEXT
  8
_0-0_
 62
    7
 10
977.72586151537519
 20
1380.6775894381356
 40
30
 41
1
 50
0
  1
ｼｰﾘﾝｸﾞ
  0
LINE
  8
_0-0_
  6
CONTINUOUS
 62
    7
 10
856.38726515010615
 20
236.11685635587787
 11
1081.387265150106
 21
461.1168563558756
  0
LINE
  8
_0-0_
  6
CONTINUOUS
 62
    7
 10
872.29716772680524
 20
236.11685635587787
 11
1097.2971677268051
 21
461.1168563558756
  0
LINE
  8
_0-0_
  6
CONTINUOUS
 62
    7
 10
1365.5041476044189
 20
236.11685635587787
 11
1568.9842118470297
 21
439.59692059848999
  0
LINE
  8
_0-0_
  6
CONTINUOUS
 62
    7
 10
1381.4140501811144
 20
236.11685635587787
 11
1568.9842118470297
 21
423.68701802178998
  0
LINE
  8
_0-0_
  6
CONTINUOUS
 62
    7
 10
1186.4842118470297
 20
461.11685635587787
 11
848.98421184702977
 21
461.11685635587787
  0
LINE
  8
_0-0_
  6
CONTINUOUS
 62
    7
 10
1186.4842118470297
 20
461.11685635587787
 11
1186.4842118470297
 21
236.11685635587787
  0
LINE
  8
_0-0_
  6
CONTINUOUS
 62
    7
 10
1231.4842118470297
 20
461.11685635587787
 11
1568.9842118470297
 21
461.11685635587787
  0
LINE
  8
_0-0_
  6
CONTINUOUS
 62
    7
 10
1231.4842118470297
 20
461.11685635587787
 11
1231.4842118470297
 21
236.11685635587787
  0
LINE
  8
_0-0_
  6
CONTINUOUS
 62
    7
 10
1349.5942450277198
 20
236.11685635587787
 11
1568.9842118470297
 21
455.50682317518999
  0
LINE
  8
_0-0_
  6
CONTINUOUS
 62
    7
 10
840.47736257340887
 20
236.11685635587787
 11
1065.4773625734088
 21
461.11685635587787
  0
ARC
  8
_0-0_
  6
CONTINUOUS
 62
    2
 10
1208.9842118470297
 20
911.8060830339316
 40
451.25051694558965
 50
267.14196490848917
 51
272.85803509151083
  0
LINE
  8
_0-0_
  6
CONTINUOUS
 62
    2
 10
1186.484211847026
 20
408.7686703913871
 11
1231.4842118470297
 21
453.76867039138938
  0
LINE
  8
_0-0_
  6
CONTINUOUS
 62
    2
 10
1186.4842118470297
 20
415.13263142206938
 11
1231.4842118470297
 21
460.13263142206711
  0
LINE
  8
_0-0_
  6
CONTINUOUS
 62
    2
 10
1186.4842118470297
 20
459.68035863682712
 11
1187.8543929641455
 21
461.05053975394253
  0
LINE
  8
_0-0_
  6
CONTINUOUS
 62
    2
 10
1186.4842118470297
 20
453.31639760614939
 11
1193.9731252973579
 21
460.80531105647674
  0
LINE
  8
_0-0_
  6
CONTINUOUS
 62
    2
 10
1186.4842118470297
 20
446.95243657546712
 11
1200.1733671719685
 21
460.64159190040596
  0
LINE
  8
_0-0_
  6
CONTINUOUS
 62
    2
 10
1186.4842118470297
 20
440.58847554478939
 11
1206.4583715450372
 21
460.56263524279689
  0
LINE
  8
_0-0_
  6
CONTINUOUS
 62
    2
 10
1186.4842118470297
 20
434.22451451410939
 11
1212.8316658080366
 21
460.57196847511455
  0
LINE
  8
_0-0_
  6
CONTINUOUS
 62
    2
 10
1186.4842118470297
 20
427.86055348342938
 11
1219.2970849742578
 21
460.67342661065436
  0
LINE
  8
_0-0_
  6
CONTINUOUS
 62
    2
 10
1186.4842118470297
 20
421.49659245274938
 11
1225.8588102631038
 21
460.87119086882262
  0
LINE
  8
_0-0_
  6
CONTINUOUS
 62
    2
 10
1213.2115237163125
 20
416.40409916863041
 11
1231.4842118470333
 21
434.67678729935119
  0
LINE
  8
_0-0_
  6
CONTINUOUS
 62
    2
 10
1207.1754224613942
 20
416.73195894439573
 11
1231.484211847026
 21
441.04074833002937
  0
LINE
  8
_0-0_
  6
CONTINUOUS
 62
    2
 10
1186.484211847026
 20
402.40470936070938
 11
1189.321209356609
 21
405.24170687029141
  0
LINE
  8
_0-0_
  6
CONTINUOUS
 62
    2
 10
1198.0472866364526
 20
413.96778415013591
 11
1231.4842118470297
 21
447.40470936071119
  0
LINE
  8
_0-0_
  6
CONTINUOUS
 62
    2
 10
1218.0631335294875
 20
414.89174795112945
 11
1231.4842118470297
 21
428.31282626867119
  0
LINE
  8
_0-0_
  6
CONTINUOUS
 62
    2
 10
1222.1127942822659
 20
412.57744767322652
 11
1231.4842118470297
 21
421.948865237993
  0
LINE
  8
_0-0_
  6
CONTINUOUS
 62
    2
 10
1225.4923572252465
 20
409.59304958553662
 11
1231.484211847026
 21
415.58490420731528
  0
LINE
  8
_0-0_
  6
CONTINUOUS
 62
    2
 10
1228.227550067606
 20
405.96428139720842
 11
1231.4842118470333
 21
409.22094317663937
  0
LINE
  8
_0-0_
  6
CONTINUOUS
 62
    2
 10
1230.2581018899564
 20
401.63087218888427
 11
1231.4842118470297
 21
402.85698214595755
  0
LINE
  8
_0-0_
  6
CONTINUOUS
 62
    2
 10
1231.3868507065781
 20
396.39565997482782
 11
1231.4842118470297
 21
396.49302111527936
  0
POINT
  8
_0-0_
 62
    7
 10
1445.6755547981229
 20
461.11685635587787
  0
LINE
  8
_0-0_
  6
CONTINUOUS
 62
    7
 10
1445.6755547981229
 20
461.11685635587787
 11
1485.472412232315
 21
530.04703541347521
  0
POINT
  8
_0-0_
 62
    7
 10
1208.9675632230083
 20
447.46258322375684
  0
TEXT
  8
_0-0_
 62
    7
 10
811.55712427511037
 20
608.053827469015
 40
30
 41
1
 50
0
  1
ｳﾚﾀﾝ防水
  0
CIRCLE
  8
_0-0_
  6
CONTINUOUS
 62
    5
 10
1208.9842118470297
 20
394.30478165971658
 40
22.5
  0
LINE
  8
_0-0_
  6
CONTINUOUS
 62
    7
 10
1016.1573471958637
 20
479.10963553181978
 11
935.95415625436556
 21
618.0256371716448
  0
POINT
  8
_0-0_
 62
    7
 10
1016.1573471958637
 20
479.10963553181978
  0
TEXT
  8
_0-0_
 62
    7
 10
1488.0585199438374
 20
515.53037135635782
 40
30
 41
1
 50
0
  1
ﾌﾟﾗｲﾏｰ
  0
LINE
  8
_0-0_
  6
CONTINUOUS
 62
    4
 10
848.98421184702977
 20
494.86685635587787
 11
1568.9842118470297
 21
494.86685635587787
  0
LINE
  8
_0-0_
  6
CONTINUOUS
 62
    3
 10
848.98421184702977
 20
474.61685635587787
 11
1568.9842118470297
 21
474.61685635587787
  0
LINE
  8
_0-0_
  6
CONTINUOUS
 62
    7
 10
1329.27844048109
 20
465.61685635587787
 11
1419.4307048997634
 21
621.76515874640222
  0
POINT
  8
_0-0_
 62
    7
 10
1329.27844048109
 20
465.61685635587787
  0
TEXT
  8
_0-0_
 62
    7
 10
1423.4530985406291
 20
609.70892277374082
 40
30
 41
1
 50
0
  1
通気緩衝ｼｰﾄ
  0
LINE
  8
_0-0_
  6
CONTINUOUS
 62
    7
 10
1206.2842424501978
 20
390.29603394242554
 11
1399.1151918800915
 21
724.28903562674464
  0
TEXT
  8
_0-0_
 62
    7
 10
1406.2049373056252
 20
706.49027192570816
 40
30
 41
1
 50
0
  1
ﾊﾞｯｸｱｯﾌﾟ材
  0
LINE
  8
_0-0_
  6
CONTINUOUS
 62
    7
 10
947.70441162781947
 20
494.86685635587787
 11
915.63811782866298
 21
550.40730642644871
  0
POINT
  8
_0-0_
 62
    7
 10
947.70441162781947
 20
494.86685635587787
  0
TEXT
  8
_0-0_
 62
    7
 10
808.03133245046058
 20
539.00877301364221
 40
30
 41
1
 50
0
  1
ﾄｯﾌﾟｺｰﾄ
  0
TEXT
  8
_0-0_
 62
    7
 10
1422.8431584338778
 20
1297.9415444418707
 40
30
 41
1
 50
0
  1
ﾀﾞｲﾜﾃｰﾌﾟ
  0
TEXT
  8
_0-0_
 62
    7
 10
1438.7791789140301
 20
1264.6207743470047
 40
30
 41
1
 50
0
  1
＋ｳﾚﾀﾝ増塗り
  0
LINE
  8
_0-0_
  6
CONTINUOUS
 62
    7
 10
1208.9675632230083
 20
447.46258322375684
 11
1064.4145502423696
 21
697.83574609338814
  0
TEXT
  8
_0-0_
 62
    7
 10
815.81740976645438
 20
687.44161358811039
 40
30
 41
1
 50
0
  1
ｼｰﾘﾝｸﾞまたはﾓﾙﾀﾙ
  0
TEXT
  8
_0-0_
 62
    7
 10
696.13606690525205
 20
1577.3565543671132
 40
30
 41
1
 50
0
  1
図面番号：meji-pc
  0
ENDSEC
  0
EOF
