  0
SECTION
  2
HEADER
  9
$ACADVER
  1
AC1009
  9
$INSBASE
 10
0
 20
0
 30
0
  9
$EXTMIN
 10
0
 20
0
  9
$EXTMAX
 10
2378
 20
1682
  9
$LIMMIN
 10
0
 20
0
  9
$LIMMAX
 10
2378
 20
1682
  9
$LTSCALE
 40
1
  0
ENDSEC
  0
SECTION
  2
TABLES
  0
TABLE
  2
LTYPE
 70
     9
  0
LTYPE
  2
CONTINUOUS
 70
    64
  3
実線
 72
    65
 73
     0
 40
0.0
  0
LTYPE
  2
DASHED1
 70
    64
  3
--  --  --  --  --  --  --  --  
 72
    65
 73
     2
 40
2.5
 49
1.25
 49
-1.25
  0
LTYPE
  2
DASHED2
 70
    64
  3
----    ----    ----    ----    
 72
    65
 73
     2
 40
5.0
 49
2.5
 49
-2.5
  0
LTYPE
  2
DASHED3
 70
    64
  3
------  ------  ------  ------  
 72
    65
 73
     2
 40
5.0
 49
3.75
 49
-1.25
  0
LTYPE
  2
CENTER1
 70
    64
  3
----- - ----- - ----- - ----- - 
 72
    65
 73
     4
 40
10.0
 49
6.25
 49
-1.25
 49
1.25
 49
-1.25
  0
LTYPE
  2
CENTER2
 70
    64
  3
----------  --  ----------  --  
 72
    65
 73
     4
 40
20.0
 49
12.5
 49
-2.5
 49
2.5
 49
-2.5
  0
LTYPE
  2
PHANTOM1
 70
    64
  3
--- - - --- - - --- - - --- - - 
 72
    65
 73
     6
 40
10.0
 49
3.25
 49
-1.25
 49
1.25
 49
-1.25
 49
1.25
 49
-1.25
  0
LTYPE
  2
PHANTOM2
 70
    64
  3
--------  -  -  --------  -  -  
 72
    65
 73
     6
 40
20.0
 49
10.0
 49
-2.5
 49
1.25
 49
-2.5
 49
1.25
 49
-2.5
  0
LTYPE
  2
DOT
 70
    64
  3
-   -   -   -   -   -   -   -   
 72
    65
 73
     2
 40
2.5
 49
0.625
 49
-1.875
  0
LTYPE
  2
DUMMY
 70
    64
  3
ダミー
 72
    65
 73
     0
 40
0.0
  0
LTYPE
  2
RAND1
 70
    64
  3
ランダム線1
 72
    65
 73
     4
 40
10.0
 49
1.0
 49
-2.0
 49
3.0
 49
-4.0
  0
LTYPE
  2
RAND2
 70
    64
  3
ランダム線2
 72
    65
 73
     4
 40
14.0
 49
2.0
 49
-3.0
 49
4.0
 49
-5.0
  0
LTYPE
  2
RAND3
 70
    64
  3
ランダム線3
 72
    65
 73
     4
 40
18.0
 49
3.0
 49
-4.0
 49
5.0
 49
-6.0
  0
LTYPE
  2
RAND4
 70
    64
  3
ランダム線4
 72
    65
 73
     4
 40
22.0
 49
4.0
 49
-5.0
 49
6.0
 49
-7.0
  0
LTYPE
  2
RAND5
 70
    64
  3
ランダム線5
 72
    65
 73
     4
 40
26.0
 49
5.0
 49
-6.0
 49
7.0
 49
-8.0
  0
LTYPE
  2
LONG1
 70
    64
  3
----------  --  ----------  --  
 72
    65
 73
     4
 40
40.0
 49
32.5
 49
-2.5
 49
2.5
 49
-2.5
  0
LTYPE
  2
LONG2
 70
    64
  3
--------  -  -  --------  -  -  
 72
    65
 73
     6
 40
40.0
 49
30.0
 49
-2.5
 49
1.25
 49
-2.5
 49
1.25
 49
-2.5
  0
LTYPE
  2
LONG3
 70
    64
  3
+++++++++++++++..+++++++++++++++
 72
    65
 73
     2
 40
40.0
 49
37.5
 49
-2.5
  0
LTYPE
  2
LONG4
 70
    64
  3
+++++++++++++++..+++++++++++++++
 72
    65
 73
     2
 40
80.0
 49
75.0
 49
-5.0
  0
LTYPE
  2
LONG5
 70
    64
  3
----------  --  ----------  --  
 72
    65
 73
     4
 40
60.0
 49
37.5
 49
-7.5
 49
7.5
 49
-7.5
  0
LTYPE
  2
dashed
 70
   64
  3
-------   -------------   ------
 72
   65
 73
    2
 40
7.5
 49
6
 49
-1.5
  0
LTYPE
  2
dashed_spaced
 70
   64
  3
----        --------        ----
 72
   65
 73
    2
 40
12
 49
6
 49
-6
  0
LTYPE
  2
long_dashed_dotted
 70
   64
  3
------------- --- --------------
 72
   65
 73
    4
 40
15.25
 49
12
 49
-1.5
 49
0.25
 49
-1.5
  0
LTYPE
  2
long_dashed_double-dotted
 70
   64
  3
----------- --- --- ------------
 72
   65
 73
    6
 40
17
 49
12
 49
-1.5
 49
0.25
 49
-1.5
 49
0.25
 49
-1.5
  0
LTYPE
  2
long_dashed_triplicate-dotted
 70
   64
  3
--------- --- --- --- ----------
 72
   65
 73
    8
 40
18.75
 49
12
 49
-1.5
 49
0.25
 49
-1.5
 49
0.25
 49
-1.5
 49
0.25
 49
-1.5
  0
LTYPE
  2
dotted
 70
   64
  3
   -       -       -       -    
 72
   65
 73
    2
 40
1.75
 49
0.25
 49
-1.5
  0
LTYPE
  2
chain
 70
   64
  3
-------------- -- --------------
 72
   65
 73
    4
 40
18.5
 49
12
 49
-1.5
 49
3.5
 49
-1.5
  0
LTYPE
  2
chain_double_dash
 70
   64
  3
------------ -- -- -------------
 72
   65
 73
    6
 40
23.5
 49
12
 49
-1.5
 49
3.5
 49
-1.5
 49
3.5
 49
-1.5
  0
LTYPE
  2
dashed_dotted
 70
   64
  3
-----------     -     ----------
 72
   65
 73
    4
 40
9.25
 49
6
 49
-1.5
 49
0.25
 49
-1.5
  0
LTYPE
  2
double-dashed_dotted
 70
   64
  3
------   -----------   -   -----
 72
   65
 73
    6
 40
16.75
 49
6
 49
-1.5
 49
6
 49
-1.5
 49
0.25
 49
-1.5
  0
LTYPE
  2
dashed_double-dotted
 70
   64
  3
---------    -    -    ---------
 72
   65
 73
    6
 40
11
 49
6
 49
-1.5
 49
0.25
 49
-1.5
 49
0.25
 49
-1.5
  0
LTYPE
  2
double-dashed_double-dotted
 70
   64
  3
-----   ---------   -   -   ----
 72
   65
 73
    8
 40
18.5
 49
6
 49
-1.5
 49
6
 49
-1.5
 49
0.25
 49
-1.5
 49
0.25
 49
-1.5
  0
LTYPE
  2
dashed_triplicate-dotted
 70
   64
  3
-------    -    -    -    ------
 72
   65
 73
    8
 40
12.75
 49
6
 49
-1.5
 49
0.25
 49
-1.5
 49
0.25
 49
-1.5
 49
0.25
 49
-1.5
  0
LTYPE
  2
double-dashed_triplicate-dotted
 70
   64
  3
-----  ---------  -  -  -  -----
 72
   65
 73
   10
 40
20.25
 49
6
 49
-1.5
 49
6
 49
-1.5
 49
0.25
 49
-1.5
 49
0.25
 49
-1.5
 49
0.25
 49
-1.5
  0
LTYPE
  2
undefined
 70
   64
  3
--------------------------------
 72
   65
 73
    0
 40
0
  0
ENDTAB
  0
TABLE
  2
STYLE
  5
3
100
AcDbSymbolTable
 70
     1
  0
STYLE
  5
10
100
AcDbSymbolTableRecord
100
AcDbTextStyleTableRecord
  2
STANDARD
 70
     0
 40
0.0
 41
1.0
 50
0.0
 71
     0
 42
0.2
  3
txt
  4
bigfont.shx
  0
STYLE
  5
26
100
AcDbSymbolTableRecord
100
AcDbTextStyleTableRecord
  2
TATEGAKI
 70
    68
 40
0.0
 41
1.0
 50
0.0
 71
     0
 42
1.0
  3
txt
  4
bigfont.shx
  0
ENDTAB
  0
TABLE
  2
LAYER
 70
    2
  0
LAYER
  2
_0-0_
 70
   64
 62
    7
  6
CONTINUOUS
  0
LAYER
  2
ADD_LINE
 70
   64
 62
    7
  6
CONTINUOUS
  0
ENDTAB
  0
ENDSEC
  0
SECTION
  2
BLOCKS
  0
ENDSEC
  0
SECTION
  2
ENTITIES
  0
LINE
  8
_0-0_
  6
CONTINUOUS
 62
    7
 10
672.13606690525205
 20
1633.3565543671114
 11
672.13606690525205
 21
167.53106997205509
  0
LINE
  8
_0-0_
  6
CONTINUOUS
 62
    7
 10
672.13606690525205
 20
167.53106997205509
 11
1706.8525777203686
 21
167.53106997205509
  0
LINE
  8
_0-0_
  6
CONTINUOUS
 62
    7
 10
672.13606690525205
 20
1633.3565543671132
 11
672.13606690525205
 21
167.53106997205509
  0
LINE
  8
_0-0_
  6
CONTINUOUS
 62
    7
 10
1706.8525777203686
 20
1633.3565543671132
 11
1706.8525777203686
 21
167.53106997205509
  0
LINE
  8
_0-0_
  6
CONTINUOUS
 62
    7
 10
672.13606690525205
 20
1633.3565543671132
 11
1706.8525777203686
 21
1633.3565543671132
  0
LINE
  8
_0-0_
  6
CONTINUOUS
 62
    7
 10
672.13606690525205
 20
1553.3565543671132
 11
1706.8525777203686
 21
1553.3565543671132
  0
LINE
  8
_0-0_
  6
CONTINUOUS
 62
    7
 10
672.13606690525205
 20
1473.3565543671132
 11
1706.8525777203686
 21
1473.3565543671132
  0
LINE
  8
_0-0_
  6
CONTINUOUS
 62
    7
 10
1189.4943223128103
 20
1633.3565543671132
 11
1189.4943223128103
 21
1473.3565543671132
  0
TEXT
  8
_0-0_
 62
    7
 10
1213.4943223128103
 20
1577.3565543671132
 40
30
 41
1
 50
0
  1
構造：Ｓ造
  0
TEXT
  8
_0-0_
 62
    7
 10
696.13606690525205
 20
1497.3565543671132
 40
30
 41
1
 50
0
  1
施工部位：ＡＬＣ目地
  0
TEXT
  8
_0-0_
 62
    7
 10
1213.4943223128103
 20
1497.3565543671132
 40
30
 41
1
 50
0
  1
下地：ＡＬＣ板
  0
LINE
  8
_0-0_
  6
CONTINUOUS
 62
    7
 10
1164.9011937432142
 20
911.47566073499354
 11
1188.766047608261
 21
887.61080686994762
  0
LINE
  8
_0-0_
  6
CONTINUOUS
 62
    7
 10
1257.630901473306
 20
911.47566073499354
 11
1233.766047608261
 21
887.61080686994762
  0
POINT
  8
_0-0_
 62
    7
 10
1209.9807374784041
 20
895.81999967671516
  0
POINT
  8
_0-0_
 62
    7
 10
1218.717125952372
 20
889.43571579189108
  0
POINT
  8
_0-0_
 62
    7
 10
1197.548184650067
 20
880.69932731792494
  0
POINT
  8
_0-0_
 62
    7
 10
1227.7895293676474
 20
895.81999967671516
  0
POINT
  8
_0-0_
 62
    7
 10
1225.1014098371988
 20
875.3230882570241
  0
POINT
  8
_0-0_
 62
    7
 10
1202.7115095705949
 20
899.85029477645719
  0
POINT
  8
_0-0_
 62
    7
 10
1194.3934125936548
 20
892.11253014674901
  0
POINT
  8
_0-0_
 62
    7
 10
1202.5180654548485
 20
882.63376847535244
  0
POINT
  8
_0-0_
 62
    7
 10
1218.5739270615004
 20
885.34198609575276
  0
POINT
  8
_0-0_
 62
    7
 10
1213.5443800521871
 20
904.29950943854226
  0
POINT
  8
_0-0_
 62
    7
 10
1228.2461328486397
 20
906.62083882745435
  0
POINT
  8
_0-0_
 62
    7
 10
1229.6002416588353
 20
890.17808898931787
  0
POINT
  8
_0-0_
 62
    7
 10
1229.6002416588353
 20
877.60422146604003
  0
POINT
  8
_0-0_
 62
    7
 10
1227.0854681541814
 20
883.02065670683703
  0
POINT
  8
_0-0_
 62
    7
 10
1218.9608152929841
 20
877.41077735029819
  0
POINT
  8
_0-0_
 62
    7
 10
1209.8689418530712
 20
880.31243908644035
  0
POINT
  8
_0-0_
 62
    7
 10
1205.6131713067343
 20
892.11253014674901
  0
POINT
  8
_0-0_
 62
    7
 10
1197.1016302140515
 20
884.37476551703719
  0
POINT
  8
_0-0_
 62
    7
 10
1227.0987983978639
 20
879.09879839786379
  0
POINT
  8
_0-0_
 62
    7
 10
1209.9807374784041
 20
857.97737893569217
  0
POINT
  8
_0-0_
 62
    7
 10
1218.717125952372
 20
851.59309505086856
  0
POINT
  8
_0-0_
 62
    7
 10
1197.548184650067
 20
842.85670657690241
  0
POINT
  8
_0-0_
 62
    7
 10
1227.7895293676474
 20
857.97737893569217
  0
POINT
  8
_0-0_
 62
    7
 10
1225.1014098371988
 20
837.48046751600111
  0
POINT
  8
_0-0_
 62
    7
 10
1202.7115095705949
 20
862.00767403543466
  0
POINT
  8
_0-0_
 62
    7
 10
1194.3934125936548
 20
854.26990940572648
  0
POINT
  8
_0-0_
 62
    7
 10
1202.5180654548485
 20
844.79114773432946
  0
POINT
  8
_0-0_
 62
    7
 10
1218.5739270615004
 20
847.49936535472978
  0
POINT
  8
_0-0_
 62
    7
 10
1213.5443800521871
 20
866.45688869751973
  0
POINT
  8
_0-0_
 62
    7
 10
1228.2461328486397
 20
868.77821808643137
  0
POINT
  8
_0-0_
 62
    7
 10
1229.6002416588353
 20
852.33546824829534
  0
POINT
  8
_0-0_
 62
    7
 10
1229.6002416588353
 20
839.7616007250175
  0
POINT
  8
_0-0_
 62
    7
 10
1227.0854681541814
 20
845.17803596581405
  0
POINT
  8
_0-0_
 62
    7
 10
1218.9608152929841
 20
839.56815660927521
  0
POINT
  8
_0-0_
 62
    7
 10
1209.8689418530712
 20
842.46981834541782
  0
POINT
  8
_0-0_
 62
    7
 10
1205.6131713067343
 20
854.26990940572648
  0
POINT
  8
_0-0_
 62
    7
 10
1197.1016302140515
 20
846.53214477601421
  0
POINT
  8
_0-0_
 62
    7
 10
1227.0987983978639
 20
841.25617765684126
  0
POINT
  8
_0-0_
 62
    7
 10
1207.1205393991395
 20
815.29442298360834
  0
POINT
  8
_0-0_
 62
    7
 10
1215.8569278731056
 20
808.91013909878473
  0
POINT
  8
_0-0_
 62
    7
 10
1194.6879865708024
 20
800.17375062481858
  0
POINT
  8
_0-0_
 62
    7
 10
1224.9293312883829
 20
815.29442298360834
  0
POINT
  8
_0-0_
 62
    7
 10
1222.2412117579343
 20
794.79751156391728
  0
POINT
  8
_0-0_
 62
    7
 10
1199.8513114913303
 20
819.32471808335083
  0
POINT
  8
_0-0_
 62
    7
 10
1191.5332145143902
 20
811.58695345364265
  0
POINT
  8
_0-0_
 62
    7
 10
1199.6578673755839
 20
802.10819178224563
  0
POINT
  8
_0-0_
 62
    7
 10
1215.713728982234
 20
804.81640940264595
  0
POINT
  8
_0-0_
 62
    7
 10
1210.6841819729225
 20
823.7739327454359
  0
POINT
  8
_0-0_
 62
    7
 10
1225.3859347693733
 20
826.09526213434754
  0
POINT
  8
_0-0_
 62
    7
 10
1226.7400435795689
 20
809.65251229621151
  0
POINT
  8
_0-0_
 62
    7
 10
1226.7400435795689
 20
797.07864477293367
  0
POINT
  8
_0-0_
 62
    7
 10
1224.2252700749168
 20
802.49508001373022
  0
POINT
  8
_0-0_
 62
    7
 10
1216.1006172137195
 20
796.88520065719138
  0
POINT
  8
_0-0_
 62
    7
 10
1207.0087437738066
 20
799.78686239333399
  0
POINT
  8
_0-0_
 62
    7
 10
1202.7529732274679
 20
811.58695345364265
  0
POINT
  8
_0-0_
 62
    7
 10
1194.2414321347869
 20
803.84918882393038
  0
POINT
  8
_0-0_
 62
    7
 10
1224.2386003185993
 20
798.57322170475743
  0
POINT
  8
_0-0_
 62
    7
 10
1208.8806612940762
 20
773.05149750525823
  0
POINT
  8
_0-0_
 62
    7
 10
1217.6170497680405
 20
766.66721362043506
  0
POINT
  8
_0-0_
 62
    7
 10
1196.4481084657336
 20
757.93082514646892
  0
POINT
  8
_0-0_
 62
    7
 10
1226.6894531833141
 20
773.05149750525823
  0
POINT
  8
_0-0_
 62
    7
 10
1224.0013336528618
 20
752.55458608556717
  0
POINT
  8
_0-0_
 62
    7
 10
1201.6114333862579
 20
777.08179260500117
  0
POINT
  8
_0-0_
 62
    7
 10
1193.2933364093178
 20
769.34402797529299
  0
POINT
  8
_0-0_
 62
    7
 10
1201.4179892705188
 20
759.86526630389551
  0
POINT
  8
_0-0_
 62
    7
 10
1217.473850877167
 20
762.57348392429583
  0
POINT
  8
_0-0_
 62
    7
 10
1212.4443038678537
 20
781.53100726708624
  0
POINT
  8
_0-0_
 62
    7
 10
1227.1460566643045
 20
783.85233665599742
  0
POINT
  8
_0-0_
 62
    7
 10
1228.5001654745056
 20
767.40958681786185
  0
POINT
  8
_0-0_
 62
    7
 10
1228.5001654745056
 20
754.83571929458401
  0
POINT
  8
_0-0_
 62
    7
 10
1225.985391969848
 20
760.2521545353801
  0
POINT
  8
_0-0_
 62
    7
 10
1217.8607391086507
 20
754.64227517884126
  0
POINT
  8
_0-0_
 62
    7
 10
1208.7688656687433
 20
757.54393691498433
  0
POINT
  8
_0-0_
 62
    7
 10
1204.5130951223991
 20
769.34402797529299
  0
POINT
  8
_0-0_
 62
    7
 10
1196.0015540297181
 20
761.60626334558026
  0
POINT
  8
_0-0_
 62
    7
 10
1198.2634721246804
 20
829.33693891143309
  0
POINT
  8
_0-0_
 62
    7
 10
1204.8639292306716
 20
835.05733506996
  0
POINT
  8
_0-0_
 62
    7
 10
1212.3444472841302
 20
830.6570303326306
  0
POINT
  8
_0-0_
 62
    7
 10
1194.3031978610861
 20
868.05962059991987
  0
POINT
  8
_0-0_
 62
    7
 10
1199.1435330721442
 20
874.22004723218049
  0
POINT
  8
_0-0_
 62
    7
 10
1204.4238987569397
 20
864.53937681005834
  0
POINT
  8
_0-0_
 62
    7
 10
1206.1840206518709
 20
871.57986438978321
  0
POINT
  8
_0-0_
 62
    7
 10
1218.9449043901213
 20
818.33617706811117
  0
POINT
  8
_0-0_
 62
    7
 10
1195.1832588085499
 20
789.73419627547889
  0
POINT
  8
_0-0_
 62
    7
 10
1196.0633197560173
 20
781.81364774828842
  0
POINT
  8
_0-0_
 62
    7
 10
1208.8242034942677
 20
790.6142572229445
  0
POINT
  8
_0-0_
 62
    7
 10
1219.3849348638569
 20
788.41410485428094
  0
POINT
  8
_0-0_
 62
    7
 10
1221.58508723252
 20
774.33312969482984
  0
POINT
  8
_0-0_
 62
    7
 10
1174.9418570168409
 20
907.66236323587407
  0
POINT
  8
_0-0_
 62
    7
 10
1186.8226798076275
 20
906.34227181467656
  0
POINT
  8
_0-0_
 62
    7
 10
1198.2634721246804
 20
907.22233276214217
  0
POINT
  8
_0-0_
 62
    7
 10
1194.3031978610861
 20
902.82202802481322
  0
POINT
  8
_0-0_
 62
    7
 10
1183.7424664914952
 20
901.06190612988109
  0
POINT
  8
_0-0_
 62
    7
 10
1188.5828017025588
 20
895.78154044508835
  0
POINT
  8
_0-0_
 62
    7
 10
1192.5430759661549
 20
897.54166234002003
  0
POINT
  8
_0-0_
 62
    7
 10
1200.0235940196117
 20
895.34150997135464
  0
POINT
  8
_0-0_
 62
    7
 10
1205.3039597044035
 20
903.70208897227883
  0
POINT
  8
_0-0_
 62
    7
 10
1219.8249653375888
 20
908.10239370960596
  0
POINT
  8
_0-0_
 62
    7
 10
1222.0251177062519
 20
901.06190612988109
  0
POINT
  8
_0-0_
 62
    7
 10
1216.3047215477245
 20
896.22157091882025
  0
POINT
  8
_0-0_
 62
    7
 10
1212.7844777578621
 20
887.42096144416416
  0
POINT
  8
_0-0_
 62
    7
 10
1222.9051786537157
 20
894.02141855015668
  0
POINT
  8
_0-0_
 62
    7
 10
1233.9059404970385
 20
899.30178423494988
  0
POINT
  8
_0-0_
 62
    7
 10
1238.3062452343647
 20
906.78230228840846
  0
POINT
  8
_0-0_
 62
    7
 10
1247.1068547090226
 20
907.66236323587407
  0
POINT
  8
_0-0_
 62
    7
 10
1241.826489024229
 20
904.58214991974444
  0
POINT
  8
_0-0_
 62
    7
 10
1240.9464280767652
 20
897.98169281375192
  0
POINT
  8
_0-0_
 62
    7
 10
1235.2260319182378
 20
893.14135760269062
  0
POINT
  8
_0-0_
 62
    7
 10
1234.3459709707704
 20
901.50193660361526
  0
POINT
  8
_0-0_
 62
    7
 10
1220.1812366594831
 20
862.69785517601701
  0
POINT
  8
_0-0_
 62
    7
 10
1220.1812366594831
 20
871.19174099606232
  0
POINT
  8
_0-0_
 62
    7
 10
1223.9562970239467
 20
861.75409008490112
  0
POINT
  8
_0-0_
 62
    7
 10
1193.2839315626816
 20
836.74431517032815
  0
POINT
  8
_0-0_
 62
    7
 10
1192.8120490171232
 20
824.00348644026315
  0
POINT
  8
_0-0_
 62
    7
 10
1204.6091126560723
 20
827.30666425916922
  0
POINT
  8
_0-0_
 62
    7
 10
1220.1812366594831
 20
831.08172462363279
  0
POINT
  8
_0-0_
 62
    7
 10
1230.0907701162005
 20
818.81277843912619
  0
POINT
  8
_0-0_
 62
    7
 10
1229.1470050250837
 20
832.49737226030618
  0
POINT
  8
_0-0_
 62
    7
 10
1229.1470050250837
 20
791.44359079676303
  0
POINT
  8
_0-0_
 62
    7
 10
1221.5968842961565
 20
782.94970497671773
  0
POINT
  8
_0-0_
 62
    7
 10
1213.1029984761144
 20
769.26511115553774
  0
POINT
  8
_0-0_
 62
    7
 10
1210.2717032027658
 20
763.60252060884238
  0
POINT
  8
_0-0_
 62
    7
 10
1203.1934650193971
 20
785.7810002500654
  0
POINT
  8
_0-0_
 62
    7
 10
1202.2496999282821
 20
795.69053370678455
  0
POINT
  8
_0-0_
 62
    7
 10
1208.8560555660924
 20
807.01571480017526
  0
LINE
  8
_0-0_
  6
CONTINUOUS
 62
    7
 10
858.66910091133548
 20
686.47566073499354
 11
1083.6691009113356
 21
911.47566073499172
  0
LINE
  8
_0-0_
  6
CONTINUOUS
 62
    7
 10
874.57900348803457
 20
686.47566073499354
 11
1099.5790034880347
 21
911.47566073499172
  0
LINE
  8
_0-0_
  6
CONTINUOUS
 62
    7
 10
1188.766047608261
 20
887.61080686994762
 11
1188.766047608261
 21
686.47566073499354
  0
LINE
  8
_0-0_
  6
CONTINUOUS
 62
    7
 10
1233.766047608261
 20
887.61080686994762
 11
1233.766047608261
 21
686.47566073499354
  0
LINE
  8
_0-0_
  6
CONTINUOUS
 62
    7
 10
1164.9011937432142
 20
911.47566073499354
 11
851.26604760826092
 21
911.47566073499354
  0
LINE
  8
_0-0_
  6
CONTINUOUS
 62
    7
 10
1257.630901473306
 20
911.47566073499354
 11
1571.266047608261
 21
911.47566073499354
  0
LINE
  8
_0-0_
  6
CONTINUOUS
 62
    3
 10
1571.266047608261
 20
931.72566073499354
 11
851.26604760826092
 21
931.72566073499354
  0
LINE
  8
_0-0_
  6
CONTINUOUS
 62
    4
 10
1571.266047608261
 20
951.97566073499354
 11
851.26604760826092
 21
951.97566073499354
  0
LINE
  8
_0-0_
  6
CONTINUOUS
 62
    7
 10
851.26604760826092
 20
911.47566073499354
 11
1571.266047608261
 21
911.47566073499354
  0
LINE
  8
_0-0_
  6
CONTINUOUS
 62
    7
 10
1367.7859833656485
 20
686.47566073499354
 11
1571.266047608261
 21
889.95572497760611
  0
LINE
  8
_0-0_
  6
CONTINUOUS
 62
    7
 10
1383.6958859423457
 20
686.47566073499354
 11
1571.266047608261
 21
874.0458224009061
  0
POINT
  8
_0-0_
 62
    7
 10
1085.7249662249278
 20
931.72566073499354
  0
POINT
  8
_0-0_
 62
    7
 10
1192.0872362573
 20
908.04682223839552
  0
LINE
  8
_0-0_
  6
CONTINUOUS
 62
    7
 10
1334.7333415916519
 20
916.12946376381331
 11
1397.8689202433188
 21
1025.4834937537603
  0
POINT
  8
_0-0_
 62
    7
 10
1334.7333415916519
 20
916.12946376381331
  0
TEXT
  8
_0-0_
 62
    7
 10
1404.2813714366703
 20
1009.2168267871456
 40
30
 41
1
 50
0
  1
ﾎﾟﾘﾏｰｾﾒﾝﾄﾓﾙﾀﾙ
  0
TEXT
  8
_0-0_
 62
    7
 10
1395.7216139172824
 20
1072.3450384926236
 40
30
 41
1
 50
0
  1
ﾌﾟﾗｲﾏｰ
  0
LINE
  8
_0-0_
  6
CONTINUOUS
 62
    7
 10
1297.3961903223872
 20
918.22566073499354
 11
1393.7555882184561
 21
1085.1250336777302
  0
LINE
  8
_0-0_
  6
CONTINUOUS
 62
    7
 10
1571.266047608261
 20
918.22566073499354
 11
851.26604760826092
 21
918.22566073499354
  0
POINT
  8
_0-0_
 62
    7
 10
1297.3961903223872
 20
918.22566073499354
  0
LINE
  8
_0-0_
  6
CONTINUOUS
 62
    7
 10
1210.0475192166768
 20
891.42048166691973
 11
1346.8422960159014
 21
1128.3559852932199
  0
POINT
  8
_0-0_
 62
    7
 10
1210.0475192166768
 20
891.42048166691973
  0
LINE
  8
_0-0_
  6
CONTINUOUS
 62
    7
 10
1183.8998319983775
 20
929.0406612974333
 11
1054.9502629265835
 21
1152.3878665438924
  0
POINT
  8
_0-0_
 62
    7
 10
1183.8998319983775
 20
929.0406612974333
  0
LINE
  8
_0-0_
  6
CONTINUOUS
 62
    7
 10
1108.3615077840177
 20
943.93554212843389
 11
1027.9088183575814
 21
1083.2836878205817
  0
POINT
  8
_0-0_
 62
    7
 10
1108.3615077840177
 20
943.93554212843389
  0
LINE
  8
_0-0_
  6
CONTINUOUS
 62
    7
 10
1011.5447823825133
 20
951.97566073499354
 11
969.59482775863114
 21
1024.635113518766
  0
POINT
  8
_0-0_
 62
    7
 10
1011.5447823825133
 20
951.97566073499354
  0
TEXT
  8
_0-0_
 62
    7
 10
1350.9352813174564
 20
1114.1627516255844
 40
30
 41
1
 50
0
  1
ﾓﾙﾀﾙ
  0
TEXT
  8
_0-0_
 62
    7
 10
858.399967580105
 20
1010.6657075045149
 40
30
 41
1
 50
0
  1
ﾄｯﾌﾟｺｰﾄ
  0
TEXT
  8
_0-0_
 62
    7
 10
884.66897828553272
 20
1146.6464688031979
 40
30
 41
1
 50
0
  1
通気緩衝ｼｰﾄ
  0
TEXT
  8
_0-0_
 62
    7
 10
903.21180937171528
 20
1073.2477624203862
 40
30
 41
1
 50
0
  1
ｳﾚﾀﾝ防水
  0
POINT
  8
_0-0_
 62
    7
 10
1225.2002847868871
 20
755.60644838000496
  0
POINT
  8
_0-0_
 62
    7
 10
1229.6991166085218
 20
757.88758158902135
  0
POINT
  8
_0-0_
 62
    7
 10
1219.0596902426705
 20
757.69413747327906
  0
POINT
  8
_0-0_
 62
    7
 10
1207.2194143488277
 20
733.42040384761219
  0
POINT
  8
_0-0_
 62
    7
 10
1215.9558028227921
 20
727.03611996278858
  0
POINT
  8
_0-0_
 62
    7
 10
1194.7868615204907
 20
718.29973148882243
  0
POINT
  8
_0-0_
 62
    7
 10
1225.0282062380693
 20
733.42040384761219
  0
POINT
  8
_0-0_
 62
    7
 10
1222.3400867076207
 20
712.92349242792113
  0
POINT
  8
_0-0_
 62
    7
 10
1199.9501864410167
 20
737.45069894735468
  0
POINT
  8
_0-0_
 62
    7
 10
1191.6320894640785
 20
729.7129343176465
  0
POINT
  8
_0-0_
 62
    7
 10
1199.7567423252704
 20
720.23417264624948
  0
POINT
  8
_0-0_
 62
    7
 10
1215.8126039319222
 20
722.9423902666498
  0
POINT
  8
_0-0_
 62
    7
 10
1210.7830569226107
 20
741.89991360943975
  0
POINT
  8
_0-0_
 62
    7
 10
1225.4848097190597
 20
744.22124299835139
  0
POINT
  8
_0-0_
 62
    7
 10
1226.8389185292572
 20
727.77849316021536
  0
POINT
  8
_0-0_
 62
    7
 10
1226.8389185292572
 20
715.20462563693752
  0
POINT
  8
_0-0_
 62
    7
 10
1224.3241450246032
 20
720.62106087773407
  0
POINT
  8
_0-0_
 62
    7
 10
1216.1994921634077
 20
715.01118152119523
  0
POINT
  8
_0-0_
 62
    7
 10
1207.1076187234949
 20
717.91284325733784
  0
POINT
  8
_0-0_
 62
    7
 10
1202.8518481771544
 20
729.7129343176465
  0
POINT
  8
_0-0_
 62
    7
 10
1194.3403070844734
 20
721.97516968793423
  0
POINT
  8
_0-0_
 62
    7
 10
1224.3374752682876
 20
716.69920256876128
  0
POINT
  8
_0-0_
 62
    7
 10
1208.9795362437626
 20
691.17747836926208
  0
POINT
  8
_0-0_
 62
    7
 10
1226.7883281330005
 20
691.17747836926208
  0
POINT
  8
_0-0_
 62
    7
 10
1201.7103083359443
 20
695.20777346900502
  0
POINT
  8
_0-0_
 62
    7
 10
1212.543178817542
 20
699.65698813109009
  0
POINT
  8
_0-0_
 62
    7
 10
1227.2449316139928
 20
701.97831752000127
  0
POINT
  8
_0-0_
 62
    7
 10
1198.3623470743669
 20
747.46291977543694
  0
POINT
  8
_0-0_
 62
    7
 10
1204.9628041803599
 20
753.18331593396385
  0
POINT
  8
_0-0_
 62
    7
 10
1212.4433222338166
 20
748.78301119663445
  0
POINT
  8
_0-0_
 62
    7
 10
1219.0437793398096
 20
736.46215793211502
  0
POINT
  8
_0-0_
 62
    7
 10
1195.2821337582363
 20
707.86017713948274
  0
POINT
  8
_0-0_
 62
    7
 10
1196.1621947057038
 20
699.93962861229227
  0
POINT
  8
_0-0_
 62
    7
 10
1208.9230784439542
 20
708.74023808694835
  0
POINT
  8
_0-0_
 62
    7
 10
1219.4838098135451
 20
706.54008571828479
  0
POINT
  8
_0-0_
 62
    7
 10
1221.6839621822082
 20
692.45911055883369
  0
POINT
  8
_0-0_
 62
    7
 10
1193.382806512368
 20
754.870296034332
  0
POINT
  8
_0-0_
 62
    7
 10
1192.9109239668114
 20
742.129467304267
  0
POINT
  8
_0-0_
 62
    7
 10
1204.7079876057587
 20
745.43264512317307
  0
POINT
  8
_0-0_
 62
    7
 10
1220.2801116091696
 20
749.20770548763664
  0
POINT
  8
_0-0_
 62
    7
 10
1230.1896450658869
 20
736.93875930313004
  0
POINT
  8
_0-0_
 62
    7
 10
1229.2458799747719
 20
750.62335312431003
  0
POINT
  8
_0-0_
 62
    7
 10
1229.2458799747719
 20
709.56957166076688
  0
POINT
  8
_0-0_
 62
    7
 10
1221.6957592458448
 20
701.07568584072158
  0
POINT
  8
_0-0_
 62
    7
 10
1213.2018734258027
 20
687.39109201954159
  0
POINT
  8
_0-0_
 62
    7
 10
1203.2923399690853
 20
703.90698111406925
  0
POINT
  8
_0-0_
 62
    7
 10
1202.3485748779685
 20
713.8165145707884
  0
POINT
  8
_0-0_
 62
    7
 10
1208.9549305157789
 20
725.14169566417911
  0
TEXT
  8
_0-0_
 62
    7
 10
696.13606690525216
 20
1577.3565543671132
 40
30
 41
1
 50
0
  1
番号：meji-alc
  0
ENDSEC
  0
EOF
