  0
SECTION
  2
HEADER
  9
$ACADVER
  1
AC1009
  9
$INSBASE
 10
0
 20
0
 30
0
  9
$EXTMIN
 10
0
 20
0
  9
$EXTMAX
 10
2378
 20
1682
  9
$LIMMIN
 10
0
 20
0
  9
$LIMMAX
 10
2378
 20
1682
  9
$LTSCALE
 40
1
  0
ENDSEC
  0
SECTION
  2
TABLES
  0
TABLE
  2
LTYPE
 70
     9
  0
LTYPE
  2
CONTINUOUS
 70
    64
  3
実線
 72
    65
 73
     0
 40
0.0
  0
LTYPE
  2
DASHED1
 70
    64
  3
--  --  --  --  --  --  --  --  
 72
    65
 73
     2
 40
2.5
 49
1.25
 49
-1.25
  0
LTYPE
  2
DASHED2
 70
    64
  3
----    ----    ----    ----    
 72
    65
 73
     2
 40
5.0
 49
2.5
 49
-2.5
  0
LTYPE
  2
DASHED3
 70
    64
  3
------  ------  ------  ------  
 72
    65
 73
     2
 40
5.0
 49
3.75
 49
-1.25
  0
LTYPE
  2
CENTER1
 70
    64
  3
----- - ----- - ----- - ----- - 
 72
    65
 73
     4
 40
10.0
 49
6.25
 49
-1.25
 49
1.25
 49
-1.25
  0
LTYPE
  2
CENTER2
 70
    64
  3
----------  --  ----------  --  
 72
    65
 73
     4
 40
20.0
 49
12.5
 49
-2.5
 49
2.5
 49
-2.5
  0
LTYPE
  2
PHANTOM1
 70
    64
  3
--- - - --- - - --- - - --- - - 
 72
    65
 73
     6
 40
10.0
 49
3.25
 49
-1.25
 49
1.25
 49
-1.25
 49
1.25
 49
-1.25
  0
LTYPE
  2
PHANTOM2
 70
    64
  3
--------  -  -  --------  -  -  
 72
    65
 73
     6
 40
20.0
 49
10.0
 49
-2.5
 49
1.25
 49
-2.5
 49
1.25
 49
-2.5
  0
LTYPE
  2
DOT
 70
    64
  3
-   -   -   -   -   -   -   -   
 72
    65
 73
     2
 40
2.5
 49
0.625
 49
-1.875
  0
LTYPE
  2
DUMMY
 70
    64
  3
ダミー
 72
    65
 73
     0
 40
0.0
  0
LTYPE
  2
RAND1
 70
    64
  3
ランダム線1
 72
    65
 73
     4
 40
10.0
 49
1.0
 49
-2.0
 49
3.0
 49
-4.0
  0
LTYPE
  2
RAND2
 70
    64
  3
ランダム線2
 72
    65
 73
     4
 40
14.0
 49
2.0
 49
-3.0
 49
4.0
 49
-5.0
  0
LTYPE
  2
RAND3
 70
    64
  3
ランダム線3
 72
    65
 73
     4
 40
18.0
 49
3.0
 49
-4.0
 49
5.0
 49
-6.0
  0
LTYPE
  2
RAND4
 70
    64
  3
ランダム線4
 72
    65
 73
     4
 40
22.0
 49
4.0
 49
-5.0
 49
6.0
 49
-7.0
  0
LTYPE
  2
RAND5
 70
    64
  3
ランダム線5
 72
    65
 73
     4
 40
26.0
 49
5.0
 49
-6.0
 49
7.0
 49
-8.0
  0
LTYPE
  2
LONG1
 70
    64
  3
----------  --  ----------  --  
 72
    65
 73
     4
 40
40.0
 49
32.5
 49
-2.5
 49
2.5
 49
-2.5
  0
LTYPE
  2
LONG2
 70
    64
  3
--------  -  -  --------  -  -  
 72
    65
 73
     6
 40
40.0
 49
30.0
 49
-2.5
 49
1.25
 49
-2.5
 49
1.25
 49
-2.5
  0
LTYPE
  2
LONG3
 70
    64
  3
+++++++++++++++..+++++++++++++++
 72
    65
 73
     2
 40
40.0
 49
37.5
 49
-2.5
  0
LTYPE
  2
LONG4
 70
    64
  3
+++++++++++++++..+++++++++++++++
 72
    65
 73
     2
 40
80.0
 49
75.0
 49
-5.0
  0
LTYPE
  2
LONG5
 70
    64
  3
----------  --  ----------  --  
 72
    65
 73
     4
 40
60.0
 49
37.5
 49
-7.5
 49
7.5
 49
-7.5
  0
LTYPE
  2
dashed
 70
   64
  3
-------   -------------   ------
 72
   65
 73
    2
 40
7.5
 49
6
 49
-1.5
  0
LTYPE
  2
dashed_spaced
 70
   64
  3
----        --------        ----
 72
   65
 73
    2
 40
12
 49
6
 49
-6
  0
LTYPE
  2
long_dashed_dotted
 70
   64
  3
------------- --- --------------
 72
   65
 73
    4
 40
15.25
 49
12
 49
-1.5
 49
0.25
 49
-1.5
  0
LTYPE
  2
long_dashed_double-dotted
 70
   64
  3
----------- --- --- ------------
 72
   65
 73
    6
 40
17
 49
12
 49
-1.5
 49
0.25
 49
-1.5
 49
0.25
 49
-1.5
  0
LTYPE
  2
long_dashed_triplicate-dotted
 70
   64
  3
--------- --- --- --- ----------
 72
   65
 73
    8
 40
18.75
 49
12
 49
-1.5
 49
0.25
 49
-1.5
 49
0.25
 49
-1.5
 49
0.25
 49
-1.5
  0
LTYPE
  2
dotted
 70
   64
  3
   -       -       -       -    
 72
   65
 73
    2
 40
1.75
 49
0.25
 49
-1.5
  0
LTYPE
  2
chain
 70
   64
  3
-------------- -- --------------
 72
   65
 73
    4
 40
18.5
 49
12
 49
-1.5
 49
3.5
 49
-1.5
  0
LTYPE
  2
chain_double_dash
 70
   64
  3
------------ -- -- -------------
 72
   65
 73
    6
 40
23.5
 49
12
 49
-1.5
 49
3.5
 49
-1.5
 49
3.5
 49
-1.5
  0
LTYPE
  2
dashed_dotted
 70
   64
  3
-----------     -     ----------
 72
   65
 73
    4
 40
9.25
 49
6
 49
-1.5
 49
0.25
 49
-1.5
  0
LTYPE
  2
double-dashed_dotted
 70
   64
  3
------   -----------   -   -----
 72
   65
 73
    6
 40
16.75
 49
6
 49
-1.5
 49
6
 49
-1.5
 49
0.25
 49
-1.5
  0
LTYPE
  2
dashed_double-dotted
 70
   64
  3
---------    -    -    ---------
 72
   65
 73
    6
 40
11
 49
6
 49
-1.5
 49
0.25
 49
-1.5
 49
0.25
 49
-1.5
  0
LTYPE
  2
double-dashed_double-dotted
 70
   64
  3
-----   ---------   -   -   ----
 72
   65
 73
    8
 40
18.5
 49
6
 49
-1.5
 49
6
 49
-1.5
 49
0.25
 49
-1.5
 49
0.25
 49
-1.5
  0
LTYPE
  2
dashed_triplicate-dotted
 70
   64
  3
-------    -    -    -    ------
 72
   65
 73
    8
 40
12.75
 49
6
 49
-1.5
 49
0.25
 49
-1.5
 49
0.25
 49
-1.5
 49
0.25
 49
-1.5
  0
LTYPE
  2
double-dashed_triplicate-dotted
 70
   64
  3
-----  ---------  -  -  -  -----
 72
   65
 73
   10
 40
20.25
 49
6
 49
-1.5
 49
6
 49
-1.5
 49
0.25
 49
-1.5
 49
0.25
 49
-1.5
 49
0.25
 49
-1.5
  0
LTYPE
  2
undefined
 70
   64
  3
--------------------------------
 72
   65
 73
    0
 40
0
  0
ENDTAB
  0
TABLE
  2
STYLE
  5
3
100
AcDbSymbolTable
 70
     1
  0
STYLE
  5
10
100
AcDbSymbolTableRecord
100
AcDbTextStyleTableRecord
  2
STANDARD
 70
     0
 40
0.0
 41
1.0
 50
0.0
 71
     0
 42
0.2
  3
txt
  4
bigfont.shx
  0
STYLE
  5
26
100
AcDbSymbolTableRecord
100
AcDbTextStyleTableRecord
  2
TATEGAKI
 70
    68
 40
0.0
 41
1.0
 50
0.0
 71
     0
 42
1.0
  3
txt
  4
bigfont.shx
  0
ENDTAB
  0
TABLE
  2
LAYER
 70
    2
  0
LAYER
  2
_0-0_
 70
   64
 62
    7
  6
CONTINUOUS
  0
LAYER
  2
ADD_LINE
 70
   64
 62
    7
  6
CONTINUOUS
  0
ENDTAB
  0
ENDSEC
  0
SECTION
  2
BLOCKS
  0
ENDSEC
  0
SECTION
  2
ENTITIES
  0
LINE
  8
_0-0_
  6
CONTINUOUS
 62
    7
 10
1363.7639348197968
 20
926.57301114003099
 11
1266.8639348197971
 21
926.57301114003099
  0
POINT
  8
_0-0_
 62
    7
 10
1125.0628912464672
 20
627.01539088777758
  0
POINT
  8
_0-0_
 62
    7
 10
1120.8917989729407
 20
631.34690978720869
  0
LINE
  8
_0-0_
  6
CONTINUOUS
 62
    7
 10
1079.1879936625014
 20
592.9823546612472
 11
1054.1879936625014
 21
592.9823546612472
  0
LINE
  8
_0-0_
  6
CONTINUOUS
 62
    7
 10
1061.4335032343392
 20
916.57301114003099
 11
1061.4335032343392
 21
909.00595733215346
  0
LINE
  8
_0-0_
  6
CONTINUOUS
 62
    7
 10
1074.1929441834313
 20
909.00595733215346
 11
1074.1929441834313
 21
916.57301114003099
  0
LINE
  8
_0-0_
  6
CONTINUOUS
 62
    7
 10
1056.7632237088851
 20
908.0190111400309
 11
1061.4335032343392
 21
909.00595733215346
  0
ARC
  8
_0-0_
  6
CONTINUOUS
 62
    7
 10
1067.8132237088853
 20
929.13206494791052
 40
21.113053807878593
 50
252.41204622600637
 51
287.5879537739936
  0
LINE
  8
_0-0_
  6
CONTINUOUS
 62
    7
 10
1074.1929441834313
 20
909.00595733215346
 11
1078.8632237088855
 21
908.0190111400309
  0
LINE
  8
_0-0_
  6
CONTINUOUS
 62
    7
 10
1055.0537827597932
 20
916.57301114003099
 11
1055.0537827597932
 21
909.00595733215346
  0
LINE
  8
_0-0_
  6
CONTINUOUS
 62
    7
 10
1055.0537827597932
 20
909.00595733215346
 11
1056.7632237088851
 21
908.0190111400309
  0
LINE
  8
_0-0_
  6
CONTINUOUS
 62
    7
 10
1056.7632237088851
 20
908.0190111400309
 11
1078.8632237088855
 21
908.0190111400309
  0
LINE
  8
_0-0_
  6
CONTINUOUS
 62
    7
 10
1078.8632237088855
 20
908.0190111400309
 11
1080.5726646579747
 21
909.00595733215346
  0
LINE
  8
_0-0_
  6
CONTINUOUS
 62
    7
 10
1080.5726646579747
 20
909.00595733215346
 11
1080.5726646579747
 21
916.57301114003099
  0
LINE
  8
_0-0_
  6
CONTINUOUS
 62
    7
 10
1080.5726646579747
 20
916.57301114003099
 11
1055.0537827597932
 21
916.57301114003099
  0
LINE
  8
_0-0_
  6
CONTINUOUS
 62
    7
 10
1062.8132237088844
 20
902.06254910070606
 11
1062.8132237088844
 21
908.0190111400309
  0
LINE
  8
_0-0_
  6
CONTINUOUS
 62
    7
 10
1062.8132237088844
 20
902.06254910070606
 11
1064.2274372712568
 21
900.64833553833273
  0
LINE
  8
_0-0_
  6
CONTINUOUS
 62
    7
 10
1071.399010146511
 20
900.64833553833273
 11
1064.2274372712568
 21
900.64833553833273
  0
LINE
  8
_0-0_
  6
CONTINUOUS
 62
    7
 10
1072.8132237088844
 20
902.06254910070606
 11
1072.8132237088844
 21
908.0190111400309
  0
LINE
  8
_0-0_
  6
CONTINUOUS
 62
    7
 10
1071.399010146511
 20
900.64833553833273
 11
1072.8132237088844
 21
902.06254910070606
  0
LINE
  8
_0-0_
  6
CONTINUOUS
 62
    7
 10
1072.8132237088844
 20
1109.0344435711679
 11
1072.8132237088844
 21
916.57301114003099
  0
LINE
  8
_0-0_
  6
CONTINUOUS
 62
    7
 10
1266.8639348197971
 20
916.57301114003099
 11
1426.8639348197971
 21
916.57301114003099
  0
LINE
  8
_0-0_
  6
CONTINUOUS
 62
    7
 10
672.13606690525205
 20
167.53106997205509
 11
1706.8525777203672
 21
167.53106997205509
  0
LINE
  8
_0-0_
  6
CONTINUOUS
 62
    7
 10
672.13606690525205
 20
1633.3565543671114
 11
672.13606690525205
 21
167.53106997205509
  0
LINE
  8
_0-0_
  6
CONTINUOUS
 62
    7
 10
1706.8525777203672
 20
1633.3565543671114
 11
1706.8525777203672
 21
167.53106997205509
  0
LINE
  8
_0-0_
  6
CONTINUOUS
 62
    7
 10
1126.1879936625014
 20
604.23235466124356
 11
1133.1879936625014
 21
604.23235466124356
  0
LINE
  8
_0-0_
  6
CONTINUOUS
 62
    7
 10
1126.1879936625014
 20
611.73235466124356
 11
1126.1879936625014
 21
604.23235466124356
  0
LINE
  8
_0-0_
  6
CONTINUOUS
 62
    7
 10
1133.1879936625014
 20
611.73235466124356
 11
1126.1879936625014
 21
611.73235466124356
  0
LINE
  8
_0-0_
  6
CONTINUOUS
 62
    7
 10
1157.2150874455351
 20
448.98863316411484
 11
1161.8678500657429
 21
453.64139578432264
  0
LINE
  8
_0-0_
  6
CONTINUOUS
 62
    7
 10
1145.1942721653636
 20
461.00944844428636
 11
1157.2150874455351
 21
448.98863316411484
  0
LINE
  8
_0-0_
  6
CONTINUOUS
 62
    7
 10
1149.8470347855714
 20
465.66221106449416
 11
1145.1942721653636
 21
461.00944844428636
  0
LINE
  8
_0-0_
  6
CONTINUOUS
 62
    7
 10
1161.8678500657429
 20
453.64139578432264
 11
1149.8470347855714
 21
465.66221106449416
  0
ARC
  8
_0-0_
  6
CONTINUOUS
 62
    7
 10
1156.8797622305397
 20
466.68453086937484
 40
12.275761717941741
 50
204.74428136361459
 51
245.25571863638609
  0
ARC
  8
_0-0_
  6
CONTINUOUS
 62
    7
 10
1162.8901698706272
 20
460.67412322928908
 40
12.27576171794224
 50
204.74428136361504
 51
245.2557186363849
  0
LINE
  8
_0-0_
  6
CONTINUOUS
 62
    7
 10
1132.7679936625022
 20
544.60422966124429
 11
1132.7679936625022
 21
539.38235466124138
  0
LINE
  8
_0-0_
  6
CONTINUOUS
 62
    7
 10
1132.7679936625022
 20
433.36047966124283
 11
1132.7679936625022
 21
438.58235466124211
  0
LINE
  8
_0-0_
  6
CONTINUOUS
 62
    7
 10
1125.1879936625014
 20
434.12409282334306
 11
1125.1879936625014
 21
433.48235466124356
  0
LINE
  8
_0-0_
  6
CONTINUOUS
 62
    7
 10
1104.1879936625014
 20
432.46735466124414
 11
1104.1879936625014
 21
426.98235466124356
  0
LINE
  8
_0-0_
  6
CONTINUOUS
 62
    7
 10
1151.7415077632309
 20
455.5358687619821
 11
1155.8574424256581
 21
459.6518034244084
  0
LINE
  8
_0-0_
  6
CONTINUOUS
 62
    7
 10
1133.1879936625014
 20
610.53235466124283
 11
1126.1879936625014
 21
610.53235466124283
  0
LINE
  8
_0-0_
  6
CONTINUOUS
 62
    7
 10
1133.1879936625014
 20
605.43235466124429
 11
1126.1879936625014
 21
605.43235466124429
  0
ARC
  8
_0-0_
  6
CONTINUOUS
 62
    7
 10
1141.4969768281376
 20
432.98235466124356
 40
10
 50
270
 51
300.12318347445199
  0
LINE
  8
_0-0_
  6
CONTINUOUS
 62
    7
 10
1157.4283802773466
 20
430.66469768704087
 11
1146.5155844336491
 21
424.33287041639528
  0
ARC
  8
_0-0_
  6
CONTINUOUS
 62
    7
 10
1153.1879936625041
 20
456.98235466124356
 40
10
 50
180
 51
270
  0
LINE
  8
_0-0_
  6
CONTINUOUS
 62
    7
 10
1143.1879936625041
 20
541.48235466124356
 11
1143.1879936625041
 21
456.98235466124356
  0
ARC
  8
_0-0_
  6
CONTINUOUS
 62
    7
 10
1146.1879936625014
 20
636.64902132791144
 40
2
 50
323.13010235419512
 51
0
  0
ARC
  8
_0-0_
  6
CONTINUOUS
 62
    7
 10
1146.1879936625014
 20
597.11124847746146
 40
2
 50
0
 51
86.185925165711907
  0
ARC
  8
_0-0_
  6
CONTINUOUS
 62
    7
 10
1143.1879936625014
 20
645.08337517567747
 40
5
 50
0
 51
78.463040967205103
  0
LINE
  8
_0-0_
  6
CONTINUOUS
 62
    7
 10
1144.1879936625014
 20
599.24902132790999
 11
1144.1879936625014
 21
555.08337517567747
  0
LINE
  8
_0-0_
  6
CONTINUOUS
 62
    7
 10
1144.1879936625014
 20
649.98235466124356
 11
1144.1879936625014
 21
630.64902132791144
  0
ARC
  8
_0-0_
  6
CONTINUOUS
 62
    7
 10
1135.1879936625014
 20
615.31568799457568
 40
2
 50
143.13010235416249
 51
180
  0
LINE
  8
_0-0_
  6
CONTINUOUS
 62
    7
 10
1133.5879936625029
 20
616.51568799457641
 11
1147.7879936625018
 21
635.44902132791071
  0
ARC
  8
_0-0_
  6
CONTINUOUS
 62
    7
 10
1135.1879936625014
 20
601.85346084502567
 40
2
 50
180
 51
266.18592516571192
  0
LINE
  8
_0-0_
  6
CONTINUOUS
 62
    7
 10
1133.1879936625014
 20
601.85346084502567
 11
1133.1879936625014
 21
615.31568799457568
  0
LINE
  8
_0-0_
  6
CONTINUOUS
 62
    7
 10
1135.0549556414539
 20
599.85789052931182
 11
1146.3210316835507
 21
599.10681879317531
  0
LINE
  8
_0-0_
  6
CONTINUOUS
 62
    7
 10
1233.1879936625023
 20
446.98235466124356
 11
1153.1879936625041
 21
446.98235466124356
  0
ARC
  8
_0-0_
  6
CONTINUOUS
 62
    7
 10
1162.4469878828581
 20
422.01521344219259
 40
10
 50
97.125016348904694
 51
120.12318347445199
  0
LINE
  8
_0-0_
  6
CONTINUOUS
 62
    7
 10
1161.2066405369665
 20
431.93799220932965
 11
1232.65197758972
 21
440.86865934092316
  0
LINE
  8
_0-0_
  6
CONTINUOUS
 62
    7
 10
1149.1879936625014
 20
436.48235466124356
 11
1233.1879936625023
 21
446.98235466124356
  0
ARC
  8
_0-0_
  6
CONTINUOUS
 62
    7
 10
1231.4116302438283
 20
450.79143810806022
 40
10
 50
277.12501634890469
 51
312.87890360331409
  0
LINE
  8
_0-0_
  6
CONTINUOUS
 62
    7
 10
1156.1879936625014
 20
553.98235466124356
 11
1154.1879936625014
 21
554.98235466124356
  0
LINE
  8
_0-0_
  6
CONTINUOUS
 62
    7
 10
1156.1879936625014
 20
550.98235466124356
 11
1143.1879936625014
 21
536.98235466124356
  0
LINE
  8
_0-0_
  6
CONTINUOUS
 62
    7
 10
1156.1879936625014
 20
553.98235466124356
 11
1156.1879936625014
 21
550.98235466124356
  0
LINE
  8
_0-0_
  6
CONTINUOUS
 62
    7
 10
1154.1879936625014
 20
657.98235466124356
 11
1154.1879936625014
 21
554.98235466124356
  0
ARC
  8
_0-0_
  6
CONTINUOUS
 62
    7
 10
1143.1879936625014
 20
559.98235466124356
 40
5
 50
270
 51
0
  0
LINE
  8
_0-0_
  6
CONTINUOUS
 62
    7
 10
1148.1879936625014
 20
645.08337517567747
 11
1148.1879936625014
 21
559.98235466124356
  0
LINE
  8
_0-0_
  6
CONTINUOUS
 62
    7
 10
1144.1879936625014
 20
657.98235466124356
 11
1144.1879936625014
 21
649.98235466124356
  0
LINE
  8
_0-0_
  6
CONTINUOUS
 62
    7
 10
1154.1879936625014
 20
657.98235466124356
 11
1144.1879936625014
 21
657.98235466124356
  0
LINE
  8
_0-0_
  6
CONTINUOUS
 62
    7
 10
1109.1879936625014
 20
426.98235466124356
 11
1104.1879936625014
 21
426.98235466124356
  0
LINE
  8
_0-0_
  6
CONTINUOUS
 62
    7
 10
1109.187993662506
 20
550.98235466124356
 11
1104.187993662506
 21
550.98235466124356
  0
LINE
  8
_0-0_
  6
CONTINUOUS
 62
    7
 10
1168.1879936625014
 20
453.59757835039386
 11
1168.1879936625014
 21
447.0006535831028
  0
LINE
  8
_0-0_
  6
CONTINUOUS
 62
    7
 10
1149.8032173516517
 20
471.98235466124356
 11
1143.1879936625014
 21
471.98235466124356
  0
LINE
  8
_0-0_
  6
CONTINUOUS
 62
    7
 10
1152.6316444763947
 20
463.49707328701083
 11
1151.9245376952117
 21
464.20418006819204
  0
LINE
  8
_0-0_
  6
CONTINUOUS
 62
    7
 10
1160.4098190694499
 20
455.71889869395204
 11
1159.7027122882596
 21
456.42600547514417
  0
LINE
  8
_0-0_
  6
CONTINUOUS
 62
    7
 10
1162.5311394130072
 20
459.25443259989083
 11
1163.2382461941966
 21
458.54732581869871
  0
LINE
  8
_0-0_
  6
CONTINUOUS
 62
    7
 10
1154.7529648199593
 20
467.03260719293871
 11
1155.4600716011414
 21
466.32550041175386
  0
LINE
  8
_0-0_
  6
CONTINUOUS
 62
    7
 10
1152.6316444763993
 20
452.18336478802053
 11
1156.8742851635166
 21
447.94072410090052
  0
LINE
  8
_0-0_
  6
CONTINUOUS
 62
    7
 10
1152.6316444763993
 20
452.18336478802053
 11
1150.5103241328393
 21
450.06204444446234
  0
LINE
  8
_0-0_
  6
CONTINUOUS
 62
    7
 10
1148.3890037892793
 20
456.42600547514053
 11
1144.1463631021611
 21
460.66864616226053
  0
LINE
  8
_0-0_
  6
CONTINUOUS
 62
    7
 10
1148.3890037892793
 20
456.42600547514053
 11
1146.2676834457193
 21
454.30468513157871
  0
LINE
  8
_0-0_
  6
CONTINUOUS
 62
    7
 10
1163.2382461941966
 20
458.54732581869871
 11
1168.1879936625014
 21
453.59757835039386
  0
LINE
  8
_0-0_
  6
CONTINUOUS
 62
    7
 10
1163.2382461941966
 20
458.54732581869871
 11
1160.4098190694499
 21
455.71889869395204
  0
LINE
  8
_0-0_
  6
CONTINUOUS
 62
    7
 10
1154.7529648199593
 20
467.03260719293871
 11
1149.8032173516517
 21
471.98235466124356
  0
LINE
  8
_0-0_
  6
CONTINUOUS
 62
    7
 10
1154.7529648199593
 20
467.03260719293871
 11
1151.9245376952117
 21
464.20418006819204
  0
ARC
  8
_0-0_
  6
CONTINUOUS
 62
    7
 10
1144.8534698833469
 20
458.54732584804628
 40
2
 50
134.99999999999105
 51
225.00000000000901
  0
LINE
  8
_0-0_
  6
CONTINUOUS
 62
    7
 10
1149.8032173516517
 20
466.32550041175023
 11
1143.4392563209735
 21
459.96153941041962
  0
LINE
  8
_0-0_
  6
CONTINUOUS
 62
    7
 10
1151.9245376952117
 20
464.20418006819204
 11
1149.8032173516517
 21
466.32550041175023
  0
LINE
  8
_0-0_
  6
CONTINUOUS
 62
    7
 10
1162.5311394130099
 20
453.59757835039386
 11
1160.4098190694499
 21
455.71889869395204
  0
ARC
  8
_0-0_
  6
CONTINUOUS
 62
    7
 10
1154.7529648453742
 20
448.64783088392255
 40
2
 50
224.99999992569116
 51
314.99999999999102
  0
LINE
  8
_0-0_
  6
CONTINUOUS
 62
    7
 10
1156.1671784077466
 20
447.23361732154922
 11
1162.5311394130099
 21
453.59757835039386
  0
LINE
  8
_0-0_
  6
CONTINUOUS
 62
    7
 10
1143.4392563209735
 20
457.13311228567295
 11
1153.3387512811664
 21
447.23361732338276
  0
LINE
  8
_0-0_
  6
CONTINUOUS
 62
    7
 10
1109.1879936625014
 20
422.98235466124356
 11
1141.4969768281376
 21
422.98235466124356
  0
LINE
  8
_0-0_
  6
CONTINUOUS
 62
    7
 10
1137.1879936625014
 20
436.48235466124356
 11
1149.1879936625014
 21
436.48235466124356
  0
LINE
  8
_0-0_
  6
CONTINUOUS
 62
    7
 10
1105.1879936625014
 20
433.49909282334306
 11
1125.1879936625014
 21
434.12409282334306
  0
LINE
  8
_0-0_
  6
CONTINUOUS
 62
    7
 10
1104.1879936625014
 20
432.46735466124414
 11
1125.220248598313
 21
433.12461262798865
  0
LINE
  8
_0-0_
  6
CONTINUOUS
 62
    7
 10
1104.1879936625014
 20
432.46735466124414
 11
1105.1879936625014
 21
433.49909282334306
  0
LINE
  8
_0-0_
  6
CONTINUOUS
 62
    7
 10
1137.1879936625014
 20
541.48235466124356
 11
1143.1879936625041
 21
541.48235466124356
  0
LINE
  8
_0-0_
  6
CONTINUOUS
 62
    7
 10
1109.187993662506
 20
554.98235466124356
 11
1143.1879936625014
 21
554.98235466124356
  0
ARC
  8
_0-0_
  6
CONTINUOUS
 62
    7
 10
1127.1879936625014
 20
433.48235466124356
 40
2
 50
180
 51
270
  0
ARC
  8
_0-0_
  6
CONTINUOUS
 62
    7
 10
1135.1879936625014
 20
433.48235466124356
 40
2
 50
270
 51
0
  0
LINE
  8
_0-0_
  6
CONTINUOUS
 62
    7
 10
1127.1879936625014
 20
431.48235466124356
 11
1135.1879936625014
 21
431.48235466124356
  0
ARC
  8
_0-0_
  6
CONTINUOUS
 62
    7
 10
1127.1879936625014
 20
544.48235466124356
 40
2
 50
90
 51
180
  0
LINE
  8
_0-0_
  6
CONTINUOUS
 62
    7
 10
1127.1879936625014
 20
546.48235466124356
 11
1135.1879936625014
 21
546.48235466124356
  0
ARC
  8
_0-0_
  6
CONTINUOUS
 62
    7
 10
1135.1879936625014
 20
544.48235466124356
 40
2
 50
0
 51
90
  0
LINE
  8
_0-0_
  6
CONTINUOUS
 62
    7
 10
1137.1879936625014
 20
544.48235466124356
 11
1137.1879936625014
 21
433.48235466124356
  0
LINE
  8
_0-0_
  6
CONTINUOUS
 62
    7
 10
1125.1879936625014
 20
544.48235466124356
 11
1125.1879936625014
 21
543.84061649914406
  0
LINE
  8
_0-0_
  6
CONTINUOUS
 62
    7
 10
1104.187993662506
 20
545.49735466124298
 11
1105.1879936625051
 21
544.46561649914406
  0
LINE
  8
_0-0_
  6
CONTINUOUS
 62
    7
 10
1105.1879936625051
 20
544.46561649914406
 11
1125.1879936625014
 21
543.84061649914406
  0
LINE
  8
_0-0_
  6
CONTINUOUS
 62
    7
 10
1104.187993662506
 20
545.49735466124298
 11
1125.220248598313
 21
544.84009669449847
  0
LINE
  8
_0-0_
  6
CONTINUOUS
 62
    7
 10
1104.187993662506
 20
550.98235466124356
 11
1104.1879936625041
 21
545.49735466124298
  0
LINE
  8
_0-0_
  6
CONTINUOUS
 62
    7
 10
1154.1879936625014
 20
657.98235466124356
 11
1154.1879936625014
 21
732.03772351288467
  0
LINE
  8
_0-0_
  6
CONTINUOUS
 62
    7
 10
1143.8703888380028
 20
555.02913986432145
 11
1144.1879936625014
 21
555.3467446888219
  0
LINE
  8
_0-0_
  6
CONTINUOUS
 62
    2
 10
1090.0200256048006
 20
433.50360565944106
 11
1090.016971120845
 21
433.50351020681524
  0
LINE
  8
_0-0_
  6
CONTINUOUS
 62
    2
 10
1090.0200256048006
 20
433.50360565944106
 11
1132.7679936625022
 21
434.83947966124219
  0
LINE
  8
_0-0_
  6
CONTINUOUS
 62
    2
 10
1088.6679936625246
 20
431.98235466124356
 11
1132.7679936625022
 21
433.36047966124283
  0
LINE
  8
_0-0_
  6
CONTINUOUS
 62
    2
 10
1089.1473807529323
 20
431.99733550781934
 11
1090.0200256048006
 21
433.50360565944106
  0
LINE
  8
_0-0_
  6
CONTINUOUS
 62
    2
 10
1088.6679936625246
 20
431.98235466124356
 11
966.12136130695092
 21
431.98235466124356
  0
LINE
  8
_0-0_
  6
CONTINUOUS
 62
    2
 10
1089.1473807529323
 20
545.96737381466778
 11
1090.016971120845
 21
544.46119911566825
  0
LINE
  8
_0-0_
  6
CONTINUOUS
 62
    2
 10
1132.7679936625022
 20
543.12522966124129
 11
1090.016971120845
 21
544.46119911566825
  0
LINE
  8
_0-0_
  6
CONTINUOUS
 62
    2
 10
1132.7679936625022
 20
544.60422966124429
 11
1088.6679936625246
 21
545.98235466124356
  0
LINE
  8
_0-0_
  6
CONTINUOUS
 62
    4
 10
1160.1879936625014
 20
558.60115681475986
 11
1160.1879936625014
 21
732.03772351288467
  0
LINE
  8
_0-0_
  6
CONTINUOUS
 62
    4
 10
1158.1879936625014
 20
555.13705519962355
 11
1156.1879936625014
 21
553.98235466124356
  0
ARC
  8
_0-0_
  6
CONTINUOUS
 62
    4
 10
1156.1879936625014
 20
558.60115681475986
 40
4
 50
299.9999999999979
 51
0.0000000000000508
  0
LINE
  8
_0-0_
  6
DASHED2
 62
    5
 10
1157.1879936625014
 20
732.03772351288467
 11
1157.1879936625014
 21
556.79175573800353
  0
LINE
  8
_0-0_
  6
CONTINUOUS
 62
    2
 10
962.56085630694963
 20
491.38048716124581
 11
959.33749205694915
 21
494.2255709112444
  0
LINE
  8
_0-0_
  6
CONTINUOUS
 62
    2
 10
969.68216555694983
 20
434.38048716124217
 11
966.12136130695092
 21
431.98235466124356
  0
LINE
  8
_0-0_
  6
CONTINUOUS
 62
    2
 10
972.90552980695031
 20
437.2255709112444
 11
969.68216555694983
 21
434.38048716124217
  0
LINE
  8
_0-0_
  6
CONTINUOUS
 62
    2
 10
975.73144730694969
 20
440.46532266124382
 11
972.90552980695031
 21
437.2255709112444
  0
LINE
  8
_0-0_
  6
CONTINUOUS
 62
    2
 10
978.11169605695034
 20
444.04460916124413
 11
975.73144730694969
 21
440.46532266124382
  0
LINE
  8
_0-0_
  6
CONTINUOUS
 62
    2
 10
980.00640455695032
 20
447.90348066124466
 11
978.11169605695034
 21
444.04460916124413
  0
LINE
  8
_0-0_
  6
CONTINUOUS
 62
    2
 10
981.38313980695114
 20
451.97600241124132
 11
980.00640455695032
 21
447.90348066124466
  0
LINE
  8
_0-0_
  6
CONTINUOUS
 62
    2
 10
982.21851755694991
 20
456.19250616124305
 11
981.38313980695114
 21
451.97600241124132
  0
LINE
  8
_0-0_
  6
CONTINUOUS
 62
    2
 10
982.49860130695072
 20
460.48235466124356
 11
982.21851755694991
 21
456.19250616124305
  0
LINE
  8
_0-0_
  6
CONTINUOUS
 62
    2
 10
982.21851755694991
 20
464.77218891124471
 11
982.49860130695072
 21
460.48235466124356
  0
LINE
  8
_0-0_
  6
CONTINUOUS
 62
    2
 10
981.38313980695114
 20
468.98869266124279
 11
982.21851755694991
 21
464.77218891124471
  0
LINE
  8
_0-0_
  6
CONTINUOUS
 62
    2
 10
980.00640455695032
 20
473.0612144112431
 11
981.38313980695114
 21
468.98869266124279
  0
LINE
  8
_0-0_
  6
CONTINUOUS
 62
    2
 10
978.11169605695034
 20
476.92008591124363
 11
980.00640455695032
 21
473.0612144112431
  0
LINE
  8
_0-0_
  6
CONTINUOUS
 62
    2
 10
975.73144730694969
 20
480.49937241124394
 11
978.11169605695034
 21
476.92008591124363
  0
LINE
  8
_0-0_
  6
CONTINUOUS
 62
    2
 10
972.90552980695031
 20
483.73912416124335
 11
975.73144730694969
 21
480.49937241124394
  0
LINE
  8
_0-0_
  6
CONTINUOUS
 62
    2
 10
969.68216555694983
 20
486.58420791124195
 11
972.90552980695031
 21
483.73912416124335
  0
LINE
  8
_0-0_
  6
CONTINUOUS
 62
    2
 10
966.12136130695092
 20
488.98235466124356
 11
969.68216555694983
 21
486.58420791124195
  0
LINE
  8
_0-0_
  6
CONTINUOUS
 62
    2
 10
962.56085630694963
 20
486.58420791124195
 11
966.1216463069519
 21
488.98235466124356
  0
LINE
  8
_0-0_
  6
CONTINUOUS
 62
    2
 10
959.33749205694915
 20
483.73912416124335
 11
962.56085630694963
 21
486.58420791124195
  0
LINE
  8
_0-0_
  6
CONTINUOUS
 62
    2
 10
956.51157455694977
 20
480.49937241124394
 11
959.33749205694915
 21
483.73912416124335
  0
LINE
  8
_0-0_
  6
CONTINUOUS
 62
    2
 10
954.13132580694912
 20
476.92008591124363
 11
956.51157455694977
 21
480.49937241124394
  0
LINE
  8
_0-0_
  6
CONTINUOUS
 62
    2
 10
952.23661730695187
 20
473.0612144112431
 11
954.13132580694912
 21
476.92008591124363
  0
LINE
  8
_0-0_
  6
CONTINUOUS
 62
    2
 10
950.85988205695014
 20
468.98869266124279
 11
952.23661730695187
 21
473.0612144112431
  0
LINE
  8
_0-0_
  6
CONTINUOUS
 62
    2
 10
950.02450430695228
 20
464.77218891124471
 11
950.85988205695014
 21
468.98869266124279
  0
LINE
  8
_0-0_
  6
CONTINUOUS
 62
    2
 10
949.74440630695119
 20
460.48235466124356
 11
950.02450430695228
 21
464.77218891124471
  0
LINE
  8
_0-0_
  6
CONTINUOUS
 62
    2
 10
950.02450430695228
 20
456.19250616124305
 11
949.74440630695119
 21
460.48235466124356
  0
LINE
  8
_0-0_
  6
CONTINUOUS
 62
    2
 10
950.85988205695014
 20
451.97600241124132
 11
950.02450430695228
 21
456.19250616124305
  0
LINE
  8
_0-0_
  6
CONTINUOUS
 62
    2
 10
952.23661730695187
 20
447.90348066124466
 11
950.85988205695014
 21
451.97600241124132
  0
LINE
  8
_0-0_
  6
CONTINUOUS
 62
    2
 10
954.13132580694912
 20
444.04460916124413
 11
952.23661730695187
 21
447.90348066124466
  0
LINE
  8
_0-0_
  6
CONTINUOUS
 62
    2
 10
956.51157455694977
 20
440.46532266124382
 11
954.13132580694912
 21
444.04460916124413
  0
LINE
  8
_0-0_
  6
CONTINUOUS
 62
    2
 10
959.33749205694915
 20
437.2255709112444
 11
956.51157455694977
 21
440.46532266124382
  0
LINE
  8
_0-0_
  6
CONTINUOUS
 62
    2
 10
962.56085630694963
 20
434.38048716124217
 11
959.33749205694915
 21
437.2255709112444
  0
LINE
  8
_0-0_
  6
CONTINUOUS
 62
    2
 10
966.1216463069519
 20
431.98235466124356
 11
962.56085630694963
 21
434.38048716124217
  0
LINE
  8
_0-0_
  6
CONTINUOUS
 62
    2
 10
962.56085630694963
 20
543.58420791124195
 11
966.1216463069519
 21
545.98235466124356
  0
LINE
  8
_0-0_
  6
CONTINUOUS
 62
    2
 10
959.33749205694915
 20
540.73912416124335
 11
962.56085630694963
 21
543.58420791124195
  0
LINE
  8
_0-0_
  6
CONTINUOUS
 62
    2
 10
956.51157455694977
 20
537.49937241124394
 11
959.33749205694915
 21
540.73912416124335
  0
LINE
  8
_0-0_
  6
CONTINUOUS
 62
    2
 10
954.13132580694912
 20
533.92008591124363
 11
956.51157455694977
 21
537.49937241124394
  0
LINE
  8
_0-0_
  6
CONTINUOUS
 62
    2
 10
952.23661730695187
 20
530.0612144112431
 11
954.13132580694912
 21
533.92008591124363
  0
LINE
  8
_0-0_
  6
CONTINUOUS
 62
    2
 10
950.85988205695014
 20
525.98869266124279
 11
952.23661730695187
 21
530.0612144112431
  0
LINE
  8
_0-0_
  6
CONTINUOUS
 62
    2
 10
950.02450430695228
 20
521.77218891124471
 11
950.85988205695014
 21
525.98869266124279
  0
LINE
  8
_0-0_
  6
CONTINUOUS
 62
    2
 10
949.74440630695119
 20
517.48235466124356
 11
950.02450430695228
 21
521.77218891124471
  0
LINE
  8
_0-0_
  6
CONTINUOUS
 62
    2
 10
950.02450430695228
 20
513.19250616124305
 11
949.74440630695119
 21
517.48235466124356
  0
LINE
  8
_0-0_
  6
CONTINUOUS
 62
    2
 10
950.85988205695014
 20
508.97600241124496
 11
950.02450430695228
 21
513.19250616124305
  0
LINE
  8
_0-0_
  6
CONTINUOUS
 62
    2
 10
952.23661730695187
 20
504.90348066124102
 11
950.85988205695014
 21
508.97600241124496
  0
LINE
  8
_0-0_
  6
CONTINUOUS
 62
    2
 10
954.13132580694912
 20
501.04460916124413
 11
952.23661730695187
 21
504.90348066124102
  0
LINE
  8
_0-0_
  6
CONTINUOUS
 62
    2
 10
956.51157455694977
 20
497.46532266124382
 11
954.13132580694912
 21
501.04460916124413
  0
LINE
  8
_0-0_
  6
CONTINUOUS
 62
    2
 10
959.33749205694915
 20
494.2255709112444
 11
956.51157455694977
 21
497.46532266124382
  0
LINE
  8
_0-0_
  6
CONTINUOUS
 62
    2
 10
966.1216463069519
 20
488.98235466124356
 11
962.56085630694963
 21
491.38048716124581
  0
LINE
  8
_0-0_
  6
CONTINUOUS
 62
    2
 10
1088.6679936625246
 20
545.98235466124356
 11
966.12164630694826
 21
545.98235466124356
  0
LINE
  8
_0-0_
  6
CONTINUOUS
 62
    2
 10
1132.7679936625022
 20
438.58235466124211
 11
974.08900287486051
 21
438.58235466124211
  0
LINE
  8
_0-0_
  6
CONTINUOUS
 62
    2
 10
1132.7679936625022
 20
539.38235466124138
 11
958.15403141879472
 21
539.38235466124138
  0
ARC
  8
_0-0_
  6
CONTINUOUS
 62
    7
 10
1095.2639348197968
 20
1140.1206578885551
 40
21.113053807878593
 50
72.412046226006396
 51
107.5879537739936
  0
LINE
  8
_0-0_
  6
CONTINUOUS
 62
    7
 10
1119.2944348197966
 20
1056.573011140031
 11
1120.14843109808
 21
1083.9008920451354
  0
LINE
  8
_0-0_
  6
CONTINUOUS
 62
    7
 10
1108.2639348197968
 20
1124.823011140031
 11
1109.5639348197969
 21
1105.323011140031
  0
LINE
  8
_0-0_
  6
CONTINUOUS
 62
    7
 10
1087.4639348197948
 20
1124.823011140031
 11
1088.7639348197968
 21
1124.823011140031
  0
LINE
  8
_0-0_
  6
CONTINUOUS
 62
    7
 10
1101.7639348197968
 20
1124.823011140031
 11
1108.2639348197968
 21
1124.823011140031
  0
LINE
  8
_0-0_
  6
CONTINUOUS
 62
    7
 10
1087.4639348197966
 20
1119.6230111400339
 11
1088.7639348197968
 21
1119.6230111400339
  0
LINE
  8
_0-0_
  6
CONTINUOUS
 62
    7
 10
1101.7639348197968
 20
1119.6230111400339
 11
1108.6106014864631
 21
1119.6230111400339
  0
LINE
  8
_0-0_
  6
CONTINUOUS
 62
    7
 10
1109.655391335989
 20
1105.323011140031
 11
1109.655391335989
 21
1109.2230111400324
  0
LINE
  8
_0-0_
  6
CONTINUOUS
 62
    7
 10
1109.655391335989
 20
1109.2230111400324
 11
1102.8089366702775
 21
1109.2230111400324
  0
LINE
  8
_0-0_
  6
CONTINUOUS
 62
    7
 10
1107.3122687699556
 20
1109.2230111400324
 11
1107.3122687699556
 21
1105.323011140031
  0
LINE
  8
_0-0_
  6
CONTINUOUS
 62
    7
 10
1088.8842143452507
 20
1118.323011140031
 11
1088.8842143452507
 21
1110.7559573321535
  0
LINE
  8
_0-0_
  6
CONTINUOUS
 62
    7
 10
1101.6436552943428
 20
1110.7559573321535
 11
1101.6436552943428
 21
1118.323011140031
  0
LINE
  8
_0-0_
  6
CONTINUOUS
 62
    7
 10
1102.8089366702775
 20
1109.2230111400324
 11
1102.8089366702775
 21
1107.9230111400332
  0
ARC
  8
_0-0_
  6
CONTINUOUS
 62
    7
 10
1100.2089366702771
 20
1107.9230111400332
 40
2.6000000000000001
 50
270
 51
0
  0
LINE
  8
_0-0_
  6
CONTINUOUS
 62
    7
 10
1266.233434819796
 20
1056.573011140031
 11
1265.3794385415108
 21
1083.9008920451354
  0
LINE
  8
_0-0_
  6
CONTINUOUS
 62
    7
 10
1265.0723723197966
 20
1093.7270111400078
 11
1258.2839348197963
 21
1093.7270111400078
  0
LINE
  8
_0-0_
  6
CONTINUOUS
 62
    7
 10
1120.455497319796
 20
1093.7270111400078
 11
1127.2439348197972
 21
1093.7270111400078
  0
LINE
  8
_0-0_
  6
CONTINUOUS
 62
    7
 10
1325.1939652390161
 20
1125.6884292189982
 11
1324.1711827385047
 21
1101.9610406472577
  0
ARC
  8
_0-0_
  6
CONTINUOUS
 62
    7
 10
1321.5735948942242
 20
1102.073011140031
 40
2.60000000000035
 50
270
 51
357.53176100726529
  0
LINE
  8
_0-0_
  6
CONTINUOUS
 62
    7
 10
1321.5735948942242
 20
1099.4730111400324
 11
1285.0639348197969
 21
1099.4730111400324
  0
LINE
  8
_0-0_
  6
CONTINUOUS
 62
    7
 10
1285.0639348197969
 20
1099.4730111400324
 11
1283.763934819794
 21
1095.573011140031
  0
LINE
  8
_0-0_
  6
CONTINUOUS
 62
    7
 10
1283.763934819794
 20
1095.573011140031
 11
1277.2639348197968
 21
1095.573011140031
  0
LINE
  8
_0-0_
  6
CONTINUOUS
 62
    7
 10
1277.2639348197968
 20
1095.573011140031
 11
1274.8257381913031
 21
1059.0000617126691
  0
ARC
  8
_0-0_
  6
CONTINUOUS
 62
    7
 10
1272.2314967808775
 20
1059.1730111400332
 40
2.6000000000002306
 50
270
 51
356.18592516570902
  0
LINE
  8
_0-0_
  6
CONTINUOUS
 62
    7
 10
1272.2314967808775
 20
1056.573011140031
 11
1266.233434819796
 21
1056.573011140031
  0
LINE
  8
_0-0_
  6
CONTINUOUS
 62
    7
 10
1266.233434819796
 20
1056.573011140031
 11
1264.2215454037027
 21
1058.5230111400317
  0
LINE
  8
_0-0_
  6
CONTINUOUS
 62
    7
 10
1264.2215454037027
 20
1058.5230111400317
 11
1263.4293579037035
 21
1083.8730111400339
  0
LINE
  8
_0-0_
  6
CONTINUOUS
 62
    7
 10
1263.4293579037035
 20
1083.8730111400339
 11
1264.9139348197946
 21
1083.8730111400339
  0
ARC
  8
_0-0_
  6
CONTINUOUS
 62
    7
 10
1264.9139348197946
 20
1087.7730111400317
 40
3.9000000000000004
 50
270
 51
0
  0
LINE
  8
_0-0_
  6
CONTINUOUS
 62
    7
 10
1268.8139348197969
 20
1087.7730111400317
 11
1268.8139348197969
 21
1095.573011140031
  0
ARC
  8
_0-0_
  6
CONTINUOUS
 62
    7
 10
1264.9139348197946
 20
1095.573011140031
 40
3.9000000000000004
 50
0
 51
90
  0
LINE
  8
_0-0_
  6
CONTINUOUS
 62
    7
 10
1264.9139348197946
 20
1099.4730111400324
 11
1261.6639348197946
 21
1099.4730111400324
  0
LINE
  8
_0-0_
  6
CONTINUOUS
 62
    7
 10
1261.6639348197946
 20
1099.4730111400324
 11
1261.6639348197946
 21
1105.323011140031
  0
LINE
  8
_0-0_
  6
CONTINUOUS
 62
    7
 10
1261.6639348197946
 20
1105.323011140031
 11
1301.3139348197969
 21
1105.323011140031
  0
ARC
  8
_0-0_
  6
CONTINUOUS
 62
    7
 10
1301.3139348197969
 20
1107.9230111400332
 40
2.5999999999998522
 50
270
 51
0.0000000000032314
  0
LINE
  8
_0-0_
  6
CONTINUOUS
 62
    7
 10
1303.9139348197946
 20
1107.9230111400332
 11
1303.9139348197964
 21
1117.0230111400317
  0
ARC
  8
_0-0_
  6
CONTINUOUS
 62
    7
 10
1301.3139348197969
 20
1117.0230111400317
 40
2.6000000000000001
 50
0
 51
90
  0
LINE
  8
_0-0_
  6
CONTINUOUS
 62
    7
 10
1301.3139348197969
 20
1119.6230111400339
 11
1298.0639348197969
 21
1119.6230111400339
  0
LINE
  8
_0-0_
  6
CONTINUOUS
 62
    7
 10
1298.0639348197969
 20
1119.6230111400339
 11
1298.0639348197969
 21
1124.823011140031
  0
LINE
  8
_0-0_
  6
CONTINUOUS
 62
    7
 10
1298.0639348197969
 20
1124.823011140031
 11
1298.7139348197948
 21
1124.823011140031
  0
LINE
  8
_0-0_
  6
CONTINUOUS
 62
    7
 10
1298.7139348197948
 20
1124.823011140031
 11
1302.6139348197944
 21
1126.641611006836
  0
ARC
  8
_0-0_
  6
CONTINUOUS
 62
    7
 10
1303.7983045783672
 20
1127.1775851433242
 40
1.2999999999999889
 50
204.34863189823588
 51
295.00000000000523
  0
LINE
  8
_0-0_
  6
CONTINUOUS
 62
    7
 10
1304.3477083186294
 20
1125.9993850201765
 11
1357.9986139592852
 21
1151.0172131873671
  0
ARC
  8
_0-0_
  6
CONTINUOUS
 62
    7
 10
1368.9866887645426
 20
1127.4532107244133
 40
25.999999999998103
 50
96.842773412628745
 51
114.99999999999869
  0
LINE
  8
_0-0_
  6
CONTINUOUS
 62
    7
 10
1427.4139348197946
 20
1148.8730111400339
 11
1419.6139348197944
 21
1148.8730111400339
  0
ARC
  8
_0-0_
  6
CONTINUOUS
 62
    7
 10
1412.6340956859863
 20
1145.3913670361446
 40
7.7999999999995007
 50
26.510680418713015
 51
96.842773412632056
  0
LINE
  8
_0-0_
  6
CONTINUOUS
 62
    7
 10
1411.7047629651611
 20
1153.1358063763448
 11
1366.5549348117233
 21
1147.7178269979315
  0
ARC
  8
_0-0_
  6
CONTINUOUS
 62
    7
 10
1368.9866887645462
 20
1127.4532107244133
 40
20.409999999999183
 50
96.842773412632894
 51
115.0000000000028
  0
LINE
  8
_0-0_
  6
CONTINUOUS
 62
    7
 10
1360.3610500424161
 20
1145.9509526578306
 11
1328.9409161483968
 21
1131.2995036027944
  0
ARC
  8
_0-0_
  6
CONTINUOUS
 62
    7
 10
1331.6879348497127
 20
1125.408502987056
 40
6.4999999999994964
 50
114.9999999999974
 51
177.53176100726472
  0
LINE
  8
_0-0_
  6
CONTINUOUS
 62
    7
 10
1283.7639348197968
 20
1095.573011140031
 11
1277.9139348197964
 21
1095.573011140031
  0
LINE
  8
_0-0_
  6
CONTINUOUS
 62
    7
 10
1318.0839348197956
 20
1099.4730111400324
 11
1318.0839348197956
 21
1082.3130111400326
  0
ARC
  8
_0-0_
  6
CONTINUOUS
 62
    7
 10
1322.5039348197956
 20
1082.3130111400326
 40
4.4199999999998223
 50
179.99999999999611
 51
269.99999999999608
  0
LINE
  8
_0-0_
  6
CONTINUOUS
 62
    7
 10
1322.5039348197956
 20
1077.8930111400307
 11
1337.0639348197942
 21
1077.8930111400307
  0
LINE
  8
_0-0_
  6
CONTINUOUS
 62
    7
 10
1337.0639348197942
 20
1077.8930111400307
 11
1337.0639348197942
 21
1069.0530111400305
  0
LINE
  8
_0-0_
  6
CONTINUOUS
 62
    7
 10
1337.0639348197942
 20
1069.0530111400305
 11
1322.5039348197956
 21
1069.0530111400305
  0
ARC
  8
_0-0_
  6
CONTINUOUS
 62
    7
 10
1322.5039348197956
 20
1082.3130111400326
 40
13.260000000000053
 50
179.99999999999869
 51
269.99999999999881
  0
LINE
  8
_0-0_
  6
CONTINUOUS
 62
    7
 10
1309.2439348197945
 20
1082.3130111400326
 11
1309.2439348197945
 21
1099.4730111400324
  0
ARC
  8
_0-0_
  6
CONTINUOUS
 62
    7
 10
1088.3640285127881
 20
1105.9730111400324
 40
6.5000000000001066
 50
183.63572767233612
 51
269.99999999999739
  0
LINE
  8
_0-0_
  6
CONTINUOUS
 62
    7
 10
1084.2139348197966
 20
1109.7690111400309
 11
1088.8842143452507
 21
1110.7559573321535
  0
ARC
  8
_0-0_
  6
CONTINUOUS
 62
    7
 10
1095.2639348197968
 20
1130.8820649479105
 40
21.113053807878593
 50
252.41204622600637
 51
287.5879537739936
  0
LINE
  8
_0-0_
  6
CONTINUOUS
 62
    7
 10
1101.6436552943428
 20
1110.7559573321535
 11
1106.3139348197969
 21
1109.7690111400309
  0
LINE
  8
_0-0_
  6
CONTINUOUS
 62
    7
 10
1082.5044938707047
 20
1118.323011140031
 11
1082.5044938707047
 21
1110.7559573321535
  0
LINE
  8
_0-0_
  6
CONTINUOUS
 62
    7
 10
1082.5044938707047
 20
1110.7559573321535
 11
1084.2139348197966
 21
1109.7690111400309
  0
LINE
  8
_0-0_
  6
CONTINUOUS
 62
    7
 10
1084.2139348197966
 20
1109.7690111400309
 11
1106.3139348197969
 21
1109.7690111400309
  0
LINE
  8
_0-0_
  6
CONTINUOUS
 62
    7
 10
1106.3139348197969
 20
1109.7690111400309
 11
1108.0233757688861
 21
1110.7559573321535
  0
LINE
  8
_0-0_
  6
CONTINUOUS
 62
    7
 10
1108.0233757688861
 20
1110.7559573321535
 11
1108.0233757688861
 21
1118.323011140031
  0
LINE
  8
_0-0_
  6
CONTINUOUS
 62
    7
 10
1108.0233757688861
 20
1118.323011140031
 11
1082.5044938707047
 21
1118.323011140031
  0
ARC
  8
_0-0_
  6
CONTINUOUS
 62
    7
 10
1084.2139348197966
 20
1117.0230111400317
 40
2.6000000000000001
 50
90
 51
180
  0
LINE
  8
_0-0_
  6
CONTINUOUS
 62
    7
 10
1084.2139348197966
 20
1119.6230111400339
 11
1087.4639348197966
 21
1119.6230111400339
  0
LINE
  8
_0-0_
  6
CONTINUOUS
 62
    7
 10
1087.4639348197966
 20
1119.6230111400339
 11
1087.4639348197948
 21
1124.823011140031
  0
LINE
  8
_0-0_
  6
CONTINUOUS
 62
    7
 10
1087.4639348197948
 20
1124.823011140031
 11
1086.8139348197969
 21
1124.823011140031
  0
LINE
  8
_0-0_
  6
CONTINUOUS
 62
    7
 10
1086.8139348197969
 20
1124.823011140031
 11
1082.9139348197964
 21
1126.641611006836
  0
ARC
  8
_0-0_
  6
CONTINUOUS
 62
    7
 10
1081.7295650612264
 20
1127.1775851433242
 40
1.2999999999999889
 50
244.99999999999474
 51
335.65136810176409
  0
LINE
  8
_0-0_
  6
CONTINUOUS
 62
    7
 10
1081.1801613209641
 20
1125.9993850201765
 11
1027.5292556803065
 21
1151.0172131873671
  0
ARC
  8
_0-0_
  6
CONTINUOUS
 62
    7
 10
1016.5411808750492
 20
1127.4532107244133
 40
25.999999999998103
 50
65.000000000001222
 51
83.157226587371255
  0
LINE
  8
_0-0_
  6
CONTINUOUS
 62
    7
 10
958.11393481979724
 20
1148.8730111400339
 11
965.91393481979651
 21
1148.8730111400339
  0
ARC
  8
_0-0_
  6
CONTINUOUS
 62
    7
 10
972.89377395360737
 20
1145.3913670361446
 40
7.7999999999995007
 50
83.157226587367944
 51
153.48931958128696
  0
LINE
  8
_0-0_
  6
CONTINUOUS
 62
    7
 10
973.82310667442982
 20
1153.1358063763448
 11
1018.9729348278703
 21
1147.7178269979315
  0
ARC
  8
_0-0_
  6
CONTINUOUS
 62
    7
 10
1016.5411808750474
 20
1127.4532107244133
 40
20.409999999999183
 50
64.999999999997172
 51
83.15722658736712
  0
LINE
  8
_0-0_
  6
CONTINUOUS
 62
    7
 10
1025.1668195971747
 20
1145.9509526578306
 11
1070.9359830574672
 21
1124.6084412289504
  0
ARC
  8
_0-0_
  6
CONTINUOUS
 62
    7
 10
1068.1889643561549
 20
1118.7174406132083
 40
6.4999999999995151
 50
3.1676287693983731
 51
65.000000000008328
  0
LINE
  8
_0-0_
  6
CONTINUOUS
 62
    7
 10
1074.6790332863925
 20
1119.0766136644681
 11
1075.424089499797
 21
1105.6138380887762
  0
ARC
  8
_0-0_
  6
CONTINUOUS
 62
    7
 10
1081.9141584300364
 20
1105.9730111400324
 40
6.5000000000003331
 50
183.16762876939401
 51
270.00000000000261
  0
LINE
  8
_0-0_
  6
CONTINUOUS
 62
    7
 10
1081.9141584300364
 20
1099.4730111400324
 11
1100.4639348197966
 21
1099.4730111400324
  0
LINE
  8
_0-0_
  6
CONTINUOUS
 62
    7
 10
1100.4639348197966
 20
1099.4730111400324
 11
1101.7639348197968
 21
1095.573011140031
  0
LINE
  8
_0-0_
  6
CONTINUOUS
 62
    7
 10
1101.7639348197968
 20
1095.573011140031
 11
1108.2639348197968
 21
1095.573011140031
  0
LINE
  8
_0-0_
  6
CONTINUOUS
 62
    7
 10
1108.2639348197968
 20
1095.573011140031
 11
1110.7021314482877
 21
1059.0000617126691
  0
ARC
  8
_0-0_
  6
CONTINUOUS
 62
    7
 10
1113.296372858716
 20
1059.1730111400332
 40
2.5999999999999157
 50
183.8140748342849
 51
269.99999999999352
  0
LINE
  8
_0-0_
  6
CONTINUOUS
 62
    7
 10
1113.2963728587133
 20
1056.573011140031
 11
1119.2944348197966
 21
1056.573011140031
  0
LINE
  8
_0-0_
  6
CONTINUOUS
 62
    7
 10
1119.2944348197966
 20
1056.573011140031
 11
1121.306324235888
 21
1058.5230111400317
  0
LINE
  8
_0-0_
  6
CONTINUOUS
 62
    7
 10
1121.306324235888
 20
1058.5230111400317
 11
1122.0985117358882
 21
1083.8730111400339
  0
LINE
  8
_0-0_
  6
CONTINUOUS
 62
    7
 10
1122.0985117358882
 20
1083.8730111400339
 11
1120.6139348197971
 21
1083.8730111400339
  0
ARC
  8
_0-0_
  6
CONTINUOUS
 62
    7
 10
1120.6139348197971
 20
1087.7730111400317
 40
3.9000000000000004
 50
180
 51
270
  0
LINE
  8
_0-0_
  6
CONTINUOUS
 62
    7
 10
1116.7139348197966
 20
1087.7730111400317
 11
1116.7139348197966
 21
1095.573011140031
  0
ARC
  8
_0-0_
  6
CONTINUOUS
 62
    7
 10
1120.6139348197971
 20
1095.573011140031
 40
3.9000000000000004
 50
90
 51
180
  0
LINE
  8
_0-0_
  6
CONTINUOUS
 62
    7
 10
1120.6139348197971
 20
1099.4730111400324
 11
1123.8639348197971
 21
1099.4730111400324
  0
LINE
  8
_0-0_
  6
CONTINUOUS
 62
    7
 10
1123.8639348197971
 20
1099.4730111400324
 11
1123.8639348197971
 21
1105.323011140031
  0
LINE
  8
_0-0_
  6
CONTINUOUS
 62
    7
 10
1123.8639348197971
 20
1105.323011140031
 11
1084.2139348197966
 21
1105.323011140031
  0
ARC
  8
_0-0_
  6
CONTINUOUS
 62
    7
 10
1084.2139348197966
 20
1107.9230111400332
 40
2.5999999999998522
 50
179.9999999999967
 51
270
  0
LINE
  8
_0-0_
  6
CONTINUOUS
 62
    7
 10
1081.6139348197971
 20
1107.9230111400332
 11
1081.6139348197971
 21
1117.0230111400317
  0
LINE
  8
_0-0_
  6
CONTINUOUS
 62
    7
 10
1101.7639348197968
 20
1095.573011140031
 11
1107.6139348197971
 21
1095.573011140031
  0
LINE
  8
_0-0_
  6
CONTINUOUS
 62
    7
 10
1426.7914442751276
 20
1160.077840944062
 11
1427.4139348197946
 21
1148.8730111400339
  0
LINE
  8
_0-0_
  6
CONTINUOUS
 62
    7
 10
1365.8889130284647
 20
1153.2680085250734
 11
1422.6375165200648
 21
1160.077840944062
  0
LINE
  8
_0-0_
  6
CONTINUOUS
 62
    7
 10
1422.6375165200648
 20
1160.077840944062
 11
1426.7914442751276
 21
1160.077840944062
  0
LINE
  8
_0-0_
  6
CONTINUOUS
 62
    7
 10
958.73642536446425
 20
1160.077840944062
 11
958.11393481979724
 21
1148.8730111400339
  0
LINE
  8
_0-0_
  6
CONTINUOUS
 62
    7
 10
1019.6389566111289
 20
1153.2680085250734
 11
962.89035311952887
 21
1160.077840944062
  0
LINE
  8
_0-0_
  6
CONTINUOUS
 62
    7
 10
958.73642536446425
 20
1160.077840944062
 11
962.89035311952887
 21
1160.077840944062
  0
LINE
  8
_0-0_
  6
CONTINUOUS
 62
    7
 10
958.73642536446425
 20
1160.077840944062
 11
887.2364253644638
 21
1160.077840944062
  0
LINE
  8
_0-0_
  6
CONTINUOUS
 62
    7
 10
1464.4722450695313
 20
926.57301114003099
 11
1498.2914442751276
 21
960.39221034562911
  0
LINE
  8
_0-0_
  6
CONTINUOUS
 62
    7
 10
1473.6646332249552
 20
926.57301114003099
 11
1498.2914442751276
 21
951.19982219020426
  0
LINE
  8
_0-0_
  6
CONTINUOUS
 62
    2
 10
1120.455497319796
 20
1093.7270111400078
 11
1118.6834099203438
 21
1037.0202143575673
  0
LINE
  8
_0-0_
  6
CONTINUOUS
 62
    2
 10
1118.6834099203438
 20
1037.0202143575673
 11
1120.6414370290427
 21
1038.1506818358514
  0
LINE
  8
_0-0_
  6
CONTINUOUS
 62
    2
 10
1122.378197319797
 20
1093.7270111400078
 11
1120.6414370290427
 21
1038.1506818358514
  0
LINE
  8
_0-0_
  6
CONTINUOUS
 62
    2
 10
1101.7639348197968
 20
1095.573011140031
 11
1101.7639348197968
 21
926.57301114003099
  0
LINE
  8
_0-0_
  6
CONTINUOUS
 62
    2
 10
1107.6139348197971
 20
1095.573011140031
 11
1107.6139348197971
 21
926.57301114003099
  0
LINE
  8
_0-0_
  6
CONTINUOUS
 62
    2
 10
1264.8864326105509
 20
1038.1506818358514
 11
1266.8444597192479
 21
1037.0202143575636
  0
LINE
  8
_0-0_
  6
CONTINUOUS
 62
    2
 10
1266.8444597192479
 20
1037.0202143575636
 11
1265.0723723197966
 21
1093.7270111400078
  0
LINE
  8
_0-0_
  6
CONTINUOUS
 62
    2
 10
1263.1496723197965
 20
1093.7270111400078
 11
1264.8864326105509
 21
1038.1506818358514
  0
LINE
  8
_0-0_
  6
CONTINUOUS
 62
    2
 10
1266.8639348197971
 20
1036.3970111400351
 11
1266.8639348197971
 21
891.13620736748021
  0
LINE
  8
_0-0_
  6
CONTINUOUS
 62
    2
 10
1277.2639348197968
 20
1095.573011140031
 11
1277.2639348197968
 21
926.57301114003099
  0
LINE
  8
_0-0_
  6
CONTINUOUS
 62
    2
 10
1283.7639348197968
 20
1095.573011140031
 11
1283.7639348197968
 21
926.57301114003099
  0
LINE
  8
_0-0_
  6
CONTINUOUS
 62
    3
 10
1465.7914442751276
 20
1160.077840944062
 11
1465.7914442751276
 21
1167.8778409440649
  0
LINE
  8
_0-0_
  6
CONTINUOUS
 62
    3
 10
1465.7914442751276
 20
1167.8778409440649
 11
1498.2914442751276
 21
1167.8778409440649
  0
LINE
  8
_0-0_
  6
CONTINUOUS
 62
    3
 10
919.73642536446425
 20
1167.8778409440649
 11
919.73642536446425
 21
1160.077840944062
  0
LINE
  8
_0-0_
  6
CONTINUOUS
 62
    3
 10
919.73642536446425
 20
1167.8778409440649
 11
887.2364253644638
 21
1167.8778409440649
  0
LINE
  8
_0-0_
  6
DASHED2
 62
    5
 10
919.73642536446425
 20
1171.7778409440627
 11
887.2364253644638
 21
1171.7778409440627
  0
LINE
  8
_0-0_
  6
DASHED2
 62
    5
 10
984.73642536446425
 20
1161.3842919080209
 11
963.12351673077103
 21
1163.9778409440635
  0
LINE
  8
_0-0_
  6
DASHED2
 62
    5
 10
919.73642536446425
 20
1171.7778409440627
 11
927.53642536446444
 21
1163.9778409440635
  0
LINE
  8
_0-0_
  6
DASHED2
 62
    5
 10
927.53642536446444
 20
1163.9778409440635
 11
963.12351673077103
 21
1163.9778409440635
  0
LINE
  8
_0-0_
  6
DASHED2
 62
    5
 10
1422.4043529088226
 20
1163.9778409440635
 11
1457.9914442751274
 21
1163.9778409440635
  0
LINE
  8
_0-0_
  6
DASHED2
 62
    5
 10
1465.7914442751276
 20
1171.7778409440627
 11
1457.9914442751274
 21
1163.9778409440635
  0
LINE
  8
_0-0_
  6
DASHED2
 62
    5
 10
1465.7914442751276
 20
1171.7778409440627
 11
1498.2914442751276
 21
1171.7778409440627
  0
LINE
  8
_0-0_
  6
DASHED2
 62
    5
 10
1400.7914442751276
 20
1161.3842919080209
 11
1422.4043529088226
 21
1163.9778409440635
  0
ARC
  8
_0-0_
  6
CONTINUOUS
 62
    4
 10
1016.5411808750492
 20
1127.4532107244133
 40
37.699999999998106
 50
65.000000000000753
 51
83.157226587368996
  0
ARC
  8
_0-0_
  6
CONTINUOUS
 62
    4
 10
1368.9866887645426
 20
1127.4532107244133
 40
37.699999999998106
 50
96.84277341263099
 51
114.99999999999869
  0
LINE
  8
_0-0_
  6
CONTINUOUS
 62
    4
 10
1080.9741005813798
 20
1133.8811709428785
 11
1082.9139348197982
 21
1126.641611006836
  0
ARC
  8
_0-0_
  6
CONTINUOUS
 62
    4
 10
1068.4170648396216
 20
1130.5165233565469
 40
13
 50
14.999999999997591
 51
64.999999999999645
  0
LINE
  8
_0-0_
  6
CONTINUOUS
 62
    4
 10
1073.9111022422508
 20
1142.2985245880238
 11
1032.4738893426725
 21
1161.6210142956963
  0
LINE
  8
_0-0_
  6
CONTINUOUS
 62
    4
 10
1304.5537690582137
 20
1133.8811709428821
 11
1302.6139348197944
 21
1126.641611006836
  0
ARC
  8
_0-0_
  6
CONTINUOUS
 62
    4
 10
1317.1108047999719
 20
1130.5165233565469
 40
13
 50
114.9999999999991
 51
164.99999999999758
  0
LINE
  8
_0-0_
  6
CONTINUOUS
 62
    4
 10
1311.6167673973428
 20
1142.2985245880238
 11
1353.0539802969201
 21
1161.6210142956963
  0
LINE
  8
_0-0_
  6
CONTINUOUS
 62
    7
 10
1149.0711742852586
 20
1332.6639348183974
 11
1137.5306832402916
 21
1222.8537116964374
  0
LINE
  8
_0-0_
  6
CONTINUOUS
 62
    7
 10
1150.5129571376478
 20
1332.6639348183974
 11
1139.3818952134275
 21
1222.8537116964374
  0
LINE
  8
_0-0_
  6
CONTINUOUS
 62
    7
 10
1154.2812186261212
 20
1332.6639348183974
 11
1143.6613645988932
 21
1222.8537116964374
  0
LINE
  8
_0-0_
  6
CONTINUOUS
 62
    7
 10
1158.3870686854775
 20
1332.6639348183974
 11
1149.6318598408166
 21
1222.8537116964374
  0
LINE
  8
_0-0_
  6
CONTINUOUS
 62
    7
 10
1165.3499078325717
 20
1332.6639348183974
 11
1157.5359636702774
 21
1222.8537116964374
  0
LINE
  8
_0-0_
  6
CONTINUOUS
 62
    7
 10
1171.4947463371705
 20
1332.6639348183974
 11
1166.4692400052022
 21
1222.8537116964374
  0
LINE
  8
_0-0_
  6
CONTINUOUS
 62
    7
 10
1168.9487182066537
 20
1330.1464797465389
 11
1164.2573457539088
 21
1222.8537116964374
  0
LINE
  8
_0-0_
  6
CONTINUOUS
 62
    7
 10
1187.8404644738316
 20
1332.6639348183974
 11
1187.1765516632954
 21
1222.8537116964374
  0
LINE
  8
_0-0_
  6
CONTINUOUS
 62
    7
 10
1180.5921343850173
 20
1332.6639348183974
 11
1176.6411280310199
 21
1222.8537116964374
  0
LINE
  8
_0-0_
  6
CONTINUOUS
 62
    7
 10
1123.4073140410105
 20
1222.8537116964374
 11
1137.328620373341
 21
1330.1464797465389
  0
LINE
  8
_0-0_
  6
CONTINUOUS
 62
    7
 10
1137.5306832402916
 20
1222.8537116964374
 11
1148.7946513665706
 21
1332.6639348183974
  0
ARC
  8
_0-0_
  6
CONTINUOUS
 62
    7
 10
1188.4641318776635
 20
1328.7398599685996
 40
39.587920775204189
 50
124.68969967770408
 51
174.31132682798057
  0
ARC
  8
_0-0_
  6
CONTINUOUS
 62
    7
 10
1195.2616958768654
 20
1327.0259273529566
 40
45.102513754016279
 50
130.5611149858679
 51
172.81899678837351
  0
ARC
  8
_0-0_
  6
CONTINUOUS
 62
    7
 10
1239.5689648300063
 20
1315.8072659379297
 40
82.91349436229693
 50
146.73123202862931
 51
168.26974837793162
  0
ARC
  8
_0-0_
  6
CONTINUOUS
 62
    7
 10
1237.7315995455569
 20
1326.2341991103979
 40
68.894054206858144
 50
149.4127934948398
 51
176.7445983295145
  0
LINE
  8
_0-0_
  6
CONTINUOUS
 62
    7
 10
1170.0139348197968
 20
1374.0149249605176
 11
1163.5139348197968
 21
1361.2909641474155
  0
ARC
  8
_0-0_
  6
CONTINUOUS
 62
    7
 10
1192.7639348197968
 20
1328.1537116964366
 40
44.200000000000003
 50
90
 51
174.1432732788721
  0
ARC
  8
_0-0_
  6
CONTINUOUS
 62
    7
 10
1192.7639348197968
 20
1322.9537116964359
 40
55.899999999999999
 50
114.01505955209538
 51
172.60713762184369
  0
ARC
  8
_0-0_
  6
CONTINUOUS
 62
    7
 10
1192.7639348197968
 20
1322.9537116964359
 40
55.899999999999999
 50
90
 51
114.01505955209539
  0
ARC
  8
_0-0_
  6
CONTINUOUS
 62
    7
 10
1228.7237548474718
 20
1313.2728829614364
 40
76.926614972885872
 50
142.6419447561469
 51
165.39983884082369
  0
ARC
  8
_0-0_
  6
CONTINUOUS
 62
    7
 10
1229.5665233736504
 20
1324.9307064074867
 40
64.680573074195664
 50
147.21812883023429
 51
173.13327334519269
  0
ARC
  8
_0-0_
  6
CONTINUOUS
 62
    7
 10
1256.9949980029055
 20
1327.7092583254646
 40
85.643691268262529
 50
157.8848313247052
 51
176.68346097942035
  0
LINE
  8
_0-0_
  6
CONTINUOUS
 62
    7
 10
1188.6604921029016
 20
1359.9514995716283
 11
1187.8404644738316
 21
1332.6639348183974
  0
ARC
  8
_0-0_
  6
CONTINUOUS
 62
    7
 10
1251.7880178996688
 20
1334.0115421393541
 40
71.208636238336283
 50
158.63665544024138
 51
181.08437439111992
  0
ARC
  8
_0-0_
  6
CONTINUOUS
 62
    7
 10
1170.6676553501252
 20
1357.0655440158419
 40
4.2278941523737537
 50
95.923695623685006
 51
136.95294075373349
  0
ARC
  8
_0-0_
  6
CONTINUOUS
 62
    7
 10
1178.2768269128824
 20
1357.0655440158419
 40
4.2278941523732207
 50
88.008350953769693
 51
136.95294075373349
  0
ARC
  8
_0-0_
  6
CONTINUOUS
 62
    7
 10
1187.066343112358
 20
1359.6726024407265
 40
1.6183617066894889
 50
9.923492499975378
 51
170.0765075000246
  0
LINE
  8
_0-0_
  6
CONTINUOUS
 62
    7
 10
1123.4073140410105
 20
1222.8537116964374
 11
1137.5306832402916
 21
1222.8537116964374
  0
LINE
  8
_0-0_
  6
CONTINUOUS
 62
    7
 10
1187.4782965233703
 20
1205.9537116964359
 11
1173.6720016679051
 21
1205.9537116964359
  0
LINE
  8
_0-0_
  6
CONTINUOUS
 62
    7
 10
1134.1698581279502
 20
1205.9537116950571
 11
1127.2695218552067
 21
1150.4258042888807
  0
LINE
  8
_0-0_
  6
CONTINUOUS
 62
    7
 10
1121.158529414402
 20
1205.9537116964359
 11
1113.5746826138607
 21
1149.8332453724263
  0
LINE
  8
_0-0_
  6
CONTINUOUS
 62
    7
 10
1127.061702658008
 20
1205.9537116950571
 11
1119.3719883317585
 21
1149.049825680818
  0
LINE
  8
_0-0_
  6
CONTINUOUS
 62
    7
 10
1039.6269374093467
 20
1173.748425452691
 11
1040.6245932835368
 21
1165.0037116964352
  0
LINE
  8
_0-0_
  6
CONTINUOUS
 62
    7
 10
1045.4190143569299
 20
1176.0537116964344
 11
1052.0154781225733
 21
1176.0537116964344
  0
LINE
  8
_0-0_
  6
CONTINUOUS
 62
    7
 10
1036.4759837138449
 20
1176.0537116964344
 11
1037.0436945245451
 21
1176.0537116964344
  0
LINE
  8
_0-0_
  6
CONTINUOUS
 62
    7
 10
1127.467490101983
 20
1205.9537116950571
 11
1123.4862374019181
 21
1205.9537116950571
  0
LINE
  8
_0-0_
  6
CONTINUOUS
 62
    7
 10
1077.4447866388105
 20
1165.0037116964352
 11
1048.1374485598167
 21
1165.0037116964352
  0
LINE
  8
_0-0_
  6
CONTINUOUS
 62
    7
 10
1030.2639348197968
 20
1163.7990839015777
 11
1030.2639348197968
 21
1163.9383481744092
  0
LINE
  8
_0-0_
  6
CONTINUOUS
 62
    7
 10
1111.1565184832257
 20
1148.7537116964352
 11
1075.4728307418186
 21
1148.7537116964352
  0
LINE
  8
_0-0_
  6
CONTINUOUS
 62
    7
 10
1083.9676961547498
 20
1165.0037116964352
 11
1088.7639348197968
 21
1165.0037116964352
  0
LINE
  8
_0-0_
  6
CONTINUOUS
 62
    7
 10
1083.9676961547498
 20
1165.0037116964352
 11
1081.9043480371188
 21
1165.0037116964352
  0
LINE
  8
_0-0_
  6
CONTINUOUS
 62
    7
 10
1101.7639348197968
 20
1138.3537116964337
 11
1192.7639348197968
 21
1138.3537116964337
  0
LINE
  8
_0-0_
  6
CONTINUOUS
 62
    7
 10
1104.3639348198744
 20
1148.7537116964352
 11
1103.0639348198752
 21
1138.3537116964337
  0
LINE
  8
_0-0_
  6
CONTINUOUS
 62
    7
 10
1101.7639348197968
 20
1165.0037116964352
 11
1115.6247456306178
 21
1165.0037116964352
  0
ARC
  8
_0-0_
  6
CONTINUOUS
 62
    7
 10
1111.1565184832257
 20
1151.3537116964337
 40
2.6000000000000001
 50
270
 51
352.30394827797369
  0
LINE
  8
_0-0_
  6
CONTINUOUS
 62
    7
 10
1151.9207892652007
 20
1205.9537116950571
 11
1147.1108928600065
 21
1150.4258042888807
  0
LINE
  8
_0-0_
  6
CONTINUOUS
 62
    7
 10
1136.0749754747308
 20
1150.4258042888807
 11
1141.6521656954224
 21
1205.9537116950571
  0
LINE
  8
_0-0_
  6
CONTINUOUS
 62
    7
 10
1157.5359636702774
 20
1222.8537116964374
 11
1166.4692400052022
 21
1222.8537116964374
  0
LINE
  8
_0-0_
  6
CONTINUOUS
 62
    7
 10
1143.6613645988932
 20
1222.8537116964374
 11
1149.6318598408166
 21
1222.8537116964374
  0
LINE
  8
_0-0_
  6
CONTINUOUS
 62
    7
 10
1137.5306832402916
 20
1222.8537116964374
 11
1139.3818952134275
 21
1222.8537116964374
  0
LINE
  8
_0-0_
  6
CONTINUOUS
 62
    7
 10
1141.6521656954224
 20
1205.9537116950571
 11
1134.1698581279502
 21
1205.9537116950571
  0
LINE
  8
_0-0_
  6
CONTINUOUS
 62
    7
 10
1162.0016749803431
 20
1205.9537116950571
 11
1151.9207892652007
 21
1205.9537116950571
  0
LINE
  8
_0-0_
  6
CONTINUOUS
 62
    7
 10
1174.5980065262397
 20
1205.9537116950571
 11
1186.0615667937795
 21
1205.9537116950571
  0
LINE
  8
_0-0_
  6
CONTINUOUS
 62
    7
 10
1176.6411280310199
 20
1222.8537116964374
 11
1187.1765516632954
 21
1222.8537116964374
  0
LINE
  8
_0-0_
  6
CONTINUOUS
 62
    7
 10
1186.5162954115572
 20
1176.0537116964344
 11
1172.4741670128537
 21
1176.0537116964344
  0
LINE
  8
_0-0_
  6
CONTINUOUS
 62
    7
 10
1156.0140552613234
 20
1165.0037116964352
 11
1148.3736493316642
 21
1165.0037116964352
  0
LINE
  8
_0-0_
  6
CONTINUOUS
 62
    7
 10
1156.0140552613234
 20
1165.0037116964352
 11
1148.3736493316642
 21
1165.0037116964352
  0
LINE
  8
_0-0_
  6
CONTINUOUS
 62
    7
 10
1156.0140552613234
 20
1165.0037116964352
 11
1148.3736493316642
 21
1165.0037116964352
  0
LINE
  8
_0-0_
  6
CONTINUOUS
 62
    7
 10
1148.3736493316642
 20
1165.0037116964352
 11
1158.484522661201
 21
1165.0037116964352
  0
LINE
  8
_0-0_
  6
CONTINUOUS
 62
    7
 10
1172.0314889881588
 20
1165.0037116964352
 11
1186.3529681655968
 21
1165.0037116964352
  0
LINE
  8
_0-0_
  6
CONTINUOUS
 62
    7
 10
1169.6016767886263
 20
1144.2037116964359
 11
1178.8610022639637
 21
1144.2037116964359
  0
LINE
  8
_0-0_
  6
CONTINUOUS
 62
    7
 10
1122.563934819806
 20
1216.3537116964374
 11
1121.1585294137735
 21
1205.9537116917793
  0
LINE
  8
_0-0_
  6
CONTINUOUS
 62
    7
 10
1122.563934819806
 20
1216.3537116964374
 11
1131.6639348197964
 21
1216.3537116964374
  0
LINE
  8
_0-0_
  6
CONTINUOUS
 62
    7
 10
1127.7644053608979
 20
1211.1537116964366
 11
1127.0617026578179
 21
1205.9537116936565
  0
LINE
  8
_0-0_
  6
CONTINUOUS
 62
    7
 10
1127.7639348197968
 20
1216.3537116964374
 11
1122.5639348197969
 21
1216.3537116964374
  0
LINE
  8
_0-0_
  6
CONTINUOUS
 62
    7
 10
1123.4073140410105
 20
1222.8537116964374
 11
1137.5306832402916
 21
1222.8537116964374
  0
LINE
  8
_0-0_
  6
CONTINUOUS
 62
    7
 10
1122.5639348197969
 20
1216.3537116964374
 11
1123.4073140410105
 21
1222.8537116964374
  0
LINE
  8
_0-0_
  6
CONTINUOUS
 62
    7
 10
1135.7971373470041
 20
1205.9537116964359
 11
1137.5306832402916
 21
1222.8537116964374
  0
LINE
  8
_0-0_
  6
CONTINUOUS
 62
    7
 10
1130.3639348197971
 20
1216.3537116944983
 11
1131.6639348197964
 21
1211.1537116964366
  0
LINE
  8
_0-0_
  6
CONTINUOUS
 62
    7
 10
1131.6639348197964
 20
1216.3537116964374
 11
1131.6639348197964
 21
1209.8537116964374
  0
LINE
  8
_0-0_
  6
CONTINUOUS
 62
    7
 10
1131.6639348197964
 20
1209.8537116964374
 11
1128.9826848197968
 21
1209.8537116964374
  0
LINE
  8
_0-0_
  6
CONTINUOUS
 62
    7
 10
1129.7139348197966
 20
1205.9537116945005
 11
1135.7971373470041
 21
1205.9537116964359
  0
LINE
  8
_0-0_
  6
CONTINUOUS
 62
    7
 10
1131.6639348197964
 20
1211.1537116964366
 11
1127.7639348197968
 21
1211.1537116964366
  0
LINE
  8
_0-0_
  6
CONTINUOUS
 62
    7
 10
1187.4782965233703
 20
1205.9537116964359
 11
1186.6575526147039
 21
1150.4258042888807
  0
LINE
  8
_0-0_
  6
CONTINUOUS
 62
    7
 10
1173.6720016679051
 20
1205.9537116964359
 11
1171.447478195822
 21
1150.4258042888807
  0
LINE
  8
_0-0_
  6
CONTINUOUS
 62
    7
 10
1163.7382510614075
 20
1205.9537116964359
 11
1159.9712336002381
 21
1150.4258042888807
  0
LINE
  8
_0-0_
  6
CONTINUOUS
 62
    7
 10
1145.2650914528117
 20
1144.2037116964359
 11
1151.9182243419277
 21
1144.2037116964359
  0
ARC
  8
_0-0_
  6
CONTINUOUS
 62
    7
 10
1107.1332318161917
 20
1150.7037116964359
 40
12.350000000000149
 50
270
 51
352.30394827797369
  0
ARC
  8
_0-0_
  6
CONTINUOUS
 62
    7
 10
1174.3106798335989
 20
1150.7037116964359
 40
12.35
 50
270
 51
358.71058577614161
  0
ARC
  8
_0-0_
  6
CONTINUOUS
 62
    7
 10
1159.1006054147133
 20
1150.7037116964359
 40
12.35
 50
270
 51
358.71058577614161
  0
ARC
  8
_0-0_
  6
CONTINUOUS
 62
    7
 10
1147.6243608191312
 20
1150.7037116964359
 40
12.35
 50
270
 51
358.71058577614161
  0
ARC
  8
_0-0_
  6
CONTINUOUS
 62
    7
 10
1134.7640200788987
 20
1150.7037116964359
 40
12.35
 50
270
 51
358.71058577614161
  0
ARC
  8
_0-0_
  6
CONTINUOUS
 62
    7
 10
1123.7281026936257
 20
1150.7037116964359
 40
12.35
 50
270
 51
358.71058577614161
  0
ARC
  8
_0-0_
  6
CONTINUOUS
 62
    7
 10
1114.9226490741016
 20
1150.7037116964359
 40
12.35
 50
270
 51
358.71058577614161
  0
ARC
  8
_0-0_
  6
CONTINUOUS
 62
    7
 10
1178.1882580580864
 20
1152.3540612785011
 40
8.1780671968643137
 50
274.7185977701306
 51
346.41755953320228
  0
ARC
  8
_0-0_
  6
CONTINUOUS
 62
    7
 10
1150.623266029816
 20
1150.9752394952895
 40
6.8942371413215797
 50
280.82628882966117
 51
356.82157643817345
  0
ARC
  8
_0-0_
  6
CONTINUOUS
 62
    7
 10
1125.4374471382339
 20
1150.9878075613462
 40
6.5
 50
271.39298688023382
 51
358.71058577614156
  0
LINE
  8
_0-0_
  6
CONTINUOUS
 62
    7
 10
1131.9358012335547
 20
1150.8415405047392
 11
1137.4712351544299
 21
1205.9537116964359
  0
LINE
  8
_0-0_
  6
CONTINUOUS
 62
    7
 10
1161.2625737751655
 20
1205.9537116950571
 11
1157.5068978670865
 21
1150.5929850124169
  0
LINE
  8
_0-0_
  6
CONTINUOUS
 62
    7
 10
1186.9583533163836
 20
1205.9613968450369
 11
1186.1376094077191
 21
1150.4334894374817
  0
LINE
  8
_0-0_
  6
CONTINUOUS
 62
    7
 10
1129.2020741665096
 20
1205.9537116964359
 11
1121.2251011056783
 21
1150.5574446398289
  0
ARC
  8
_0-0_
  6
CONTINUOUS
 62
    7
 10
1108.8618696550116
 20
1150.7037116964359
 40
12.35
 50
270
 51
358.71058577614161
  0
ARC
  8
_0-0_
  6
CONTINUOUS
 62
    7
 10
1156.0140552613234
 20
1171.5037116964352
 40
6.5
 50
270
 51
292.66298872746898
  0
LINE
  8
_0-0_
  6
CONTINUOUS
 62
    7
 10
1163.7382510614075
 20
1205.9537116964359
 11
1151.9207892653199
 21
1205.9537116964359
  0
LINE
  8
_0-0_
  6
CONTINUOUS
 62
    7
 10
1141.6521656955624
 20
1205.9537116964359
 11
1121.158529414402
 21
1205.9537116964359
  0
LINE
  8
_0-0_
  6
CONTINUOUS
 62
    7
 10
1136.8639348197971
 20
1216.3537116964374
 11
1192.7639348197968
 21
1216.3537116964374
  0
LINE
  8
_0-0_
  6
CONTINUOUS
 62
    7
 10
1129.7139348197966
 20
1205.9537116964359
 11
1128.9826848197968
 21
1209.8537116964374
  0
LINE
  8
_0-0_
  6
CONTINUOUS
 62
    7
 10
1033.8937921426063
 20
1173.7574989401085
 11
1033.2244001317817
 21
1168.0676668480967
  0
ARC
  8
_0-0_
  6
CONTINUOUS
 62
    7
 10
1036.4759837138449
 20
1173.4537116964359
 40
2.6000000000000001
 50
90
 51
173.29016319222927
  0
ARC
  8
_0-0_
  6
CONTINUOUS
 62
    7
 10
1037.0436945245451
 20
1173.4537116964359
 40
2.6000000000000001
 50
6.5085480277622443
 51
90
  0
LINE
  8
_0-0_
  6
CONTINUOUS
 62
    7
 10
1044.1431659273162
 20
1175.0031325950306
 11
1042.6537417568056
 21
1167.3843664864737
  0
LINE
  8
_0-0_
  6
CONTINUOUS
 62
    7
 10
1041.5078909340687
 20
1174.8409109199722
 11
1042.6976634078069
 21
1167.0985494012359
  0
LINE
  8
_0-0_
  6
CONTINUOUS
 62
    7
 10
1040.0944821123562
 20
1176.0537116964344
 11
1037.0436945245451
 21
1176.0537116964344
  0
ARC
  8
_0-0_
  6
CONTINUOUS
 62
    7
 10
1040.0944821123562
 20
1174.6237116964342
 40
1.4300000000000002
 50
8.7363298125760078
 51
90
  0
LINE
  8
_0-0_
  6
CONTINUOUS
 62
    7
 10
1048.1374485598167
 20
1165.0037116964352
 11
1045.1390059180362
 21
1165.0037116964352
  0
LINE
  8
_0-0_
  6
CONTINUOUS
 62
    7
 10
1049.6766658284737
 20
1173.7882573399231
 11
1049.4367887232079
 21
1166.262297450053
  0
ARC
  8
_0-0_
  6
CONTINUOUS
 62
    7
 10
1048.1374485598167
 20
1166.3037116964344
 40
1.3
 50
270
 51
358.17441302096131
  0
ARC
  8
_0-0_
  6
CONTINUOUS
 62
    7
 10
1045.1390059180362
 20
1167.4737116964327
 40
2.4699999999999998
 50
188.736329812576
 51
270
  0
LINE
  8
_0-0_
  6
CONTINUOUS
 62
    7
 10
1045.1390059180362
 20
1165.0037116964352
 11
1040.6245932835368
 21
1165.0037116964352
  0
LINE
  8
_0-0_
  6
CONTINUOUS
 62
    7
 10
1052.0154781225733
 20
1176.0537116964344
 11
1072.7946137644226
 21
1176.0537116964344
  0
ARC
  8
_0-0_
  6
CONTINUOUS
 62
    7
 10
1045.4190143569299
 20
1174.7537116964352
 40
1.3
 50
90
 51
168.93851821991191
  0
ARC
  8
_0-0_
  6
CONTINUOUS
 62
    7
 10
1052.0154781225733
 20
1173.7137116964343
 40
2.3399999999999999
 50
90
 51
178.17441302096131
  0
LINE
  8
_0-0_
  6
CONTINUOUS
 62
    7
 10
1074.0603383599141
 20
1175.0502605935228
 11
1076.1790620433171
 21
1166.0071627993432
  0
ARC
  8
_0-0_
  6
CONTINUOUS
 62
    7
 10
1072.7946137644226
 20
1174.7537116964352
 40
1.3
 50
13.186091986000131
 51
89.999999999999972
  0
LINE
  8
_0-0_
  6
CONTINUOUS
 62
    7
 10
1081.9043480371188
 20
1165.0037116964352
 11
1077.4447866388105
 21
1165.0037116964352
  0
ARC
  8
_0-0_
  6
CONTINUOUS
 62
    7
 10
1077.4447866388105
 20
1166.3037116964344
 40
1.3
 50
193.18609198600009
 51
270
  0
LINE
  8
_0-0_
  6
CONTINUOUS
 62
    7
 10
1040.6245932835368
 20
1165.0037116964352
 11
1075.4728307418186
 21
1148.7537116964352
  0
ARC
  8
_0-0_
  6
CONTINUOUS
 62
    7
 10
1031.2389348197971
 20
1164.028711696433
 40
0.9749999999999999
 50
112.7832175410836
 51
238.51591052334047
  0
ARC
  8
_0-0_
  6
CONTINUOUS
 62
    7
 10
1029.3511127749221
 20
1168.5233477136073
 40
3.9000000000000004
 50
292.78321754108367
 51
353.29016319222939
  0
LINE
  8
_0-0_
  6
CONTINUOUS
 62
    7
 10
1094.327176248747
 20
1176.0195260364428
 11
1117.1133691900782
 21
1176.0195260364428
  0
LINE
  8
_0-0_
  6
CONTINUOUS
 62
    7
 10
1102.0889348197966
 20
1148.7537116964352
 11
1102.0889348197966
 21
1150.8337116964369
  0
LINE
  8
_0-0_
  6
CONTINUOUS
 62
    7
 10
1101.6436552943428
 20
1150.8337116964369
 11
1101.6436552943428
 21
1160.2467655043122
  0
LINE
  8
_0-0_
  6
CONTINUOUS
 62
    7
 10
1094.1413004867159
 20
1174.3301695390994
 11
1093.2401422489634
 21
1169.6172920871697
  0
LINE
  8
_0-0_
  6
CONTINUOUS
 62
    7
 10
1092.8145168243914
 20
1174.8409201448242
 11
1091.4974583157205
 21
1169.6172920871697
  0
ARC
  8
_0-0_
  6
CONTINUOUS
 62
    7
 10
1094.327176248747
 20
1174.4595260364415
 40
1.5599999999999989
 50
90
 51
165.8486934949145
  0
ARC
  8
_0-0_
  6
CONTINUOUS
 62
    7
 10
1096.1842879203136
 20
1173.9395260364411
 40
2.0800000000000001
 50
90
 51
169.17503057422681
  0
LINE
  8
_0-0_
  6
CONTINUOUS
 62
    7
 10
1236.4566953543349
 20
1332.6639348183974
 11
1247.9971863993019
 21
1222.8537116964374
  0
LINE
  8
_0-0_
  6
CONTINUOUS
 62
    7
 10
1235.0149125019448
 20
1332.6639348183974
 11
1246.145974426166
 21
1222.8537116964374
  0
LINE
  8
_0-0_
  6
CONTINUOUS
 62
    7
 10
1231.2466510134695
 20
1332.6639348183974
 11
1241.8665050407003
 21
1222.8537116964374
  0
LINE
  8
_0-0_
  6
CONTINUOUS
 62
    7
 10
1227.1408009541133
 20
1332.6639348183974
 11
1235.8960097987742
 21
1222.8537116964374
  0
LINE
  8
_0-0_
  6
CONTINUOUS
 62
    7
 10
1220.1779618070191
 20
1332.6639348183974
 11
1227.9919059693161
 21
1222.8537116964374
  0
LINE
  8
_0-0_
  6
CONTINUOUS
 62
    7
 10
1214.0331233024203
 20
1332.6639348183974
 11
1219.0586296343895
 21
1222.8537116964374
  0
LINE
  8
_0-0_
  6
CONTINUOUS
 62
    7
 10
1216.5791514329399
 20
1330.1464797465389
 11
1221.2705238856829
 21
1222.8537116964374
  0
LINE
  8
_0-0_
  6
CONTINUOUS
 62
    7
 10
1197.6874051657592
 20
1332.6639348183974
 11
1198.3513179762981
 21
1222.8537116964374
  0
LINE
  8
_0-0_
  6
CONTINUOUS
 62
    7
 10
1204.9357352545762
 20
1332.6639348183974
 11
1208.8867416085718
 21
1222.8537116964374
  0
LINE
  8
_0-0_
  6
CONTINUOUS
 62
    7
 10
1262.1205555985812
 20
1222.8537116964374
 11
1248.1992492662507
 21
1330.1464797465389
  0
LINE
  8
_0-0_
  6
CONTINUOUS
 62
    7
 10
1247.9971863993019
 20
1222.8537116964374
 11
1236.7332182730229
 21
1332.6639348183974
  0
ARC
  8
_0-0_
  6
CONTINUOUS
 62
    7
 10
1197.0637377619273
 20
1328.7398599685996
 40
39.587920775204189
 50
5.6886731720193788
 51
55.310300322295873
  0
ARC
  8
_0-0_
  6
CONTINUOUS
 62
    7
 10
1190.2661737627254
 20
1327.0259273529566
 40
45.102513754016279
 50
7.1810032116265194
 51
49.43888501413209
  0
ARC
  8
_0-0_
  6
CONTINUOUS
 62
    7
 10
1145.9589048095854
 20
1315.8072659379297
 40
82.91349436229693
 50
11.730251622068332
 51
33.268767971370714
  0
ARC
  8
_0-0_
  6
CONTINUOUS
 62
    7
 10
1147.7962700940366
 20
1326.2341991103979
 40
68.894054206858144
 50
3.2554016704855222
 51
30.587206505160161
  0
LINE
  8
_0-0_
  6
CONTINUOUS
 62
    7
 10
1215.5139348197968
 20
1374.0149249605176
 11
1222.0139348197968
 21
1361.2909641474155
  0
ARC
  8
_0-0_
  6
CONTINUOUS
 62
    7
 10
1192.7639348197968
 20
1328.1537116964366
 40
44.200000000000003
 50
5.856726721127882
 51
90
  0
ARC
  8
_0-0_
  6
CONTINUOUS
 62
    7
 10
1192.7639348197968
 20
1322.9537116964359
 40
55.899999999999999
 50
7.3928623781562726
 51
65.984940447904606
  0
ARC
  8
_0-0_
  6
CONTINUOUS
 62
    7
 10
1192.7639348197968
 20
1322.9537116964359
 40
55.899999999999999
 50
65.984940447904606
 51
90
  0
ARC
  8
_0-0_
  6
CONTINUOUS
 62
    7
 10
1156.804114792119
 20
1313.2728829614364
 40
76.926614972885872
 50
14.60016115917627
 51
37.358055243853009
  0
ARC
  8
_0-0_
  6
CONTINUOUS
 62
    7
 10
1155.9613462659404
 20
1324.9307064074867
 40
64.680573074195664
 50
6.8667266548072714
 51
32.781871169765679
  0
ARC
  8
_0-0_
  6
CONTINUOUS
 62
    7
 10
1128.5328716366862
 20
1327.7092583254646
 40
85.643691268262529
 50
3.3165390205797234
 51
22.115168675294768
  0
LINE
  8
_0-0_
  6
CONTINUOUS
 62
    7
 10
1196.8673775366901
 20
1359.9514995716283
 11
1197.6874051657592
 21
1332.6639348183974
  0
ARC
  8
_0-0_
  6
CONTINUOUS
 62
    7
 10
1133.739851739922
 20
1334.0115421393541
 40
71.208636238336283
 50
358.91562560888002
 51
21.363344559758634
  0
ARC
  8
_0-0_
  6
CONTINUOUS
 62
    7
 10
1214.8602142894683
 20
1357.0655440158419
 40
4.2278941523737537
 50
43.047059246266528
 51
84.076304376315008
  0
ARC
  8
_0-0_
  6
CONTINUOUS
 62
    7
 10
1207.2510427267111
 20
1357.0655440158419
 40
4.2278941523732207
 50
43.047059246266528
 51
91.991649046230307
  0
ARC
  8
_0-0_
  6
CONTINUOUS
 62
    7
 10
1198.4615265272355
 20
1359.6726024407265
 40
1.6183617066894889
 50
9.923492499975378
 51
170.0765075000246
  0
LINE
  8
_0-0_
  6
CONTINUOUS
 62
    7
 10
1262.1205555985812
 20
1222.8537116964374
 11
1247.9971863993019
 21
1222.8537116964374
  0
LINE
  8
_0-0_
  6
CONTINUOUS
 62
    7
 10
1198.0495731162214
 20
1205.9537116964359
 11
1211.8558679716866
 21
1205.9537116964359
  0
LINE
  8
_0-0_
  6
CONTINUOUS
 62
    7
 10
1251.3580115116406
 20
1205.9537116950571
 11
1258.2583477843841
 21
1150.4258042888807
  0
LINE
  8
_0-0_
  6
CONTINUOUS
 62
    7
 10
1264.3693402251915
 20
1205.9537116964359
 11
1271.9531870257329
 21
1149.8332453724263
  0
LINE
  8
_0-0_
  6
CONTINUOUS
 62
    7
 10
1258.4661669815846
 20
1205.9537116950571
 11
1266.1558813078323
 21
1149.049825680818
  0
LINE
  8
_0-0_
  6
CONTINUOUS
 62
    7
 10
1345.9009322302468
 20
1173.748425452691
 11
1344.903276356054
 21
1165.0037116964352
  0
LINE
  8
_0-0_
  6
CONTINUOUS
 62
    7
 10
1340.1088552826636
 20
1176.0537116964344
 11
1333.5123915170193
 21
1176.0537116964344
  0
LINE
  8
_0-0_
  6
CONTINUOUS
 62
    7
 10
1349.0518859257459
 20
1176.0537116964344
 11
1348.4841751150475
 21
1176.0537116964344
  0
LINE
  8
_0-0_
  6
CONTINUOUS
 62
    7
 10
1258.0603795376087
 20
1205.9537116950571
 11
1262.0416322376755
 21
1205.9537116950571
  0
LINE
  8
_0-0_
  6
CONTINUOUS
 62
    7
 10
1294.953585744523
 20
1165.0037116964352
 11
1337.390421079775
 21
1165.0037116964352
  0
LINE
  8
_0-0_
  6
CONTINUOUS
 62
    7
 10
1300.2975324094555
 20
1144.2037116964359
 11
1278.3946378234018
 21
1144.2037116964359
  0
LINE
  8
_0-0_
  6
CONTINUOUS
 62
    7
 10
1301.5944461859149
 20
1138.3537116964337
 11
1192.763934819794
 21
1138.3537116964337
  0
ARC
  8
_0-0_
  6
CONTINUOUS
 62
    7
 10
1278.3946378234018
 20
1150.7037116964359
 40
6.5
 50
187.69605172202634
 51
270
  0
LINE
  8
_0-0_
  6
CONTINUOUS
 62
    7
 10
1294.953585744523
 20
1165.0037116964352
 11
1269.9031240089748
 21
1165.0037116964352
  0
LINE
  8
_0-0_
  6
CONTINUOUS
 62
    7
 10
1233.6070803743919
 20
1205.9537116950571
 11
1238.416976779587
 21
1150.4258042888807
  0
LINE
  8
_0-0_
  6
CONTINUOUS
 62
    7
 10
1249.4528941648618
 20
1150.4258042888807
 11
1243.8757039441684
 21
1205.9537116950571
  0
LINE
  8
_0-0_
  6
CONTINUOUS
 62
    7
 10
1227.9919059693161
 20
1222.8537116964374
 11
1219.0586296343895
 21
1222.8537116964374
  0
LINE
  8
_0-0_
  6
CONTINUOUS
 62
    7
 10
1241.8665050407003
 20
1222.8537116964374
 11
1235.8960097987742
 21
1222.8537116964374
  0
LINE
  8
_0-0_
  6
CONTINUOUS
 62
    7
 10
1247.9971863993019
 20
1222.8537116964374
 11
1246.145974426166
 21
1222.8537116964374
  0
LINE
  8
_0-0_
  6
CONTINUOUS
 62
    7
 10
1243.8757039441684
 20
1205.9537116950571
 11
1251.3580115116406
 21
1205.9537116950571
  0
LINE
  8
_0-0_
  6
CONTINUOUS
 62
    7
 10
1223.5261946592495
 20
1205.9537116950571
 11
1233.6070803743919
 21
1205.9537116950571
  0
LINE
  8
_0-0_
  6
CONTINUOUS
 62
    7
 10
1210.929863113352
 20
1205.9537116950571
 11
1199.4663028458131
 21
1205.9537116950571
  0
LINE
  8
_0-0_
  6
CONTINUOUS
 62
    7
 10
1208.8867416085718
 20
1222.8537116964374
 11
1198.3513179762981
 21
1222.8537116964374
  0
LINE
  8
_0-0_
  6
CONTINUOUS
 62
    7
 10
1199.0115742280345
 20
1176.0537116964344
 11
1213.0537026267398
 21
1176.0537116964344
  0
LINE
  8
_0-0_
  6
CONTINUOUS
 62
    7
 10
1229.5138143782683
 20
1165.0037116964352
 11
1237.1542203079266
 21
1165.0037116964352
  0
LINE
  8
_0-0_
  6
CONTINUOUS
 62
    7
 10
1229.5138143782683
 20
1165.0037116964352
 11
1237.1542203079266
 21
1165.0037116964352
  0
LINE
  8
_0-0_
  6
CONTINUOUS
 62
    7
 10
1229.5138143782683
 20
1165.0037116964352
 11
1237.1542203079266
 21
1165.0037116964352
  0
LINE
  8
_0-0_
  6
CONTINUOUS
 62
    7
 10
1237.1542203079266
 20
1165.0037116964352
 11
1227.0433469783925
 21
1165.0037116964352
  0
LINE
  8
_0-0_
  6
CONTINUOUS
 62
    7
 10
1213.4963806514338
 20
1165.0037116964352
 11
1199.1749014739939
 21
1165.0037116964352
  0
LINE
  8
_0-0_
  6
CONTINUOUS
 62
    7
 10
1215.9261928509645
 20
1144.2037116964359
 11
1206.666867375628
 21
1144.2037116964359
  0
LINE
  8
_0-0_
  6
CONTINUOUS
 62
    7
 10
1262.9639348197857
 20
1216.3537116964374
 11
1264.36934022582
 21
1205.9537116917793
  0
LINE
  8
_0-0_
  6
CONTINUOUS
 62
    7
 10
1262.9639348197857
 20
1216.3537116964374
 11
1253.8639348197971
 21
1216.3537116964374
  0
LINE
  8
_0-0_
  6
CONTINUOUS
 62
    7
 10
1257.7634642786948
 20
1211.1537116964366
 11
1258.4661669817738
 21
1205.9537116936565
  0
LINE
  8
_0-0_
  6
CONTINUOUS
 62
    7
 10
1257.7639348197968
 20
1216.3537116964374
 11
1262.9639348197966
 21
1216.3537116964374
  0
LINE
  8
_0-0_
  6
CONTINUOUS
 62
    7
 10
1262.1205555985812
 20
1222.8537116964374
 11
1247.9971863993019
 21
1222.8537116964374
  0
LINE
  8
_0-0_
  6
CONTINUOUS
 62
    7
 10
1262.9639348197966
 20
1216.3537116964374
 11
1262.1205555985812
 21
1222.8537116964374
  0
LINE
  8
_0-0_
  6
CONTINUOUS
 62
    7
 10
1249.7307322925876
 20
1205.9537116964359
 11
1247.9971863993019
 21
1222.8537116964374
  0
LINE
  8
_0-0_
  6
CONTINUOUS
 62
    7
 10
1255.1639348197964
 20
1216.3537116944983
 11
1253.8639348197971
 21
1211.1537116964366
  0
LINE
  8
_0-0_
  6
CONTINUOUS
 62
    7
 10
1253.8639348197971
 20
1216.3537116964374
 11
1253.8639348197971
 21
1209.8537116964374
  0
LINE
  8
_0-0_
  6
CONTINUOUS
 62
    7
 10
1253.8639348197971
 20
1209.8537116964374
 11
1256.545184819794
 21
1209.8537116964374
  0
LINE
  8
_0-0_
  6
CONTINUOUS
 62
    7
 10
1255.8139348197969
 20
1205.9537116945005
 11
1249.7307322925876
 21
1205.9537116964359
  0
LINE
  8
_0-0_
  6
CONTINUOUS
 62
    7
 10
1253.8639348197971
 20
1211.1537116964366
 11
1257.7639348197968
 21
1211.1537116964366
  0
LINE
  8
_0-0_
  6
CONTINUOUS
 62
    7
 10
1198.0495731162214
 20
1205.9537116964359
 11
1198.8703170248868
 21
1150.4258042888807
  0
LINE
  8
_0-0_
  6
CONTINUOUS
 62
    7
 10
1211.8558679716866
 20
1205.9537116964359
 11
1214.0803914437715
 21
1150.4258042888807
  0
LINE
  8
_0-0_
  6
CONTINUOUS
 62
    7
 10
1221.789618578186
 20
1205.9537116964359
 11
1225.5566360393545
 21
1150.4258042888807
  0
LINE
  8
_0-0_
  6
CONTINUOUS
 62
    7
 10
1240.26277818678
 20
1144.2037116964359
 11
1233.6096452976658
 21
1144.2037116964359
  0
ARC
  8
_0-0_
  6
CONTINUOUS
 62
    7
 10
1278.3946378234018
 20
1150.7037116964359
 40
12.350000000000149
 50
187.69605172202634
 51
270
  0
ARC
  8
_0-0_
  6
CONTINUOUS
 62
    7
 10
1211.2171898059937
 20
1150.7037116964359
 40
12.35
 50
181.2894142238583
 51
270
  0
ARC
  8
_0-0_
  6
CONTINUOUS
 62
    7
 10
1226.4272642248775
 20
1150.7037116964359
 40
12.35
 50
181.2894142238583
 51
270
  0
ARC
  8
_0-0_
  6
CONTINUOUS
 62
    7
 10
1237.9035088204623
 20
1150.7037116964359
 40
12.35
 50
181.2894142238583
 51
270
  0
ARC
  8
_0-0_
  6
CONTINUOUS
 62
    7
 10
1250.7638495606921
 20
1150.7037116964359
 40
12.35
 50
181.2894142238583
 51
270
  0
ARC
  8
_0-0_
  6
CONTINUOUS
 62
    7
 10
1261.7997669459678
 20
1150.7037116964359
 40
12.35
 50
181.2894142238583
 51
270
  0
ARC
  8
_0-0_
  6
CONTINUOUS
 62
    7
 10
1270.6052205654919
 20
1150.7037116964359
 40
12.35
 50
181.2894142238583
 51
270
  0
ARC
  8
_0-0_
  6
CONTINUOUS
 62
    7
 10
1207.3396115815062
 20
1152.3540612785011
 40
8.1780671968643137
 50
193.58244046679769
 51
265.2814022298694
  0
ARC
  8
_0-0_
  6
CONTINUOUS
 62
    7
 10
1234.9046036097748
 20
1150.9752394952895
 40
6.8942371413215797
 50
183.17842356182661
 51
259.17371117033878
  0
ARC
  8
_0-0_
  6
CONTINUOUS
 62
    7
 10
1260.0904225013569
 20
1150.9878075613462
 40
6.5
 50
181.2894142238583
 51
268.60701311976612
  0
LINE
  8
_0-0_
  6
CONTINUOUS
 62
    7
 10
1253.5920684060388
 20
1150.8415405047392
 11
1248.0566344851609
 21
1205.9537116964359
  0
LINE
  8
_0-0_
  6
CONTINUOUS
 62
    7
 10
1224.2652958644262
 20
1205.9537116950571
 11
1228.0209717725043
 21
1150.5929850124169
  0
LINE
  8
_0-0_
  6
CONTINUOUS
 62
    7
 10
1198.569516323209
 20
1205.9613968450369
 11
1199.3902602318717
 21
1150.4334894374817
  0
LINE
  8
_0-0_
  6
CONTINUOUS
 62
    7
 10
1256.3257954730811
 20
1205.9537116964359
 11
1264.3027685339143
 21
1150.5574446398289
  0
ARC
  8
_0-0_
  6
CONTINUOUS
 62
    7
 10
1276.6659999845801
 20
1150.7037116964359
 40
12.35
 50
181.2894142238583
 51
270
  0
ARC
  8
_0-0_
  6
CONTINUOUS
 62
    7
 10
1229.5138143782683
 20
1171.5037116964352
 40
6.5
 50
247.33701127253099
 51
270
  0
LINE
  8
_0-0_
  6
CONTINUOUS
 62
    7
 10
1221.789618578186
 20
1205.9537116964359
 11
1233.6070803742737
 21
1205.9537116964359
  0
LINE
  8
_0-0_
  6
CONTINUOUS
 62
    7
 10
1243.8757039440311
 20
1205.9537116964359
 11
1264.3693402251915
 21
1205.9537116964359
  0
LINE
  8
_0-0_
  6
CONTINUOUS
 62
    7
 10
1248.6639348197964
 20
1216.3537116964374
 11
1192.7639348197968
 21
1216.3537116964374
  0
LINE
  8
_0-0_
  6
CONTINUOUS
 62
    7
 10
1255.8139348197969
 20
1205.9537116964359
 11
1256.545184819794
 21
1209.8537116964374
  0
LINE
  8
_0-0_
  6
CONTINUOUS
 62
    7
 10
1351.6340774969863
 20
1173.7574989401085
 11
1352.3034695078118
 21
1168.0676668480967
  0
ARC
  8
_0-0_
  6
CONTINUOUS
 62
    7
 10
1349.0518859257459
 20
1173.4537116964359
 40
2.6000000000000001
 50
6.7098368077706345
 51
90.000000000000014
  0
ARC
  8
_0-0_
  6
CONTINUOUS
 62
    7
 10
1348.4841751150475
 20
1173.4537116964359
 40
2.6000000000000001
 50
90
 51
173.49145197223771
  0
LINE
  8
_0-0_
  6
CONTINUOUS
 62
    7
 10
1341.3847037122746
 20
1175.0031325950306
 11
1342.8741278827861
 21
1167.3843664864737
  0
LINE
  8
_0-0_
  6
CONTINUOUS
 62
    7
 10
1344.019978705524
 20
1174.8409109199722
 11
1342.8302062317866
 21
1167.0985494012359
  0
LINE
  8
_0-0_
  6
CONTINUOUS
 62
    7
 10
1345.4333875272364
 20
1176.0537116964344
 11
1348.4841751150475
 21
1176.0537116964344
  0
ARC
  8
_0-0_
  6
CONTINUOUS
 62
    7
 10
1345.4333875272364
 20
1174.6237116964342
 40
1.4300000000000002
 50
90
 51
171.263670187424
  0
LINE
  8
_0-0_
  6
CONTINUOUS
 62
    7
 10
1337.390421079775
 20
1165.0037116964352
 11
1340.3888637215555
 21
1165.0037116964352
  0
LINE
  8
_0-0_
  6
CONTINUOUS
 62
    7
 10
1335.8512038111189
 20
1173.7882573399231
 11
1336.0910809163847
 21
1166.262297450053
  0
ARC
  8
_0-0_
  6
CONTINUOUS
 62
    7
 10
1337.390421079775
 20
1166.3037116964344
 40
1.3
 50
181.82558697903869
 51
270
  0
ARC
  8
_0-0_
  6
CONTINUOUS
 62
    7
 10
1340.3888637215555
 20
1167.4737116964327
 40
2.4699999999999998
 50
270
 51
351.263670187424
  0
LINE
  8
_0-0_
  6
CONTINUOUS
 62
    7
 10
1340.3888637215555
 20
1165.0037116964352
 11
1344.903276356054
 21
1165.0037116964352
  0
LINE
  8
_0-0_
  6
CONTINUOUS
 62
    7
 10
1333.5123915170193
 20
1176.0537116964344
 11
1312.7332558751709
 21
1176.0537116964344
  0
ARC
  8
_0-0_
  6
CONTINUOUS
 62
    7
 10
1340.1088552826636
 20
1174.7537116964352
 40
1.3
 50
11.061481780088121
 51
90.000000000000014
  0
ARC
  8
_0-0_
  6
CONTINUOUS
 62
    7
 10
1333.5123915170193
 20
1173.7137116964343
 40
2.3399999999999999
 50
1.8255869790387
 51
90
  0
LINE
  8
_0-0_
  6
CONTINUOUS
 62
    7
 10
1311.4675312796785
 20
1175.0502605935228
 11
1309.3488075962737
 21
1166.0071627993432
  0
ARC
  8
_0-0_
  6
CONTINUOUS
 62
    7
 10
1312.7332558751709
 20
1174.7537116964352
 40
1.3
 50
90
 51
166.81390801399994
  0
ARC
  8
_0-0_
  6
CONTINUOUS
 62
    7
 10
1308.0830830007831
 20
1166.3037116964344
 40
1.3
 50
270
 51
346.81390801399988
  0
LINE
  8
_0-0_
  6
CONTINUOUS
 62
    7
 10
1344.903276356054
 20
1165.0037116964352
 11
1300.2975324094555
 21
1144.2037116964359
  0
ARC
  8
_0-0_
  6
CONTINUOUS
 62
    7
 10
1354.2889348197964
 20
1164.028711696433
 40
0.9749999999999999
 50
301.48408947665951
 51
67.216782458916271
  0
ARC
  8
_0-0_
  6
CONTINUOUS
 62
    7
 10
1356.1767568646696
 20
1168.5233477136073
 40
3.9000000000000004
 50
186.70983680777061
 51
247.2167824589163
  0
LINE
  8
_0-0_
  6
CONTINUOUS
 62
    7
 10
1354.5637671225027
 20
1163.0537116964344
 11
1354.7981400495032
 21
1163.1972461024136
  0
LINE
  8
_0-0_
  6
CONTINUOUS
 62
    7
 10
1291.2006933908456
 20
1176.0195260364428
 11
1268.4145004495153
 21
1176.0195260364428
  0
LINE
  8
_0-0_
  6
CONTINUOUS
 62
    7
 10
1291.3865691528758
 20
1174.3301695390994
 11
1293.4409263201692
 21
1166.1823175880538
  0
LINE
  8
_0-0_
  6
CONTINUOUS
 62
    7
 10
1292.7133528152021
 20
1174.8409201448242
 11
1294.7677099824937
 21
1166.6930681937786
  0
ARC
  8
_0-0_
  6
CONTINUOUS
 62
    7
 10
1291.2006933908456
 20
1174.4595260364415
 40
1.5599999999999989
 50
14.15130650508544
 51
90
  0
ARC
  8
_0-0_
  6
CONTINUOUS
 62
    7
 10
1289.3435817192799
 20
1173.9395260364411
 40
2.0800000000000001
 50
10.82496942577319
 51
90
  0
ARC
  8
_0-0_
  6
CONTINUOUS
 62
    7
 10
1294.953585744523
 20
1166.5637116964328
 40
1.5599999999999989
 50
194.15130650508539
 51
270
  0
ARC
  8
_0-0_
  6
CONTINUOUS
 62
    7
 10
1296.8106974160896
 20
1167.0837116964369
 40
2.0800000000000001
 50
190.82496942577319
 51
270
  0
LINE
  8
_0-0_
  6
CONTINUOUS
 62
    7
 10
1088.7639348197968
 20
1167.667292087169
 11
1101.7639348197968
 21
1167.667292087169
  0
LINE
  8
_0-0_
  6
CONTINUOUS
 62
    7
 10
1100.7239348197968
 20
1168.7072920871699
 11
1100.7239348197968
 21
1161.2337116964347
  0
LINE
  8
_0-0_
  6
CONTINUOUS
 62
    7
 10
1106.3139348197969
 20
1161.2337116964347
 11
1101.6436552943428
 21
1160.2467655043122
  0
LINE
  8
_0-0_
  6
CONTINUOUS
 62
    7
 10
1106.3139348197969
 20
1161.2337116964347
 11
1084.2139348197966
 21
1161.2337116964347
  0
LINE
  8
_0-0_
  6
CONTINUOUS
 62
    7
 10
1082.5044938707047
 20
1150.8337116964369
 11
1108.0233757688861
 21
1150.8337116964369
  0
LINE
  8
_0-0_
  6
CONTINUOUS
 62
    7
 10
1108.0233757688861
 20
1150.8337116964369
 11
1108.0233757688861
 21
1160.2467655043122
  0
LINE
  8
_0-0_
  6
CONTINUOUS
 62
    7
 10
1108.0233757688861
 20
1160.2467655043122
 11
1106.3139348197969
 21
1161.2337116964347
  0
LINE
  8
_0-0_
  6
CONTINUOUS
 62
    7
 10
1101.7639348197968
 20
1161.2337116964347
 11
1101.7639348197968
 21
1167.667292087169
  0
LINE
  8
_0-0_
  6
CONTINUOUS
 62
    7
 10
1101.7639348197968
 20
1167.667292087169
 11
1099.8139348197969
 21
1169.6172920871697
  0
LINE
  8
_0-0_
  6
CONTINUOUS
 62
    7
 10
1099.8139348197969
 20
1169.6172920871697
 11
1090.7139348197966
 21
1169.6172920871697
  0
LINE
  8
_0-0_
  6
CONTINUOUS
 62
    7
 10
1090.7139348197966
 20
1169.6172920871697
 11
1088.7639348197968
 21
1167.667292087169
  0
LINE
  8
_0-0_
  6
CONTINUOUS
 62
    7
 10
1088.7639348197968
 20
1167.667292087169
 11
1088.7639348197968
 21
1161.2337116964347
  0
LINE
  8
_0-0_
  6
CONTINUOUS
 62
    7
 10
1089.8039348197958
 20
1168.7072920871699
 11
1089.8039348197958
 21
1161.2337116964347
  0
LINE
  8
_0-0_
  6
CONTINUOUS
 62
    7
 10
1109.5639348197969
 20
1150.8337116964369
 11
1109.5639348197969
 21
1148.7537116964352
  0
LINE
  8
_0-0_
  6
CONTINUOUS
 62
    7
 10
1109.5639348197969
 20
1148.7537116964352
 11
1080.9639348197966
 21
1148.7537116964352
  0
LINE
  8
_0-0_
  6
CONTINUOUS
 62
    7
 10
1080.9639348197966
 20
1150.8337116964369
 11
1109.5639348197969
 21
1150.8337116964369
  0
LINE
  8
_0-0_
  6
CONTINUOUS
 62
    7
 10
1301.5944461859149
 20
1138.3537116964337
 11
1354.5637671225027
 21
1163.0537116964344
  0
LINE
  8
_0-0_
  6
CONTINUOUS
 62
    7
 10
1101.7639348197968
 20
1118.323011140031
 11
1101.7639348197968
 21
1148.7537116964352
  0
LINE
  8
_0-0_
  6
CONTINUOUS
 62
    7
 10
1100.7239348197968
 20
1148.7537116964352
 11
1100.7239348197968
 21
1118.323011140031
  0
LINE
  8
_0-0_
  6
CONTINUOUS
 62
    7
 10
1085.4789652998411
 20
1148.7537116964352
 11
1086.7789652998413
 21
1138.3537116964337
  0
LINE
  8
_0-0_
  6
CONTINUOUS
 62
    7
 10
1083.9334234536768
 20
1138.3537116964337
 11
1088.7639348197968
 21
1138.3537116964337
  0
LINE
  8
_0-0_
  6
CONTINUOUS
 62
    7
 10
1083.9334234536768
 20
1138.3537116964337
 11
1088.7639348197968
 21
1138.3537116964337
  0
LINE
  8
_0-0_
  6
CONTINUOUS
 62
    7
 10
1030.7297295900903
 20
1163.1972461024136
 11
1083.9334234536768
 21
1138.3537116964337
  0
LINE
  8
_0-0_
  6
CONTINUOUS
 62
    7
 10
1088.4389348197969
 20
1148.7537116964352
 11
1088.4389348197969
 21
1150.8337116964369
  0
LINE
  8
_0-0_
  6
CONTINUOUS
 62
    7
 10
1080.9639348197966
 20
1150.8337116964369
 11
1080.9639348197966
 21
1148.7537116964352
  0
LINE
  8
_0-0_
  6
CONTINUOUS
 62
    7
 10
1082.5044938707065
 20
1160.2467655043122
 11
1082.5044938707065
 21
1150.8337116964369
  0
LINE
  8
_0-0_
  6
CONTINUOUS
 62
    7
 10
1088.8842143452516
 20
1160.2467655043122
 11
1088.8842143452516
 21
1150.8337116964369
  0
LINE
  8
_0-0_
  6
CONTINUOUS
 62
    7
 10
1084.2139348197966
 20
1161.2337116964347
 11
1082.5044938707065
 21
1160.2467655043122
  0
LINE
  8
_0-0_
  6
CONTINUOUS
 62
    7
 10
1108.0233757688861
 20
1160.2467655043122
 11
1082.5044938707065
 21
1160.2467655043122
  0
LINE
  8
_0-0_
  6
CONTINUOUS
 62
    7
 10
1089.8039348197958
 20
1148.7537116964352
 11
1089.8039348197958
 21
1118.323011140031
  0
LINE
  8
_0-0_
  6
CONTINUOUS
 62
    7
 10
1088.7639348197968
 20
1148.7537116964352
 11
1088.7639348197968
 21
1118.323011140031
  0
LINE
  8
_0-0_
  6
CONTINUOUS
 62
    7
 10
1088.8842143452516
 20
1160.2467655043122
 11
1084.2139348197966
 21
1161.2337116964347
  0
LINE
  8
_0-0_
  6
CONTINUOUS
 62
    4
 10
916.31346042719326
 20
1179.577840944062
 11
887.2364253644638
 21
1179.577840944062
  0
ARC
  8
_0-0_
  6
CONTINUOUS
 62
    4
 10
916.31346042719326
 20
1153.577840944062
 40
26
 50
74.999999999997556
 51
89.999999999999986
  0
LINE
  8
_0-0_
  6
CONTINUOUS
 62
    4
 10
945.54009142810412
 20
1172.6637694605499
 11
923.04275559986002
 21
1178.6919124275785
  0
ARC
  8
_0-0_
  6
CONTINUOUS
 62
    4
 10
952.26938660077087
 20
1197.7778409440664
 40
26
 50
254.99999999999793
 51
270
  0
LINE
  8
_0-0_
  6
CONTINUOUS
 62
    4
 10
962.03541987832671
 20
1171.7778409440627
 11
952.26938660077087
 21
1171.7778409440627
  0
LINE
  8
_0-0_
  6
CONTINUOUS
 62
    4
 10
965.1331956144046
 20
1171.5926387447228
 11
1021.032955692364
 21
1164.8846675353718
  0
ARC
  8
_0-0_
  6
CONTINUOUS
 62
    4
 10
962.03541987832671
 20
1145.7778409440627
 40
26
 50
83.157226587370374
 51
90.000000000000057
  0
LINE
  8
_0-0_
  6
CONTINUOUS
 62
    4
 10
1469.2144092124004
 20
1179.577840944062
 11
1498.2914442751276
 21
1179.577840944062
  0
ARC
  8
_0-0_
  6
CONTINUOUS
 62
    4
 10
1469.2144092124004
 20
1153.577840944062
 40
26
 50
90
 51
104.99999999999986
  0
LINE
  8
_0-0_
  6
CONTINUOUS
 62
    4
 10
1439.9877782114831
 20
1172.6637694605463
 11
1462.4851140397345
 21
1178.6919124275785
  0
ARC
  8
_0-0_
  6
CONTINUOUS
 62
    4
 10
1433.2584830388182
 20
1197.7778409440664
 40
26
 50
270
 51
284.99999999999864
  0
LINE
  8
_0-0_
  6
CONTINUOUS
 62
    4
 10
1423.4924497612615
 20
1171.7778409440627
 11
1433.2584830388182
 21
1171.7778409440627
  0
LINE
  8
_0-0_
  6
CONTINUOUS
 62
    4
 10
1420.3946740251836
 20
1171.5926387447228
 11
1364.4949139472287
 21
1164.8846675353718
  0
ARC
  8
_0-0_
  6
CONTINUOUS
 62
    4
 10
1423.4924497612615
 20
1145.7778409440627
 40
26
 50
90
 51
96.842773412630109
  0
LINE
  8
_0-0_
  6
CONTINUOUS
 62
    2
 10
1189.6562622585457
 20
886.50814428497802
 11
1185.9581275641708
 21
882.31830798735359
  0
LINE
  8
_0-0_
  6
CONTINUOUS
 62
    2
 10
1263.7467622585477
 20
895.76465942510299
 11
1266.8639348197971
 21
891.13620736748021
  0
LINE
  8
_0-0_
  6
CONTINUOUS
 62
    2
 10
1260.0486275641729
 20
899.95449572272742
 11
1263.7467622585477
 21
895.76465942510299
  0
LINE
  8
_0-0_
  6
CONTINUOUS
 62
    2
 10
1255.8374902477958
 20
903.62771748647833
 11
1260.0486275641729
 21
899.95449572272742
  0
LINE
  8
_0-0_
  6
CONTINUOUS
 62
    2
 10
1251.1850143455481
 20
906.72164415335396
 11
1255.8374902477958
 21
903.62771748647833
  0
LINE
  8
_0-0_
  6
CONTINUOUS
 62
    2
 10
1246.169124540796
 20
909.18444941860548
 11
1251.1850143455481
 21
906.72164415335396
  0
LINE
  8
_0-0_
  6
CONTINUOUS
 62
    2
 10
1240.8755250194231
 20
910.97397578772984
 11
1246.169124540796
 21
909.18444941860548
  0
LINE
  8
_0-0_
  6
CONTINUOUS
 62
    2
 10
1235.3947728950484
 20
912.05982763310499
 11
1240.8755250194231
 21
910.97397578772984
  0
LINE
  8
_0-0_
  6
CONTINUOUS
 62
    2
 10
1229.8186848197952
 20
912.42388982747912
 11
1235.3947728950484
 21
912.05982763310499
  0
LINE
  8
_0-0_
  6
CONTINUOUS
 62
    2
 10
1224.2426152671728
 20
912.05982763310499
 11
1229.8186848197952
 21
912.42388982747912
  0
LINE
  8
_0-0_
  6
CONTINUOUS
 62
    2
 10
1218.7618631427972
 20
910.97397578772984
 11
1224.2426152671728
 21
912.05982763310499
  0
LINE
  8
_0-0_
  6
CONTINUOUS
 62
    2
 10
1213.4682636214206
 20
909.18444941860548
 11
1218.7618631427972
 21
910.97397578772984
  0
LINE
  8
_0-0_
  6
CONTINUOUS
 62
    2
 10
1208.4523738166722
 20
906.72164415335396
 11
1213.4682636214206
 21
909.18444941860548
  0
LINE
  8
_0-0_
  6
CONTINUOUS
 62
    2
 10
1203.7998979144209
 20
903.62771748647833
 11
1208.4523738166722
 21
906.72164415335396
  0
LINE
  8
_0-0_
  6
CONTINUOUS
 62
    2
 10
1199.5887605980474
 20
899.95449572272742
 11
1203.7998979144209
 21
903.62771748647833
  0
LINE
  8
_0-0_
  6
CONTINUOUS
 62
    2
 10
1195.8906259036726
 20
895.76465942510299
 11
1199.5887605980474
 21
899.95449572272742
  0
LINE
  8
_0-0_
  6
CONTINUOUS
 62
    2
 10
1192.7734348197987
 20
891.13620736748021
 11
1195.8906259036726
 21
895.76465942510299
  0
LINE
  8
_0-0_
  6
CONTINUOUS
 62
    2
 10
1195.8906259036726
 20
886.50814428497802
 11
1192.7734348197987
 21
891.13657781998086
  0
LINE
  8
_0-0_
  6
CONTINUOUS
 62
    2
 10
1199.5887605980474
 20
882.31830798735359
 11
1195.8906259036726
 21
886.50814428497802
  0
LINE
  8
_0-0_
  6
CONTINUOUS
 62
    2
 10
1203.7998979144209
 20
878.64508622360268
 11
1199.5887605980474
 21
882.31830798735359
  0
LINE
  8
_0-0_
  6
CONTINUOUS
 62
    2
 10
1208.4523738166722
 20
875.55115955672704
 11
1203.7998979144209
 21
878.64508622360268
  0
LINE
  8
_0-0_
  6
CONTINUOUS
 62
    2
 10
1213.4682636214206
 20
873.08835429147916
 11
1208.4523738166722
 21
875.55115955672704
  0
LINE
  8
_0-0_
  6
CONTINUOUS
 62
    2
 10
1218.7618631427972
 20
871.2988279223548
 11
1213.4682636214206
 21
873.08835429147916
  0
LINE
  8
_0-0_
  6
CONTINUOUS
 62
    2
 10
1224.2426152671728
 20
870.21297607697966
 11
1218.7618631427972
 21
871.2988279223548
  0
LINE
  8
_0-0_
  6
CONTINUOUS
 62
    2
 10
1229.8186848197952
 20
869.84889535998195
 11
1224.2426152671728
 21
870.21297607697966
  0
LINE
  8
_0-0_
  6
CONTINUOUS
 62
    2
 10
1235.3947728950484
 20
870.21297607697966
 11
1229.8186848197952
 21
869.84889535998195
  0
LINE
  8
_0-0_
  6
CONTINUOUS
 62
    2
 10
1240.8755250194231
 20
871.2988279223548
 11
1235.3947728950484
 21
870.21297607697966
  0
LINE
  8
_0-0_
  6
CONTINUOUS
 62
    2
 10
1246.169124540796
 20
873.08835429147916
 11
1240.8755250194231
 21
871.2988279223548
  0
LINE
  8
_0-0_
  6
CONTINUOUS
 62
    2
 10
1251.1850143455481
 20
875.55115955672704
 11
1246.169124540796
 21
873.08835429147916
  0
LINE
  8
_0-0_
  6
CONTINUOUS
 62
    2
 10
1255.8374902477958
 20
878.64508622360268
 11
1251.1850143455481
 21
875.55115955672704
  0
LINE
  8
_0-0_
  6
CONTINUOUS
 62
    2
 10
1260.0486275641729
 20
882.31830798735359
 11
1255.8374902477958
 21
878.64508622360268
  0
LINE
  8
_0-0_
  6
CONTINUOUS
 62
    2
 10
1263.7467622585477
 20
886.50814428497802
 11
1260.0486275641729
 21
882.31830798735359
  0
LINE
  8
_0-0_
  6
CONTINUOUS
 62
    2
 10
1266.8639348197971
 20
891.13657781998086
 11
1263.7467622585477
 21
886.50814428497802
  0
LINE
  8
_0-0_
  6
CONTINUOUS
 62
    2
 10
1125.4982605980481
 20
882.31830798735359
 11
1121.8001259036732
 21
886.50814428497802
  0
LINE
  8
_0-0_
  6
CONTINUOUS
 62
    2
 10
1129.7093979144206
 20
878.64508622360268
 11
1125.4982605980481
 21
882.31830798735359
  0
LINE
  8
_0-0_
  6
CONTINUOUS
 62
    2
 10
1134.361873816672
 20
875.55115955672704
 11
1129.7093979144206
 21
878.64508622360268
  0
LINE
  8
_0-0_
  6
CONTINUOUS
 62
    2
 10
1139.3777636214204
 20
873.08835429147916
 11
1134.361873816672
 21
875.55115955672704
  0
LINE
  8
_0-0_
  6
CONTINUOUS
 62
    2
 10
1144.671363142797
 20
871.2988279223548
 11
1139.3777636214204
 21
873.08835429147916
  0
LINE
  8
_0-0_
  6
CONTINUOUS
 62
    2
 10
1150.1521152671726
 20
870.21297607697966
 11
1144.671363142797
 21
871.2988279223548
  0
LINE
  8
_0-0_
  6
CONTINUOUS
 62
    2
 10
1155.7281848197958
 20
869.84889535998195
 11
1150.1521152671726
 21
870.21297607697966
  0
LINE
  8
_0-0_
  6
CONTINUOUS
 62
    2
 10
1161.3042728950463
 20
870.21297607697966
 11
1155.7281848197958
 21
869.84889535998195
  0
LINE
  8
_0-0_
  6
CONTINUOUS
 62
    2
 10
1166.7850250194219
 20
871.2988279223548
 11
1161.3042728950463
 21
870.21297607697966
  0
LINE
  8
_0-0_
  6
CONTINUOUS
 62
    2
 10
1172.0786245407976
 20
873.08835429147916
 11
1166.7850250194219
 21
871.2988279223548
  0
LINE
  8
_0-0_
  6
CONTINUOUS
 62
    2
 10
1177.094514345546
 20
875.55115955672704
 11
1172.0786245407976
 21
873.08835429147916
  0
LINE
  8
_0-0_
  6
CONTINUOUS
 62
    2
 10
1181.7469902477974
 20
878.64508622360268
 11
1177.094514345546
 21
875.55115955672704
  0
LINE
  8
_0-0_
  6
CONTINUOUS
 62
    2
 10
1185.9581275641708
 20
882.31830798735359
 11
1181.7469902477974
 21
878.64508622360268
  0
LINE
  8
_0-0_
  6
CONTINUOUS
 62
    2
 10
1192.7734348197987
 20
891.13657781998086
 11
1189.6562622585457
 21
886.50814428497802
  0
LINE
  8
_0-0_
  6
CONTINUOUS
 62
    2
 10
1118.6834099203438
 20
1037.0202143575673
 11
1118.6834099203438
 21
891.13587238638615
  0
LINE
  8
_0-0_
  6
CONTINUOUS
 62
    2
 10
1121.8001259036732
 20
886.50814428497802
 11
1118.6834099203438
 21
891.13587238638615
  0
LINE
  8
_0-0_
  6
CONTINUOUS
 62
    2
 10
1258.2839348197963
 20
1093.7270111400078
 11
1258.2839348197963
 21
901.49377295545241
  0
LINE
  8
_0-0_
  6
CONTINUOUS
 62
    2
 10
1127.2439348197972
 20
1093.7270111400078
 11
1127.2439348197972
 21
880.79561991949708
  0
LINE
  8
_0-0_
  6
CONTINUOUS
 62
    7
 10
1413.9914206453245
 20
1169.2234406604996
 11
1459.9127551600236
 21
1248.7615251913242
  0
POINT
  8
_0-0_
 62
    7
 10
1413.9914206453245
 20
1169.2234406604996
  0
LINE
  8
_0-0_
  6
CENTER1
 62
    7
 10
1192.7639348197968
 20
853.76401428451322
 11
1192.7639348197968
 21
1411.8223726527042
  0
LINE
  8
_0-0_
  6
CONTINUOUS
 62
    7
 10
672.13606690525205
 20
820.44381216958323
 11
1706.8525777203672
 21
820.44381216958323
  0
TEXT
  8
_0-0_
 62
    7
 10
718.76084653185183
 20
1400.226050337403
 40
30
 41
1
 50
0
  1
縦型
  0
TEXT
  8
_0-0_
 62
    7
 10
722.03489007346445
 20
745.41734201477198
 40
30
 41
1
 50
0
  1
横型
  0
LINE
  8
_0-0_
  6
CONTINUOUS
 62
    7
 10
1070.9852861250033
 20
1109.0344435711679
 11
1074.9232901250039
 21
1109.0344435711679
  0
LINE
  8
_0-0_
  6
CONTINUOUS
 62
    7
 10
1062.2120710709301
 20
1109.0344435711679
 11
1075.2347865322231
 21
1109.0344435711679
  0
LINE
  8
_0-0_
  6
CONTINUOUS
 62
    7
 10
1059.3142935920628
 20
1111.2579864358606
 11
1053.5668306922712
 21
1132.7078099924995
  0
ARC
  8
_0-0_
  6
CONTINUOUS
 62
    7
 10
1062.2120710709301
 20
1112.0344435711679
 40
3
 50
194.9999999999994
 51
270
  0
LINE
  8
_0-0_
  6
CONTINUOUS
 62
    7
 10
958.68340992034393
 20
926.57301114003099
 11
958.68340992034393
 21
916.57301114003099
  0
LINE
  8
_0-0_
  6
CONTINUOUS
 62
    7
 10
1118.6639348197964
 20
916.57301114003099
 11
958.68340992034393
 21
916.57301114003099
  0
LINE
  8
_0-0_
  6
CONTINUOUS
 62
    7
 10
1426.8639348197971
 20
926.57301114003099
 11
1426.8639348197971
 21
916.57301114003099
  0
LINE
  8
_0-0_
  6
CONTINUOUS
 62
    7
 10
1062.8132237088844
 20
1109.0344435711679
 11
1062.8132237088844
 21
916.57301114003099
  0
LINE
  8
_0-0_
  6
CONTINUOUS
 62
    7
 10
887.2364253644638
 20
937.65003338217252
 11
1021.7639348197969
 21
1072.1775428375051
  0
LINE
  8
_0-0_
  6
CONTINUOUS
 62
    7
 10
887.2364253644638
 20
928.45764522674767
 11
1021.763934819796
 21
1062.9851546820803
  0
LINE
  8
_0-0_
  6
CONTINUOUS
 62
    7
 10
1363.7639348197968
 20
1147.1836679221717
 11
1363.7639348197968
 21
926.57301114003099
  0
LINE
  8
_0-0_
  6
CONTINUOUS
 62
    7
 10
1054.1879936625005
 20
698.69198248037833
 11
1087.5337346950059
 21
732.03772351288467
  0
LINE
  8
_0-0_
  6
CONTINUOUS
 62
    7
 10
1054.1879936625014
 20
691.6209146685153
 11
1094.604802506869
 21
732.03772351288467
  0
LINE
  8
_0-0_
  6
CONTINUOUS
 62
    7
 10
1309.7290991824898
 20
352.98235466124356
 11
1223.8399931630788
 21
352.98235466124356
  0
ARC
  8
_0-0_
  6
CONTINUOUS
 62
    7
 10
1220.8399931630788
 20
355.98235466124356
 40
2
 50
90
 51
180
  0
LINE
  8
_0-0_
  6
CONTINUOUS
 62
    7
 10
1312.7290991824898
 20
357.98235466124356
 11
1220.8399931630788
 21
357.98235466124356
  0
ARC
  8
_0-0_
  6
CONTINUOUS
 62
    7
 10
1312.7290991824898
 20
355.98235466124356
 40
2
 50
0
 51
90.000000000000028
  0
ARC
  8
_0-0_
  6
CONTINUOUS
 62
    7
 10
1154.1879936625014
 20
357.98205666124454
 40
10
 50
0
 51
90
  0
POINT
  8
_0-0_
 62
    7
 10
1204.9795745761944
 20
429.46474971583416
  0
POINT
  8
_0-0_
 62
    7
 10
1232.5327997633262
 20
424.08851065493332
  0
POINT
  8
_0-0_
 62
    7
 10
1209.9494553809759
 20
431.39919087326166
  0
POINT
  8
_0-0_
 62
    7
 10
1237.0316315849627
 20
426.36964386395016
  0
POINT
  8
_0-0_
 62
    7
 10
1234.5168580803088
 20
431.78607910474716
  0
POINT
  8
_0-0_
 62
    7
 10
1217.3003317791986
 20
429.07786148434866
  0
POINT
  8
_0-0_
 62
    7
 10
1214.5519293252669
 20
401.90246612254236
  0
POINT
  8
_0-0_
 62
    7
 10
1223.288317799233
 20
395.51818223771738
  0
POINT
  8
_0-0_
 62
    7
 10
1232.3607212145102
 20
401.90246612254236
  0
POINT
  8
_0-0_
 62
    7
 10
1207.2827014174577
 20
405.93276122228167
  0
POINT
  8
_0-0_
 62
    7
 10
1198.9646044405176
 20
398.19499659257531
  0
POINT
  8
_0-0_
 62
    7
 10
1207.0892573017113
 20
388.71623492117692
  0
POINT
  8
_0-0_
 62
    7
 10
1223.1451189083614
 20
391.42445254157906
  0
POINT
  8
_0-0_
 62
    7
 10
1218.1155718990499
 20
410.38197588436856
  0
POINT
  8
_0-0_
 62
    7
 10
1232.8173246955007
 20
412.70330527328156
  0
POINT
  8
_0-0_
 62
    7
 10
1234.1714335056963
 20
396.26055543514417
  0
POINT
  8
_0-0_
 62
    7
 10
1234.1714335056963
 20
383.68668791186542
  0
POINT
  8
_0-0_
 62
    7
 10
1223.5320071398469
 20
383.49324379612267
  0
POINT
  8
_0-0_
 62
    7
 10
1214.440133699934
 20
386.39490553226756
  0
POINT
  8
_0-0_
 62
    7
 10
1210.1843631535953
 20
398.19499659257531
  0
POINT
  8
_0-0_
 62
    7
 10
1201.6728220609143
 20
390.45723196286167
  0
POINT
  8
_0-0_
 62
    7
 10
1216.3120512202036
 20
359.65954064418952
  0
POINT
  8
_0-0_
 62
    7
 10
1209.0428233123853
 20
363.68983574393246
  0
POINT
  8
_0-0_
 62
    7
 10
1200.7247263354452
 20
355.9520711142261
  0
POINT
  8
_0-0_
 62
    7
 10
1208.8493791966462
 20
346.47330944282771
  0
POINT
  8
_0-0_
 62
    7
 10
1219.8756937939811
 20
368.13905040601935
  0
POINT
  8
_0-0_
 62
    7
 10
1234.5774465904319
 20
370.46037979492871
  0
POINT
  8
_0-0_
 62
    7
 10
1216.2002555948707
 20
344.15198005391835
  0
POINT
  8
_0-0_
 62
    7
 10
1211.9444850485265
 20
355.9520711142261
  0
POINT
  8
_0-0_
 62
    7
 10
1203.4329439558455
 20
348.21430648451246
  0
POINT
  8
_0-0_
 62
    7
 10
1205.6948620508078
 20
415.94498205036621
  0
POINT
  8
_0-0_
 62
    7
 10
1212.295319156799
 20
421.66537820889175
  0
POINT
  8
_0-0_
 62
    7
 10
1219.7758372102576
 20
417.26507347156189
  0
POINT
  8
_0-0_
 62
    7
 10
1202.6146487346773
 20
376.34223941441201
  0
POINT
  8
_0-0_
 62
    7
 10
1203.4947096821447
 20
368.42169088721971
  0
POINT
  8
_0-0_
 62
    7
 10
1216.2555934203951
 20
377.2223003618758
  0
POINT
  8
_0-0_
 62
    7
 10
1200.715321488809
 20
423.35235830926217
  0
POINT
  8
_0-0_
 62
    7
 10
1200.2434389432506
 20
410.61152957919444
  0
POINT
  8
_0-0_
 62
    7
 10
1212.0405025821997
 20
413.91470739810143
  0
POINT
  8
_0-0_
 62
    7
 10
1237.5221600423279
 20
405.42082157805748
  0
POINT
  8
_0-0_
 62
    7
 10
1236.5783949512111
 20
419.10541539923838
  0
POINT
  8
_0-0_
 62
    7
 10
1236.5783949512111
 20
378.05163393569569
  0
POINT
  8
_0-0_
 62
    7
 10
1217.7030931288932
 20
350.21056374777368
  0
POINT
  8
_0-0_
 62
    7
 10
1210.6248549455245
 20
372.38904338899852
  0
POINT
  8
_0-0_
 62
    7
 10
1209.6810898544095
 20
382.29857684571584
  0
POINT
  8
_0-0_
 62
    7
 10
1216.2874454922198
 20
393.62375793910655
  0
POINT
  8
_0-0_
 62
    7
 10
1205.7937370004943
 20
334.07096291436869
  0
POINT
  8
_0-0_
 62
    7
 10
1212.3941941064872
 20
339.79135907289788
  0
POINT
  8
_0-0_
 62
    7
 10
1200.8141964384954
 20
341.47833917326466
  0
POINT
  8
_0-0_
 62
    7
 10
1212.1393775318861
 20
332.04068826210391
  0
POINT
  8
_0-0_
 62
    7
 10
1188.0433182853444
 20
421.39217844414566
  0
POINT
  8
_0-0_
 62
    7
 10
1165.4599739029941
 20
428.702858662474
  0
POINT
  8
_0-0_
 62
    7
 10
1181.515835509646
 20
431.41107628287614
  0
POINT
  8
_0-0_
 62
    7
 10
1192.5421501069809
 20
423.6733116531625
  0
POINT
  8
_0-0_
 62
    7
 10
1190.027376602327
 20
429.0897468939595
  0
POINT
  8
_0-0_
 62
    7
 10
1181.9027237411296
 20
423.47986753741975
  0
POINT
  8
_0-0_
 62
    7
 10
1172.8108503012168
 20
426.38152927356464
  0
POINT
  8
_0-0_
 62
    7
 10
1170.0624478472851
 20
399.2061339117547
  0
POINT
  8
_0-0_
 62
    7
 10
1178.7988363212512
 20
392.82185002692972
  0
POINT
  8
_0-0_
 62
    7
 10
1157.629895018948
 20
384.0854615529654
  0
POINT
  8
_0-0_
 62
    7
 10
1187.8712397365284
 20
399.2061339117547
  0
POINT
  8
_0-0_
 62
    7
 10
1185.1831202060798
 20
378.70922249206455
  0
POINT
  8
_0-0_
 62
    7
 10
1162.7932199394759
 20
403.23642901149765
  0
POINT
  8
_0-0_
 62
    7
 10
1173.6260904210681
 20
407.6856436735809
  0
POINT
  8
_0-0_
 62
    7
 10
1188.3278432175189
 20
410.0069730624939
  0
POINT
  8
_0-0_
 62
    7
 10
1189.6819520277145
 20
393.56422322435651
  0
POINT
  8
_0-0_
 62
    7
 10
1189.6819520277145
 20
380.99035570107776
  0
POINT
  8
_0-0_
 62
    7
 10
1187.1671785230624
 20
386.40679094187476
  0
POINT
  8
_0-0_
 62
    7
 10
1179.0425256618651
 20
380.79691158533865
  0
POINT
  8
_0-0_
 62
    7
 10
1169.9506522219522
 20
383.6985733214799
  0
POINT
  8
_0-0_
 62
    7
 10
1165.6948816756135
 20
395.49866438178765
  0
POINT
  8
_0-0_
 62
    7
 10
1171.8225697422217
 20
356.9632084334055
  0
POINT
  8
_0-0_
 62
    7
 10
1189.6313616314596
 20
356.9632084334055
  0
POINT
  8
_0-0_
 62
    7
 10
1180.4157593253126
 20
346.48519485244219
  0
POINT
  8
_0-0_
 62
    7
 10
1175.3862123159993
 20
365.44271819523169
  0
POINT
  8
_0-0_
 62
    7
 10
1190.0879651124501
 20
367.76404758414469
  0
POINT
  8
_0-0_
 62
    7
 10
1191.4420739226512
 20
351.3212977460073
  0
POINT
  8
_0-0_
 62
    7
 10
1188.9273004179936
 20
344.16386546352555
  0
POINT
  8
_0-0_
 62
    7
 10
1180.8026475567963
 20
338.5539861069858
  0
POINT
  8
_0-0_
 62
    7
 10
1171.7107741168888
 20
341.45564784313069
  0
POINT
  8
_0-0_
 62
    7
 10
1167.4550035705447
 20
353.25573890343844
  0
POINT
  8
_0-0_
 62
    7
 10
1161.205380572826
 20
413.24864983957855
  0
POINT
  8
_0-0_
 62
    7
 10
1167.8058376788172
 20
418.96904599810409
  0
POINT
  8
_0-0_
 62
    7
 10
1175.2863557322758
 20
414.56874126077787
  0
POINT
  8
_0-0_
 62
    7
 10
1181.8868128382669
 20
402.24788799625571
  0
POINT
  8
_0-0_
 62
    7
 10
1158.1251672566955
 20
373.64590720362435
  0
POINT
  8
_0-0_
 62
    7
 10
1171.7661119424133
 20
374.52596815109177
  0
POINT
  8
_0-0_
 62
    7
 10
1182.3268433120024
 20
372.32581578242502
  0
POINT
  8
_0-0_
 62
    7
 10
1184.5269956806656
 20
358.24484062297529
  0
POINT
  8
_0-0_
 62
    7
 10
1156.2258400108271
 20
420.65602609847451
  0
POINT
  8
_0-0_
 62
    7
 10
1155.7539574652687
 20
407.91519736841042
  0
POINT
  8
_0-0_
 62
    7
 10
1167.5510211042179
 20
411.21837518731377
  0
POINT
  8
_0-0_
 62
    7
 10
1183.1231451076287
 20
414.99343555177734
  0
POINT
  8
_0-0_
 62
    7
 10
1193.032678564346
 20
402.72448936727346
  0
POINT
  8
_0-0_
 62
    7
 10
1192.0889134732292
 20
416.40908318845072
  0
POINT
  8
_0-0_
 62
    7
 10
1192.0889134732292
 20
375.35530172490803
  0
POINT
  8
_0-0_
 62
    7
 10
1184.5387927443021
 20
366.86141590486409
  0
POINT
  8
_0-0_
 62
    7
 10
1176.04490692426
 20
353.17682208368319
  0
POINT
  8
_0-0_
 62
    7
 10
1173.2136116509114
 20
347.51423153698966
  0
POINT
  8
_0-0_
 62
    7
 10
1166.1353734675426
 20
369.69271117821086
  0
POINT
  8
_0-0_
 62
    7
 10
1171.797964014238
 20
390.92742572832253
  0
POINT
  8
_0-0_
 62
    7
 10
1167.9047126285054
 20
337.09502686211022
  0
POINT
  8
_0-0_
 62
    7
 10
1175.3852306819622
 20
332.69472212478036
  0
POINT
  8
_0-0_
 62
    7
 10
1183.2220200573151
 20
333.11941641578346
  0
POINT
  8
_0-0_
 62
    7
 10
1192.1877884229175
 20
334.53506405245685
  0
POINT
  8
_0-0_
 62
    7
 10
1225.9640082236269
 20
435.18559701505478
  0
POINT
  8
_0-0_
 62
    7
 10
1225.6614592176652
 20
424.29383280045408
  0
POINT
  8
_0-0_
 62
    7
 10
1226.5691062355486
 20
415.21736262161835
  0
POINT
  8
_0-0_
 62
    7
 10
1227.1742042474712
 20
404.6281474129803
  0
POINT
  8
_0-0_
 62
    7
 10
1228.9894982832379
 20
391.01344214473033
  0
POINT
  8
_0-0_
 62
    7
 10
1229.2920472891988
 20
378.91148190628269
  0
POINT
  8
_0-0_
 62
    7
 10
1228.9894982832379
 20
369.83501172745059
  0
POINT
  8
_0-0_
 62
    7
 10
1228.0818512653545
 20
363.17893359630511
  0
POINT
  8
_0-0_
 62
    7
 10
1233.5277333726549
 20
362.87638459034247
  0
LINE
  8
_0-0_
  6
CONTINUOUS
 62
    7
 10
1223.8399931630788
 20
312.98235466124356
 11
1233.8399931630788
 21
312.98235466124356
  0
LINE
  8
_0-0_
  6
CONTINUOUS
 62
    7
 10
1233.8399931630788
 20
312.98235466124356
 11
1233.8399931630788
 21
307.98235466124356
  0
LINE
  8
_0-0_
  6
CONTINUOUS
 62
    7
 10
1220.8399931630788
 20
307.98235466124356
 11
1233.8399931630788
 21
307.98235466124356
  0
LINE
  8
_0-0_
  6
CONTINUOUS
 62
    7
 10
1299.7290991824898
 20
312.98235466124356
 11
1299.7290991824898
 21
307.98235466124356
  0
LINE
  8
_0-0_
  6
CONTINUOUS
 62
    7
 10
1312.7290991824898
 20
307.98235466124356
 11
1299.7290991824898
 21
307.98235466124356
  0
LINE
  8
_0-0_
  6
CONTINUOUS
 62
    7
 10
1299.7290991824898
 20
312.98235466124356
 11
1309.7290991824898
 21
312.98235466124356
  0
LINE
  8
_0-0_
  6
CONTINUOUS
 62
    7
 10
1223.8399931630788
 20
352.98235466124356
 11
1223.8399931630788
 21
312.98235466124356
  0
LINE
  8
_0-0_
  6
CONTINUOUS
 62
    7
 10
1164.7290671824899
 20
307.98235466124356
 11
1314.7290991824898
 21
307.98235466124356
  0
LINE
  8
_0-0_
  6
CONTINUOUS
 62
    7
 10
1227.7289935824897
 20
291.98230186124533
 11
1231.7290559827975
 21
287.98223946093754
  0
LINE
  8
_0-0_
  6
CONTINUOUS
 62
    7
 10
1214.1879936625014
 20
307.98235466124356
 11
1154.1879936625014
 21
307.98235466124356
  0
LINE
  8
_0-0_
  6
CONTINUOUS
 62
    7
 10
1154.1879936625014
 20
367.98205666124454
 11
1154.1879936625014
 21
307.98235466124356
  0
LINE
  8
_0-0_
  6
CONTINUOUS
 62
    7
 10
1314.7290991824898
 20
291.98230186124533
 11
1251.7290735824895
 21
291.98230186124533
  0
LINE
  8
_0-0_
  6
CONTINUOUS
 62
    7
 10
1164.7290671824899
 20
291.98230186124533
 11
1227.7289935824897
 21
291.98230186124533
  0
LINE
  8
_0-0_
  6
CONTINUOUS
 62
    7
 10
1164.7290671824899
 20
307.98235466124356
 11
1164.7290671824899
 21
291.98230186124533
  0
LINE
  8
_0-0_
  6
CONTINUOUS
 62
    7
 10
1314.7290991824898
 20
291.98230186124533
 11
1314.7290991824898
 21
307.98235466124356
  0
LINE
  8
_0-0_
  6
CONTINUOUS
 62
    7
 10
1247.7290591824899
 20
287.98248746124341
 11
1251.7289735837398
 21
291.98240186249427
  0
LINE
  8
_0-0_
  6
CONTINUOUS
 62
    7
 10
1309.7290991824898
 20
312.98235466124356
 11
1309.7290991824898
 21
352.98235466124356
  0
LINE
  8
_0-0_
  6
CONTINUOUS
 62
    7
 10
1218.8399931630788
 20
309.98235466124356
 11
1218.8399931630788
 21
355.98235466124356
  0
ARC
  8
_0-0_
  6
CONTINUOUS
 62
    7
 10
1220.8399931630788
 20
309.98235466124356
 40
2
 50
180
 51
270
  0
LINE
  8
_0-0_
  6
CONTINUOUS
 62
    7
 10
1314.7290991824898
 20
309.98235466124356
 11
1314.7290991824898
 21
355.98235466124356
  0
ARC
  8
_0-0_
  6
CONTINUOUS
 62
    7
 10
1312.7290991824898
 20
309.98235466124356
 40
2
 50
270
 51
0
  0
LINE
  8
_0-0_
  6
CONTINUOUS
 62
    7
 10
1164.1879936625014
 20
357.98205666124454
 11
1164.1879936625014
 21
317.98235466124356
  0
LINE
  8
_0-0_
  6
CONTINUOUS
 62
    7
 10
1204.1879936625014
 20
317.98235466124356
 11
1164.1879936625014
 21
317.98235466124356
  0
ARC
  8
_0-0_
  6
CONTINUOUS
 62
    7
 10
1204.1879936625014
 20
307.98235466124356
 40
10
 50
0
 51
90
  0
POINT
  8
_0-0_
 62
    7
 10
1214.6508042749551
 20
320.02844698654485
  0
POINT
  8
_0-0_
 62
    7
 10
1207.3815763671441
 20
324.05874208628779
  0
POINT
  8
_0-0_
 62
    7
 10
1200.3423138929388
 20
328.73751044320056
  0
POINT
  8
_0-0_
 62
    7
 10
1173.7249653707563
 20
325.81162453758702
  0
POINT
  8
_0-0_
 62
    7
 10
1188.4267181672053
 20
328.13295392649638
  0
POINT
  8
_0-0_
 62
    7
 10
1181.9856877879552
 20
320.37386886026184
  0
POINT
  8
_0-0_
 62
    7
 10
1167.6498960539043
 20
329.34435605131989
  0
POINT
  8
_0-0_
 62
    7
 10
1193.1315535140325
 20
320.85047023127595
  0
LINE
  8
_0-0_
  6
CONTINUOUS
 62
    7
 10
1239.1879936625014
 20
397.98235466124356
 11
1239.1879936625014
 21
357.98235466124356
  0
POINT
  8
_0-0_
 62
    7
 10
1243.979431453728
 20
434.2528003392556
  0
POINT
  8
_0-0_
 62
    7
 10
1240.0248544403917
 20
440.18466585925967
  0
LINE
  8
_0-0_
  6
CONTINUOUS
 62
    7
 10
1154.1879936625014
 20
232.17551507287612
 11
1154.1879936625014
 21
401.98235466123992
  0
POINT
  8
_0-0_
 62
    7
 10
1076.7191395232371
 20
409.82581196788419
  0
POINT
  8
_0-0_
 62
    7
 10
1084.2912078194381
 20
416.93190683047328
  0
POINT
  8
_0-0_
 62
    7
 10
1085.4561414034692
 20
404.93309091495507
  0
POINT
  8
_0-0_
 62
    7
 10
1090.698342531608
 20
411.45671898552723
  0
POINT
  8
_0-0_
 62
    7
 10
1096.9889838853755
 20
408.77737174225445
  0
POINT
  8
_0-0_
 62
    7
 10
1102.1146916551111
 20
416.58242675526458
  0
POINT
  8
_0-0_
 62
    7
 10
1103.745598672755
 20
409.01035845906267
  0
POINT
  8
_0-0_
 62
    7
 10
1110.9681868937464
 20
413.20411936157439
  0
POINT
  8
_0-0_
 62
    7
 10
1118.6567485483506
 20
412.85463928636568
  0
POINT
  8
_0-0_
 62
    7
 10
1125.0638832605214
 20
414.6020396624092
  0
POINT
  8
_0-0_
 62
    7
 10
1132.6359515567224
 20
414.71853302081331
  0
POINT
  8
_0-0_
 62
    7
 10
1129.9566043134505
 20
408.07841159183704
  0
POINT
  8
_0-0_
 62
    7
 10
1140.2080198529234
 20
406.21451785738941
  0
POINT
  8
_0-0_
 62
    7
 10
1137.6451659680547
 20
418.44632048971221
  0
POINT
  8
_0-0_
 62
    7
 10
1142.188406945776
 20
416.58242675526458
  0
POINT
  8
_0-0_
 62
    7
 10
1148.8285283747523
 20
404.58361083974273
  0
POINT
  8
_0-0_
 62
    7
 10
1148.3625549411395
 20
410.40827875989748
  0
POINT
  8
_0-0_
 62
    7
 10
1148.5955416579459
 20
415.76697324644306
  0
POINT
  8
_0-0_
 62
    7
 10
1147.0811279987061
 20
422.52358803381981
  0
POINT
  8
_0-0_
 62
    7
 10
1155.5851431621318
 20
427.18332236994434
  0
POINT
  8
_0-0_
 62
    7
 10
1160.5943575734641
 20
423.68852161785003
  0
POINT
  8
_0-0_
 62
    7
 10
1151.3913822596201
 20
420.31021422416347
  0
POINT
  8
_0-0_
 62
    7
 10
1157.0995568213716
 20
412.73814592796157
  0
POINT
  8
_0-0_
 62
    7
 10
1156.5170900293565
 20
398.40946284437928
  0
POINT
  8
_0-0_
 62
    7
 10
1165.9530520600069
 20
386.06116685365237
  0
POINT
  8
_0-0_
 62
    7
 10
1136.0142589504117
 20
403.41867725571251
  0
POINT
  8
_0-0_
 62
    7
 10
1105.3765056903981
 20
403.65166397252074
  0
POINT
  8
_0-0_
 62
    7
 10
1110.6187068185377
 20
404.35062412293814
  0
POINT
  8
_0-0_
 62
    7
 10
1112.9485739865991
 20
408.42789166704574
  0
POINT
  8
_0-0_
 62
    7
 10
1106.3084525576228
 20
412.50515921115334
  0
POINT
  8
_0-0_
 62
    7
 10
1094.4261300005078
 20
414.0195728703959
  0
POINT
  8
_0-0_
 62
    7
 10
1081.6118605761671
 20
419.72774743214654
  0
POINT
  8
_0-0_
 62
    7
 10
1110.1527333849249
 20
419.49476071534195
  0
POINT
  8
_0-0_
 62
    7
 10
1117.9577883979323
 20
416.34944003845635
  0
POINT
  8
_0-0_
 62
    7
 10
1115.2784411546613
 20
421.00917437458088
  0
POINT
  8
_0-0_
 62
    7
 10
1125.7628434109397
 20
420.77618765777265
  0
POINT
  8
_0-0_
 62
    7
 10
1128.2092039374043
 20
404.35062412293814
  0
POINT
  8
_0-0_
 62
    7
 10
1123.0834961676687
 20
406.447504574194
  0
POINT
  8
_0-0_
 62
    7
 10
1083.9417277442285
 20
408.07841159183704
  0
POINT
  8
_0-0_
 62
    7
 10
1078.3500465408802
 20
403.88465068932533
  0
POINT
  8
_0-0_
 62
    7
 10
1092.2127561908487
 20
403.65166397252074
  0
POINT
  8
_0-0_
 62
    7
 10
1093.4941831332821
 20
419.02878728172914
  0
LINE
  8
_0-0_
  6
CONTINUOUS
 62
    7
 10
1163.1474972114806
 20
565.76685821022079
 11
1177.1474972114816
 21
565.76685821022079
  0
LINE
  8
_0-0_
  6
CONTINUOUS
 62
    7
 10
1162.1474972114806
 20
566.76685821022079
 11
1163.1474972114806
 21
565.76685821022079
  0
LINE
  8
_0-0_
  6
CONTINUOUS
 62
    7
 10
1162.1474972114806
 20
571.11685821022297
 11
1162.1474972114806
 21
566.76685821022079
  0
LINE
  8
_0-0_
  6
CONTINUOUS
 62
    7
 10
1163.1474972114806
 20
572.11685821022297
 11
1162.1474972114806
 21
571.11685821022297
  0
LINE
  8
_0-0_
  6
CONTINUOUS
 62
    7
 10
1177.1474972114816
 20
572.11685821022297
 11
1163.1474972114806
 21
572.11685821022297
  0
ARC
  8
_0-0_
  6
CONTINUOUS
 62
    7
 10
1175.776068640052
 20
568.9418582102237
 40
5.5714285714285214
 50
7.4251436854322064
 51
75.749967302198101
  0
LINE
  8
_0-0_
  6
CONTINUOUS
 62
    7
 10
1179.0474972114821
 20
569.66185821022123
 11
1181.3007782547324
 21
569.66185821022123
  0
LINE
  8
_0-0_
  6
CONTINUOUS
 62
    7
 10
1179.0474972114821
 20
568.22185821022254
 11
1179.0474972114821
 21
569.66185821022123
  0
LINE
  8
_0-0_
  6
CONTINUOUS
 62
    7
 10
1181.3007782547324
 20
568.22185821022254
 11
1179.0474972114821
 21
568.22185821022254
  0
ARC
  8
_0-0_
  6
CONTINUOUS
 62
    7
 10
1175.7760686400529
 20
568.9418582102237
 40
5.5714285714282301
 50
284.25003269780018
 51
352.57485631456524
  0
LINE
  8
_0-0_
  6
CONTINUOUS
 62
    7
 10
1177.1474972114816
 20
574.34185821022152
 11
1177.1474972114816
 21
563.54185821022224
  0
LINE
  8
_0-0_
  6
CONTINUOUS
 62
    7
 10
1173.2013651517414
 20
492.5520753365829
 11
1188.7577143378444
 21
476.99572615047987
  0
LINE
  8
_0-0_
  6
CONTINUOUS
 62
    7
 10
1172.0699943018412
 20
491.42070448668642
 11
1173.2013651517414
 21
492.5520753365829
  0
LINE
  8
_0-0_
  6
CONTINUOUS
 62
    7
 10
1187.6263434879452
 20
475.86435530058338
 11
1172.0699943018412
 21
491.42070448668642
  0
LINE
  8
_0-0_
  6
CONTINUOUS
 62
    7
 10
1188.7577143378444
 20
476.99572615047987
 11
1187.6263434879452
 21
475.86435530058338
  0
LINE
  8
_0-0_
  6
CONTINUOUS
 62
    7
 10
1200.778529618015
 20
510.51258757872461
 11
1183.6665455133011
 21
493.40060347400981
  0
LINE
  8
_0-0_
  6
CONTINUOUS
 62
    7
 10
1199.6471587681176
 20
510.51258757872097
 11
1183.100860088352
 21
493.96628889895624
  0
LINE
  8
_0-0_
  6
CONTINUOUS
 62
    7
 10
1201.7684791116776
 20
510.51258757872097
 11
1199.6471587681176
 21
510.51258757872097
  0
LINE
  8
_0-0_
  6
CONTINUOUS
 62
    7
 10
1206.7182265799825
 20
505.56284011041612
 11
1201.7684791116776
 21
510.51258757872097
  0
LINE
  8
_0-0_
  6
CONTINUOUS
 62
    7
 10
1206.7182265799825
 20
503.44151976685794
 11
1206.7182265799825
 21
505.56284011041612
  0
LINE
  8
_0-0_
  6
CONTINUOUS
 62
    7
 10
1190.1719279002177
 20
486.8952210870932
 11
1206.7182265799825
 21
503.44151976685794
  0
LINE
  8
_0-0_
  6
CONTINUOUS
 62
    7
 10
1193.0397869743906
 20
482.95370609735733
 11
1192.6468016343711
 21
484.42034735293896
  0
LINE
  8
_0-0_
  6
CONTINUOUS
 62
    7
 10
1187.9197606826779
 20
477.83367980564549
 11
1193.0397869743906
 21
482.95370609735733
  0
LINE
  8
_0-0_
  6
CONTINUOUS
 62
    7
 10
1174.0393188069079
 20
491.71412168141728
 11
1187.9197606826779
 21
477.83367980564549
  0
LINE
  8
_0-0_
  6
CONTINUOUS
 62
    7
 10
1179.1593450986179
 20
496.83414797312912
 11
1174.0393188069079
 21
491.71412168141728
  0
LINE
  8
_0-0_
  6
CONTINUOUS
 62
    7
 10
1180.6259863541986
 20
496.44116263311048
 11
1179.1593450986179
 21
496.83414797312912
  0
LINE
  8
_0-0_
  6
CONTINUOUS
 62
    7
 10
1192.6468016343711
 20
484.42034735293896
 11
1180.6259863541986
 21
496.44116263311048
  0
LINE
  8
_0-0_
  6
CONTINUOUS
 62
    7
 10
1182.6294555675609
 20
493.36403750418799
 11
1180.6259863541986
 21
496.44116263311048
  0
ARC
  8
_0-0_
  6
CONTINUOUS
 62
    7
 10
1175.1524066718944
 20
478.9467676706347
 40
16.240810621445799
 50
27.412046226006396
 51
62.587953773993704
  0
LINE
  8
_0-0_
  6
CONTINUOUS
 62
    7
 10
1192.6468016343711
 20
484.42034735293896
 11
1189.5696765054477
 21
486.42381656630209
  0
LINE
  8
_0-0_
  6
CONTINUOUS
 62
    7
 10
1206.7182265799825
 20
504.57289061675442
 11
1189.6062424752668
 21
487.46090651203963
  0
LINE
  8
_0-0_
  6
CONTINUOUS
 62
    7
 10
1199.6471587681176
 20
510.51258757872461
 11
1206.7182265799825
 21
503.44151976685794
  0
ARC
  8
_0-0_
  6
CONTINUOUS
 62
    7
 10
1172.1474972114734
 20
475.9418582102237
 40
10
 50
255.00000000007287
 51
270
  0
ARC
  8
_0-0_
  6
CONTINUOUS
 62
    7
 10
1218.1682945008783
 20
471.94185821022006
 40
0.9999999999996328
 50
224.90087215595801
 51
270
  0
ARC
  8
_0-0_
  6
CONTINUOUS
 62
    7
 10
1212.1474972114816
 20
465.94185821022006
 40
7.5000000000002487
 50
44.900872155958005
 51
125.68533471264276
  0
LINE
  8
_0-0_
  6
CONTINUOUS
 62
    7
 10
1206.2523503149173
 20
470.9418582102237
 11
1207.7724972114834
 21
472.03360467572679
  0
ARC
  8
_0-0_
  6
CONTINUOUS
 62
    7
 10
1216.5349794051785
 20
466.9418582102237
 40
1.0000000000000699
 50
192.83958840692833
 51
270
  0
ARC
  8
_0-0_
  6
CONTINUOUS
 62
    7
 10
1212.1474972114816
 20
465.9418582102237
 40
3.500000000000048
 50
12.839588406928298
 51
125.68533471264276
  0
LINE
  8
_0-0_
  6
CONTINUOUS
 62
    7
 10
1206.1474972114816
 20
465.9418582102237
 11
1210.1058305448155
 21
468.78467322745678
  0
ARC
  8
_0-0_
  6
CONTINUOUS
 62
    7
 10
1184.4015305190965
 20
466.44185821021279
 40
0.5
 50
270
 51
75.287668388261906
  0
ARC
  8
_0-0_
  6
CONTINUOUS
 62
    7
 10
1162.6474972114806
 20
488.1958915178086
 40
0.5
 50
14.712331611805297
 51
180
  0
LINE
  8
_0-0_
  6
CONTINUOUS
 62
    7
 10
1184.4496502137349
 20
481.30379027459026
 11
1189.5696765054477
 21
486.42381656630209
  0
LINE
  8
_0-0_
  6
CONTINUOUS
 62
    7
 10
1182.6294555675609
 20
493.36403750418799
 11
1177.509429275849
 21
488.24401121247615
  0
LINE
  8
_0-0_
  6
CONTINUOUS
 62
    7
 10
1183.5604794961232
 20
479.93021929240535
 11
1184.6918503460224
 21
481.06159014230184
  0
LINE
  8
_0-0_
  6
CONTINUOUS
 62
    7
 10
1176.1358582936641
 20
487.35484049486445
 11
1177.2672291435633
 21
488.48621134476093
  0
LINE
  8
_0-0_
  6
CONTINUOUS
 62
    7
 10
1162.1474972114806
 20
566.76685821022079
 11
1177.1474972114816
 21
566.76685821022079
  0
LINE
  8
_0-0_
  6
CONTINUOUS
 62
    7
 10
1162.1474972114806
 20
571.11685821022297
 11
1177.1474972114816
 21
571.11685821022297
  0
LINE
  8
_0-0_
  6
CONTINUOUS
 62
    7
 10
1163.1474972114806
 20
572.11685821022297
 11
1163.1474972114806
 21
565.76685821022079
  0
LINE
  8
_0-0_
  6
CONTINUOUS
 62
    7
 10
1177.1474972114816
 20
575.9418582102237
 11
1176.181979970102
 21
576.9073754516005
  0
LINE
  8
_0-0_
  6
CONTINUOUS
 62
    7
 10
1272.1474972114816
 20
480.9418582102237
 11
1273.1130144528611
 21
479.97634096884326
  0
LINE
  8
_0-0_
  6
CONTINUOUS
 62
    7
 10
1177.1474972114816
 20
557.9418582102237
 11
1177.1474972114816
 21
553.9418582102237
  0
LINE
  8
_0-0_
  6
CONTINUOUS
 62
    7
 10
1177.1474972114816
 20
514.05455658242977
 11
1177.1474972114816
 21
494.82230008599186
  0
LINE
  8
_0-0_
  6
CONTINUOUS
 62
    7
 10
1210.2601955836913
 20
480.9418582102237
 11
1191.0279390872524
 21
480.9418582102237
  0
LINE
  8
_0-0_
  6
CONTINUOUS
 62
    7
 10
1221.5739040826743
 20
480.9418582102237
 11
1247.0297482053907
 21
480.9418582102237
  0
ARC
  8
_0-0_
  6
CONTINUOUS
 62
    7
 10
1179.1474972114806
 20
550.82410920412917
 40
2
 50
180.00000000000006
 51
314.99999999999102
  0
ARC
  8
_0-0_
  6
CONTINUOUS
 62
    7
 10
1179.1474972114806
 20
525.3682650814128
 40
2
 50
134.99999999999105
 51
180
  0
ARC
  8
_0-0_
  6
CONTINUOUS
 62
    7
 10
1179.1474972114806
 20
514.05455658242977
 40
2
 50
180.00000000000006
 51
314.99999999999102
  0
ARC
  8
_0-0_
  6
CONTINUOUS
 62
    7
 10
1210.2601955836913
 20
482.9418582102237
 40
2
 50
134.99999999999102
 51
270
  0
ARC
  8
_0-0_
  6
CONTINUOUS
 62
    7
 10
1221.5739040826743
 20
482.9418582102237
 40
2
 50
270
 51
314.99999999999102
  0
ARC
  8
_0-0_
  6
CONTINUOUS
 62
    7
 10
1247.0297482053907
 20
482.9418582102237
 40
2
 50
134.99999999999102
 51
270
  0
ARC
  8
_0-0_
  6
CONTINUOUS
 62
    7
 10
1265.124767003173
 20
482.9418582102237
 40
2
 50
181.30228893516397
 51
270
  0
LINE
  8
_0-0_
  6
CONTINUOUS
 62
    7
 10
1257.1474972114816
 20
473.9418582102237
 11
1188.3334502691318
 21
473.9418582102237
  0
ARC
  8
_0-0_
  6
CONTINUOUS
 62
    7
 10
1179.1474972114806
 20
568.91912800191244
 40
2
 50
179.99999999999994
 51
268.69771106483603
  0
ARC
  8
_0-0_
  6
CONTINUOUS
 62
    7
 10
1179.1474972114806
 20
559.9418582102237
 40
2
 50
180
 51
270
  0
LINE
  8
_0-0_
  6
CONTINUOUS
 62
    7
 10
1170.1474972114806
 20
556.9418582102237
 11
1170.1474972114806
 21
492.12781126787127
  0
LINE
  8
_0-0_
  6
CONTINUOUS
 62
    7
 10
1235.6718106804897
 20
530.98089030499
 11
1190.8790346814044
 21
486.18811430590472
  0
LINE
  8
_0-0_
  6
CONTINUOUS
 62
    7
 10
1242.0531414510137
 20
537.36222107551407
 11
1235.6718106804897
 21
530.98089030499
  0
LINE
  8
_0-0_
  6
CONTINUOUS
 62
    7
 10
1242.7066498905292
 20
536.60151595265893
 11
1191.5861414625911
 21
485.48100752471987
  0
LINE
  8
_0-0_
  6
CONTINUOUS
 62
    7
 10
1243.8681455566661
 20
519.37823530794526
 11
1208.845982021317
 21
484.3560717725934
  0
LINE
  8
_0-0_
  6
CONTINUOUS
 62
    7
 10
1250.4335251656971
 20
525.94361491697532
 11
1243.8681455566661
 21
519.37823530794526
  0
LINE
  8
_0-0_
  6
CONTINUOUS
 62
    7
 10
1249.2976362671093
 20
507.83716326991021
 11
1222.9881176450467
 21
481.52764464785037
  0
LINE
  8
_0-0_
  6
CONTINUOUS
 62
    7
 10
1256.21957737613
 20
514.75910437893367
 11
1249.2976362671093
 21
507.83716326991021
  0
LINE
  8
_0-0_
  6
CONTINUOUS
 62
    7
 10
1253.3378950353031
 20
492.07843216488368
 11
1245.6155346430173
 21
484.35607177259703
  0
LINE
  8
_0-0_
  6
CONTINUOUS
 62
    7
 10
1261.0553394607236
 20
499.79587659030335
 11
1253.3378950353031
 21
492.07843216488368
  0
LINE
  8
_0-0_
  6
CONTINUOUS
 62
    7
 10
1227.1865293062515
 20
539.46617167923
 11
1182.3937533071653
 21
494.67339568014472
  0
LINE
  8
_0-0_
  6
CONTINUOUS
 62
    7
 10
1233.5678600767756
 20
545.84750244975407
 11
1227.1865293062515
 21
539.46617167923
  0
LINE
  8
_0-0_
  6
CONTINUOUS
 62
    7
 10
1232.8071549539204
 20
546.50101088926863
 11
1181.6866465259786
 21
495.38050246132957
  0
LINE
  8
_0-0_
  6
CONTINUOUS
 62
    7
 10
1215.583874309204
 20
547.66250655540466
 11
1180.561710773854
 21
512.64034302005643
  0
LINE
  8
_0-0_
  6
CONTINUOUS
 62
    7
 10
1222.1492539182359
 20
554.22788616443836
 11
1215.583874309204
 21
547.66250655540466
  0
LINE
  8
_0-0_
  6
CONTINUOUS
 62
    7
 10
1204.0428022711708
 20
553.09199726584961
 11
1177.7332836491073
 21
526.78247864378613
  0
LINE
  8
_0-0_
  6
CONTINUOUS
 62
    7
 10
1210.9647433801924
 20
560.01393837487308
 11
1204.0428022711708
 21
553.09199726584961
  0
LINE
  8
_0-0_
  6
CONTINUOUS
 62
    7
 10
1185.0936733423182
 20
553.9418582102237
 11
1180.561710773854
 21
549.40989564175584
  0
LINE
  8
_0-0_
  6
CONTINUOUS
 62
    7
 10
1196.0015155915612
 20
564.84970045946216
 11
1185.09367334232
 21
553.9418582102237
  0
LINE
  8
_0-0_
  6
CONTINUOUS
 62
    7
 10
1235.7872698397191
 20
544.5313783067661
 11
1236.4949495416245
 21
545.23905800866964
  0
LINE
  8
_0-0_
  6
CONTINUOUS
 62
    7
 10
1240.7370173080249
 20
539.58163083845761
 11
1241.4446970099311
 21
540.2893105403648
  0
LINE
  8
_0-0_
  6
CONTINUOUS
 62
    7
 10
1244.973194476584
 20
534.62541985159373
 11
1239.4147458238199
 21
526.23854407408476
  0
LINE
  8
_0-0_
  6
CONTINUOUS
 62
    7
 10
1230.8310588528534
 20
548.76755547532343
 11
1222.4441830753417
 21
543.20910682256113
  0
LINE
  8
_0-0_
  6
CONTINUOUS
 62
    7
 10
1201.6423946393129
 20
557.9418582102237
 11
1207.1474972114816
 21
561.53962492866162
  0
LINE
  8
_0-0_
  6
CONTINUOUS
 62
    7
 10
1172.4808305448164
 20
572.9418582102237
 11
1177.1474972114816
 21
572.9418582102237
  0
LINE
  8
_0-0_
  6
CONTINUOUS
 62
    7
 10
1254.1474972114816
 20
480.9418582102237
 11
1254.1474972114816
 21
476.9418582102237
  0
LINE
  8
_0-0_
  6
CONTINUOUS
 62
    7
 10
1177.1474972114816
 20
557.9418582102237
 11
1173.1474972114806
 21
557.9418582102237
  0
LINE
  8
_0-0_
  6
CONTINUOUS
 62
    7
 10
1201.6423946393156
 20
553.9418582102237
 11
1201.6423946393129
 21
557.9418582102237
  0
ARC
  8
_0-0_
  6
CONTINUOUS
 62
    7
 10
1173.1474972114806
 20
556.9418582102237
 40
3
 50
180
 51
270
  0
LINE
  8
_0-0_
  6
CONTINUOUS
 62
    7
 10
1173.1474972114806
 20
553.9418582102237
 11
1201.6423946393156
 21
553.9418582102237
  0
LINE
  8
_0-0_
  6
CONTINUOUS
 62
    7
 10
1179.1474972114806
 20
557.9418582102237
 11
1201.6423946393129
 21
557.9418582102237
  0
ARC
  8
_0-0_
  6
CONTINUOUS
 62
    7
 10
1177.1474972114816
 20
480.9418582102237
 40
77
 50
71.451000386577704
 51
90
  0
ARC
  8
_0-0_
  6
CONTINUOUS
 62
    7
 10
1177.1474972114816
 20
480.9418582102237
 40
77
 50
0
 51
71.451000386577704
  0
ARC
  8
_0-0_
  6
CONTINUOUS
 62
    7
 10
1177.1474972114816
 20
480.9418582102237
 40
87.5
 50
42.707557224017499
 51
47.29244277596252
  0
ARC
  8
_0-0_
  6
CONTINUOUS
 62
    7
 10
1177.1474972114816
 20
480.9418582102237
 40
86.5
 50
38.361366560620091
 51
51.638633439393281
  0
ARC
  8
_0-0_
  6
CONTINUOUS
 62
    7
 10
1177.1474972114816
 20
480.9418582102237
 40
86
 50
51.747571769753101
 51
88.697711064836071
  0
ARC
  8
_0-0_
  6
CONTINUOUS
 62
    7
 10
1177.1474972114816
 20
480.9418582102237
 40
86
 50
38.252428230275719
 51
51.747571769753115
  0
ARC
  8
_0-0_
  6
CONTINUOUS
 62
    7
 10
1177.1474972114816
 20
480.9418582102237
 40
86
 50
1.3022889351638973
 51
38.252428230275726
  0
ARC
  8
_0-0_
  6
CONTINUOUS
 62
    7
 10
1257.1474972114816
 20
476.9418582102237
 40
3
 50
180
 51
270
  0
LINE
  8
_0-0_
  6
CONTINUOUS
 62
    7
 10
1266.6474972114816
 20
473.9418582102237
 11
1257.1474972114816
 21
473.9418582102237
  0
LINE
  8
_0-0_
  6
CONTINUOUS
 62
    7
 10
1170.1474972114806
 20
570.4418582102237
 11
1170.1474972114806
 21
556.9418582102237
  0
LINE
  8
_0-0_
  6
CONTINUOUS
 62
    7
 10
1273.1130144528611
 20
479.97634096884326
 11
1266.6474972114816
 21
473.9418582102237
  0
LINE
  8
_0-0_
  6
CONTINUOUS
 62
    7
 10
1247.0297482053907
 20
480.9418582102237
 11
1272.1474972114816
 21
480.94185821022006
  0
LINE
  8
_0-0_
  6
CONTINUOUS
 62
    7
 10
1210.2601955836913
 20
480.9418582102237
 11
1221.5739040826743
 21
480.9418582102237
  0
LINE
  8
_0-0_
  6
CONTINUOUS
 62
    7
 10
1177.1474972114816
 20
525.3682650814128
 11
1177.1474972114816
 21
514.05455658242977
  0
LINE
  8
_0-0_
  6
CONTINUOUS
 62
    7
 10
1177.1474972114816
 20
553.9418582102237
 11
1177.1474972114816
 21
550.82410920412917
  0
LINE
  8
_0-0_
  6
CONTINUOUS
 62
    7
 10
1177.1474972114816
 20
575.9418582102237
 11
1177.1474972114816
 21
557.9418582102237
  0
LINE
  8
_0-0_
  6
CONTINUOUS
 62
    7
 10
1176.181979970102
 20
576.9073754516005
 11
1170.1474972114806
 21
570.4418582102237
  0
LINE
  8
_0-0_
  6
CONTINUOUS
 62
    7
 10
1227.1474972114816
 20
470.9418582102237
 11
1227.1474972114816
 21
465.9418582102237
  0
LINE
  8
_0-0_
  6
CONTINUOUS
 62
    7
 10
1162.1474972114806
 20
530.9418582102237
 11
1167.1474972114806
 21
530.9418582102237
  0
LINE
  8
_0-0_
  6
CONTINUOUS
 62
    7
 10
1177.1474972114816
 20
570.9418582102237
 11
1167.1474972114806
 21
558.08471535307876
  0
LINE
  8
_0-0_
  6
CONTINUOUS
 62
    7
 10
1176.8936517830793
 20
583.606933792272
 11
1170.1474972114806
 21
574.93330648593223
  0
LINE
  8
_0-0_
  6
CONTINUOUS
 62
    7
 10
1170.1474972114806
 20
564.9418582102237
 11
1170.1474972114806
 21
561.9418582102237
  0
ARC
  8
_0-0_
  6
CONTINUOUS
 62
    7
 10
1175.6474972114806
 20
584.4418582102237
 40
1.5
 50
326.17788765133332
 51
90
  0
LINE
  8
_0-0_
  6
CONTINUOUS
 62
    7
 10
1177.1474972114816
 20
570.9418582102237
 11
1177.1474972114816
 21
584.4418582102237
  0
LINE
  8
_0-0_
  6
CONTINUOUS
 62
    7
 10
1262.3395771165747
 20
473.9418582102237
 11
1272.3395771165747
 21
473.9418582102237
  0
LINE
  8
_0-0_
  6
CONTINUOUS
 62
    7
 10
1262.3395771165747
 20
473.9418582102237
 11
1259.0077395720868
 21
470.9418582102237
  0
LINE
  8
_0-0_
  6
CONTINUOUS
 62
    7
 10
1279.4474972114826
 20
480.34185821022152
 11
1269.0077395720868
 21
470.9418582102237
  0
ARC
  8
_0-0_
  6
CONTINUOUS
 62
    7
 10
1280.6474972114816
 20
479.4418582102237
 40
1.5
 50
0
 51
143.13010235416249
  0
LINE
  8
_0-0_
  6
CONTINUOUS
 62
    7
 10
1267.1474972114816
 20
480.9418582102237
 11
1280.6474972114816
 21
480.9418582102237
  0
LINE
  8
_0-0_
  6
CONTINUOUS
 62
    7
 10
1162.1474972114806
 20
565.9418582102237
 11
1170.1474972114806
 21
565.9418582102237
  0
LINE
  8
_0-0_
  6
CONTINUOUS
 62
    7
 10
1162.1474972114806
 20
571.9418582102237
 11
1170.1474972114806
 21
571.9418582102237
  0
LINE
  8
_0-0_
  6
CONTINUOUS
 62
    7
 10
1162.1474972114806
 20
570.9418582102237
 11
1170.1474972114806
 21
570.9418582102237
  0
LINE
  8
_0-0_
  6
CONTINUOUS
 62
    7
 10
1162.1474972114806
 20
566.9418582102237
 11
1170.1474972114806
 21
566.9418582102237
  0
LINE
  8
_0-0_
  6
CONTINUOUS
 62
    7
 10
1170.1474972114806
 20
574.93330648593223
 11
1170.1474972114806
 21
564.63902990013707
  0
LINE
  8
_0-0_
  6
CONTINUOUS
 62
    7
 10
1171.3628875206564
 20
492.12781126787127
 11
1162.3909341384128
 21
492.12781126787127
  0
LINE
  8
_0-0_
  6
CONTINUOUS
 62
    7
 10
1188.3334502691318
 20
475.1572485193949
 11
1188.3334502691318
 21
466.18529513715225
  0
LINE
  8
_0-0_
  6
CONTINUOUS
 62
    7
 10
1184.7979163631949
 20
478.69278242533369
 11
1175.60552820777
 21
470.91460783228217
  0
LINE
  8
_0-0_
  6
CONTINUOUS
 62
    7
 10
1174.898421426587
 20
488.59227736193975
 11
1167.1202468335364
 21
479.3998892065149
  0
LINE
  8
_0-0_
  6
CONTINUOUS
 62
    7
 10
1171.3628875206564
 20
492.12781126787127
 11
1188.3334502691318
 21
475.1572485193949
  0
LINE
  8
_0-0_
  6
CONTINUOUS
 62
    7
 10
1192.1474972114816
 20
470.9418582102237
 11
1192.9012841775916
 21
470.9418582102237
  0
LINE
  8
_0-0_
  6
CONTINUOUS
 62
    7
 10
1167.1474972114806
 20
495.9418582102237
 11
1167.1474972114806
 21
496.69564517633012
  0
ARC
  8
_0-0_
  6
CONTINUOUS
 62
    7
 10
1192.1474972114816
 20
495.9418582102237
 40
25
 50
261.22457957341652
 51
270
  0
ARC
  8
_0-0_
  6
CONTINUOUS
 62
    7
 10
1192.1474972114816
 20
495.9418582102237
 40
25
 50
180.00000000000006
 51
188.77542042658058
  0
ARC
  8
_0-0_
  6
CONTINUOUS
 62
    7
 10
1192.1474972114816
 20
495.9418582102237
 40
30
 50
234.59406822687521
 51
270
  0
ARC
  8
_0-0_
  6
CONTINUOUS
 62
    7
 10
1192.1474972114816
 20
495.9418582102237
 40
30
 50
180
 51
215.40593177317947
  0
LINE
  8
_0-0_
  6
CONTINUOUS
 62
    7
 10
1218.1682945008783
 20
470.9418582102237
 11
1282.1474972114816
 21
470.9418582102237
  0
LINE
  8
_0-0_
  6
CONTINUOUS
 62
    7
 10
1192.9012841775916
 20
470.9418582102237
 11
1206.2523503149173
 21
470.9418582102237
  0
LINE
  8
_0-0_
  6
CONTINUOUS
 62
    7
 10
1167.1474972114806
 20
558.08471535307876
 11
1167.1474972114806
 21
496.69564517633012
  0
LINE
  8
_0-0_
  6
CONTINUOUS
 62
    7
 10
1192.1474972114816
 20
465.9418582102237
 11
1206.1474972114816
 21
465.9418582102237
  0
LINE
  8
_0-0_
  6
CONTINUOUS
 62
    7
 10
1162.1474972114806
 20
585.9418582102237
 11
1175.6474972114806
 21
585.9418582102237
  0
LINE
  8
_0-0_
  6
CONTINUOUS
 62
    7
 10
1162.1474972114806
 20
585.9418582102237
 11
1162.1474972114806
 21
495.9418582102237
  0
LINE
  8
_0-0_
  6
CONTINUOUS
 62
    7
 10
1282.1474972114816
 20
479.4418582102237
 11
1282.1474972114816
 21
465.9418582102237
  0
ARC
  8
_0-0_
  6
CONTINUOUS
 62
    7
 10
1172.1474972114806
 20
475.94185821021279
 40
10
 50
179.99999999999994
 51
194.99999999994083
  0
LINE
  8
_0-0_
  6
CONTINUOUS
 62
    7
 10
1162.1474972114806
 20
559.94185821021279
 11
1162.1474972114806
 21
475.94185821021279
  0
LINE
  8
_0-0_
  6
CONTINUOUS
 62
    7
 10
1282.1474972114816
 20
465.9418582102237
 11
1172.1474972114734
 21
465.9418582102237
  0
LINE
  8
_0-0_
  6
CONTINUOUS
 62
    7
 10
1176.3126349889603
 20
487.17806379956642
 11
1152.6316444763993
 21
463.49707328700356
  0
LINE
  8
_0-0_
  6
CONTINUOUS
 62
    7
 10
1159.7027122882596
 20
456.42600547514417
 11
1183.3837028008224
 21
480.10699598770702
  0
LINE
  8
_0-0_
  6
CONTINUOUS
 62
    7
 10
1176.8783204139113
 20
486.61237837461636
 11
1152.8875939446775
 21
462.62165190538622
  0
LINE
  8
_0-0_
  6
CONTINUOUS
 62
    7
 10
1182.8180173758733
 20
480.67268141265345
 11
1158.8272909066422
 21
456.68195494342331
  0
LINE
  8
_0-0_
  6
CONTINUOUS
 62
    7
 10
1242.836689792171
 20
455.9418582102237
 11
1233.1879936625023
 21
446.98235466124356
  0
LINE
  8
_0-0_
  6
CONTINUOUS
 62
    7
 10
1298.5905359460171
 20
414.74185821022297
 11
1298.5905359460171
 21
427.9418582102237
  0
ARC
  8
_0-0_
  6
CONTINUOUS
 62
    7
 10
1308.7905359460178
 20
414.74185821022297
 40
10.2000000000005
 50
180.00000000000125
 51
270.00000000000125
  0
LINE
  8
_0-0_
  6
CONTINUOUS
 62
    7
 10
1319.9905359460186
 20
404.54185821022224
 11
1308.7905359460178
 21
404.54185821022224
  0
LINE
  8
_0-0_
  6
CONTINUOUS
 62
    7
 10
1319.9905359460186
 20
411.34185821022152
 11
1319.9905359460186
 21
404.54185821022224
  0
LINE
  8
_0-0_
  6
CONTINUOUS
 62
    7
 10
1308.7905359460178
 20
411.34185821022152
 11
1319.9905359460186
 21
411.34185821022152
  0
ARC
  8
_0-0_
  6
CONTINUOUS
 62
    7
 10
1308.7905359460178
 20
414.74185821022297
 40
3.3999999999998631
 50
179.99999999999619
 51
269.99999999999619
  0
LINE
  8
_0-0_
  6
CONTINUOUS
 62
    7
 10
1305.3905359460182
 20
427.9418582102237
 11
1305.3905359460182
 21
414.74185821022297
  0
LINE
  8
_0-0_
  6
CONTINUOUS
 62
    7
 10
1298.2405359460176
 20
427.9418582102237
 11
1298.2405359460176
 21
434.9418582102237
  0
LINE
  8
_0-0_
  6
CONTINUOUS
 62
    7
 10
1305.7405359460176
 20
427.9418582102237
 11
1298.2405359460176
 21
427.9418582102237
  0
LINE
  8
_0-0_
  6
CONTINUOUS
 62
    7
 10
1305.7405359460176
 20
434.9418582102237
 11
1305.7405359460176
 21
427.9418582102237
  0
LINE
  8
_0-0_
  6
CONTINUOUS
 62
    7
 10
1304.5405359460187
 20
434.9418582102237
 11
1304.5405359460187
 21
427.9418582102237
  0
LINE
  8
_0-0_
  6
CONTINUOUS
 62
    7
 10
1299.4405359460184
 20
434.9418582102237
 11
1299.4405359460184
 21
427.9418582102237
  0
ARC
  8
_0-0_
  6
CONTINUOUS
 62
    7
 10
1339.0915564604525
 20
444.9418582102237
 40
5
 50
11.536959032804702
 51
90
  0
ARC
  8
_0-0_
  6
CONTINUOUS
 62
    7
 10
1330.6572026126846
 20
447.9418582102237
 40
2
 50
90
 51
126.86989764582549
  0
ARC
  8
_0-0_
  6
CONTINUOUS
 62
    7
 10
1291.1194297622355
 20
447.9418582102237
 40
2
 50
3.8140748342883031
 51
90
  0
ARC
  8
_0-0_
  6
CONTINUOUS
 62
    7
 10
1309.3238692793516
 20
436.9418582102237
 40
2
 50
270
 51
306.8698976458665
  0
LINE
  8
_0-0_
  6
CONTINUOUS
 62
    7
 10
1310.5238692793514
 20
435.34185821022152
 11
1329.4572026126839
 21
449.54185821022224
  0
ARC
  8
_0-0_
  6
CONTINUOUS
 62
    7
 10
1295.8616421298016
 20
436.9418582102237
 40
2
 50
183.81407483428828
 51
270
  0
LINE
  8
_0-0_
  6
CONTINUOUS
 62
    7
 10
1295.8616421298016
 20
434.9418582102237
 11
1309.3238692793516
 21
434.9418582102237
  0
LINE
  8
_0-0_
  6
CONTINUOUS
 62
    7
 10
1293.8660718140877
 20
436.80882018917441
 11
1293.1150000779494
 21
448.07489623126935
  0
ARC
  8
_0-0_
  6
CONTINUOUS
 62
    7
 10
1249.1197336993014
 20
439.9418582102237
 40
10
 50
90
 51
132.87890360331409
  0
LINE
  8
_0-0_
  6
CONTINUOUS
 62
    7
 10
1339.0915564604525
 20
449.9418582102237
 11
1249.1197336993014
 21
449.9418582102237
  0
LINE
  8
_0-0_
  6
CONTINUOUS
 62
    7
 10
1351.9905359460186
 20
445.9418582102237
 11
1343.9905359460186
 21
445.9418582102237
  0
LINE
  8
_0-0_
  6
CONTINUOUS
 62
    7
 10
1351.9905359460186
 20
455.9418582102237
 11
1351.9905359460186
 21
445.9418582102237
  0
LINE
  8
_0-0_
  6
CONTINUOUS
 62
    7
 10
1351.9905359460186
 20
455.9418582102237
 11
1242.836689792171
 21
455.9418582102237
  0
POINT
  8
_0-0_
 62
    7
 10
1256.6116375372562
 20
407.00187542821118
  0
POINT
  8
_0-0_
 62
    7
 10
1262.0491809305945
 20
434.18959239490255
  0
POINT
  8
_0-0_
 62
    7
 10
1279.3504553639427
 20
411.94509669488366
  0
POINT
  8
_0-0_
 62
    7
 10
1279.3504553639427
 20
435.67255877490356
  0
POINT
  8
_0-0_
 62
    7
 10
1287.753931517283
 20
413.92238520155047
  0
POINT
  8
_0-0_
 62
    7
 10
1271.9356234639358
 20
424.79747198822702
  0
POINT
  8
_0-0_
 62
    7
 10
1255.6229932839219
 20
420.84289497488976
  0
POINT
  8
_0-0_
 62
    7
 10
1246.2308728772473
 20
420.84289497488976
  0
POINT
  8
_0-0_
 62
    7
 10
1247.2195171305816
 20
408.97916393488163
  0
POINT
  8
_0-0_
 62
    7
 10
1245.242228623913
 20
402.05865416154234
  0
POINT
  8
_0-0_
 62
    7
 10
1271.4413013372691
 20
402.05865416154234
  0
POINT
  8
_0-0_
 62
    7
 10
1265.5094358172641
 20
414.4167073282199
  0
POINT
  8
_0-0_
 62
    7
 10
1263.5321473105955
 20
406.50755330154539
  0
POINT
  8
_0-0_
 62
    7
 10
1254.6343490305876
 20
415.40535158155512
  0
POINT
  8
_0-0_
 62
    7
 10
1249.6911277639169
 20
431.22365963490051
  0
POINT
  8
_0-0_
 62
    7
 10
1247.2195171305816
 20
440.61578004157604
  0
POINT
  8
_0-0_
 62
    7
 10
1256.1173154105895
 20
436.66120302823879
  0
POINT
  8
_0-0_
 62
    7
 10
1262.0491809305945
 20
443.58171280157808
  0
POINT
  8
_0-0_
 62
    7
 10
1272.4299455906034
 20
437.15552515490458
  0
POINT
  8
_0-0_
 62
    7
 10
1270.4526570839348
 20
429.24637112823007
  0
POINT
  8
_0-0_
 62
    7
 10
1273.9129119706045
 20
442.09874642157706
  0
POINT
  8
_0-0_
 62
    7
 10
1280.8334217439437
 20
447.53628981491534
  0
POINT
  8
_0-0_
 62
    7
 10
1288.2482536439497
 20
446.05332343491432
  0
POINT
  8
_0-0_
 62
    7
 10
1270.4526570839348
 20
445.55900130824489
  0
POINT
  8
_0-0_
 62
    7
 10
1266.4980800705985
 20
438.1441694082398
  0
POINT
  8
_0-0_
 62
    7
 10
1278.3618111106084
 20
427.76340474822905
  0
POINT
  8
_0-0_
 62
    7
 10
1284.2936766306134
 20
438.1441694082398
  0
POINT
  8
_0-0_
 62
    7
 10
1289.7312200239517
 20
422.82018348156021
  0
POINT
  8
_0-0_
 62
    7
 10
1295.168763417289
 20
428.75204900156427
  0
POINT
  8
_0-0_
 62
    7
 10
1280.8334217439437
 20
417.87696221488773
  0
POINT
  8
_0-0_
 62
    7
 10
1293.685797037288
 20
405.51890904821016
  0
POINT
  8
_0-0_
 62
    7
 10
1283.7993545039458
 20
401.56433203487654
  0
POINT
  8
_0-0_
 62
    7
 10
1309.5041050906352
 20
399.5870435282061
  0
POINT
  8
_0-0_
 62
    7
 10
1319.8848697506432
 20
419.35992859488874
  0
POINT
  8
_0-0_
 62
    7
 10
1330.7599565373198
 20
434.18959239490255
  0
POINT
  8
_0-0_
 62
    7
 10
1348.061230970668
 20
410.46213031488264
  0
POINT
  8
_0-0_
 62
    7
 10
1330.7599565373198
 20
412.93374094821888
  0
POINT
  8
_0-0_
 62
    7
 10
1337.1861441839915
 20
421.33721710155919
  0
POINT
  8
_0-0_
 62
    7
 10
1344.6009760839984
 20
425.29179411489645
  0
POINT
  8
_0-0_
 62
    7
 10
1345.0952982106651
 20
407.9905196815464
  0
POINT
  8
_0-0_
 62
    7
 10
1333.2315671706551
 20
403.04729841487756
  0
POINT
  8
_0-0_
 62
    7
 10
1319.3905476239765
 20
399.0927214015403
  0
POINT
  8
_0-0_
 62
    7
 10
1347.0725867173337
 20
400.57568778154132
  0
POINT
  8
_0-0_
 62
    7
 10
1353.0044522373387
 20
418.37128434155716
  0
POINT
  8
_0-0_
 62
    7
 10
1352.5101301106711
 20
434.18959239490255
  0
POINT
  8
_0-0_
 62
    7
 10
1355.476062870674
 20
440.12145791490661
  0
POINT
  8
_0-0_
 62
    7
 10
1353.4987743640054
 20
428.25772687489848
  0
POINT
  8
_0-0_
 62
    7
 10
1341.6350433239954
 20
438.1441694082398
  0
POINT
  8
_0-0_
 62
    7
 10
1336.6918220573248
 20
425.78611624156224
  0
POINT
  8
_0-0_
 62
    7
 10
1324.8280910173148
 20
421.83153922822498
  0
POINT
  8
_0-0_
 62
    7
 10
1314.4473263573059
 20
427.26908262156326
  0
POINT
  8
_0-0_
 62
    7
 10
1312.964359977304
 20
432.21230388823574
  0
POINT
  8
_0-0_
 62
    7
 10
1329.7713122839855
 20
441.60442429490763
  0
POINT
  8
_0-0_
 62
    7
 10
1323.3451246373129
 20
442.09874642157706
  0
POINT
  8
_0-0_
 62
    7
 10
1325.3224131439815
 20
428.75204900156427
  0
POINT
  8
_0-0_
 62
    7
 10
1336.1974999306572
 20
442.59306854824285
  0
POINT
  8
_0-0_
 62
    7
 10
1341.6350433239954
 20
442.09874642157706
  0
POINT
  8
_0-0_
 62
    7
 10
1321.3678361306452
 20
431.71798176156631
  0
POINT
  8
_0-0_
 62
    7
 10
1309.9984272173019
 20
422.82018348156021
  0
POINT
  8
_0-0_
 62
    7
 10
1310.4927493439686
 20
416.39399583488671
  0
POINT
  8
_0-0_
 62
    7
 10
1325.3224131439815
 20
413.92238520155047
  0
POINT
  8
_0-0_
 62
    7
 10
1325.3224131439815
 20
403.54162054154335
  0
POINT
  8
_0-0_
 62
    7
 10
1339.1634326906601
 20
408.48484180821583
  0
POINT
  8
_0-0_
 62
    7
 10
1346.0839424639994
 20
416.39399583488671
  0
POINT
  8
_0-0_
 62
    7
 10
1340.6463990706611
 20
399.5870435282061
  0
POINT
  8
_0-0_
 62
    7
 10
1298.134696177292
 20
399.5870435282061
  0
POINT
  8
_0-0_
 62
    7
 10
1342.6236875773297
 20
431.22365963490051
  0
POINT
  8
_0-0_
 62
    7
 10
1260.5662145505935
 20
399.0927214015403
  0
POINT
  8
_0-0_
 62
    7
 10
1262.0491809305945
 20
423.80882773489543
  0
POINT
  8
_0-0_
 62
    7
 10
1271.9356234639358
 20
413.92238520155047
  0
LINE
  8
_0-0_
  6
CONTINUOUS
 62
    7
 10
1356.9905359460186
 20
455.9418582102237
 11
1356.9905359460186
 21
397.98235466124356
  0
LINE
  8
_0-0_
  6
CONTINUOUS
 62
    7
 10
1356.9905359460186
 20
397.98235466124356
 11
1239.1879936625014
 21
397.98235466124356
  0
LINE
  8
_0-0_
  6
CONTINUOUS
 62
    7
 10
1403.6035797777063
 20
357.98235466124356
 11
1501.5630833266846
 21
455.9418582102237
  0
LINE
  8
_0-0_
  6
CONTINUOUS
 62
    7
 10
1242.3152227056294
 20
447.26979312648587
 11
1238.2161412375021
 21
443.46350319179442
  0
ARC
  8
_0-0_
  6
CONTINUOUS
 62
    4
 10
1255.1329459614358
 20
458.9418582102237
 40
4
 50
90
 51
165.00000000000267
  0
LINE
  8
_0-0_
  6
CONTINUOUS
 62
    4
 10
1251.2692426562794
 20
459.97713439063341
 11
1250.1879936625023
 21
455.9418582102237
  0
LINE
  8
_0-0_
  6
CONTINUOUS
 62
    3
 10
1383.6972548246963
 20
461.9418582102237
 11
1383.6972548246963
 21
455.9418582102237
  0
LINE
  8
_0-0_
  6
DASHED2
 62
    5
 10
1431.537360130555
 20
463.9418582102237
 11
1383.6972548246963
 21
463.9418582102237
  0
LINE
  8
_0-0_
  6
DASHED2
 62
    5
 10
1377.6972548246972
 20
457.9418582102237
 11
1333.327268771161
 21
457.9418582102237
  0
LINE
  8
_0-0_
  6
DASHED2
 62
    5
 10
1383.6972548246963
 20
463.9418582102237
 11
1377.6972548246972
 21
457.9418582102237
  0
LINE
  8
_0-0_
  6
CONTINUOUS
 62
    4
 10
1255.1329459614358
 20
462.9418582102237
 11
1369.8408483641447
 21
462.9418582102237
  0
LINE
  8
_0-0_
  6
CONTINUOUS
 62
    4
 10
1383.6972548246963
 20
470.9418582102237
 11
1369.8408483641447
 21
462.9418582102237
  0
LINE
  8
_0-0_
  6
CONTINUOUS
 62
    7
 10
1396.5325119658414
 20
357.98235466124356
 11
1494.4920155148197
 21
455.9418582102237
  0
LINE
  8
_0-0_
  6
CONTINUOUS
 62
    7
 10
1501.5630833266846
 20
357.98235466124356
 11
1239.1879936625014
 21
357.98235466124356
  0
LINE
  8
_0-0_
  6
CONTINUOUS
 62
    7
 10
1501.5630833266846
 20
455.9418582102237
 11
1351.9905359460186
 21
455.9418582102237
  0
LINE
  8
_0-0_
  6
CONTINUOUS
 62
    3
 10
1501.5630833266846
 20
461.9418582102237
 11
1383.6972548246963
 21
461.9418582102237
  0
LINE
  8
_0-0_
  6
CONTINUOUS
 62
    4
 10
1501.5630833266846
 20
470.9418582102237
 11
1383.6972548246963
 21
470.9418582102237
  0
LINE
  8
_0-0_
  6
CONTINUOUS
 62
    7
 10
1054.1879936625014
 20
246.1436425209879
 11
1154.1879936625005
 21
346.1436425209879
  0
LINE
  8
_0-0_
  6
CONTINUOUS
 62
    7
 10
1054.1879936625014
 20
239.07257470912486
 11
1154.1879936625014
 21
339.07257470912486
  0
LINE
  8
_0-0_
  6
CONTINUOUS
 62
    7
 10
1231.7290559827975
 20
287.98223946093754
 11
1231.7290559827975
 21
232.17551507287612
  0
LINE
  8
_0-0_
  6
CONTINUOUS
 62
    7
 10
1247.7290591824899
 20
287.98248746124341
 11
1247.7290591824899
 21
232.17551507287612
  0
POINT
  8
_0-0_
 62
    7
 10
1387.2102343948914
 20
467.40456049586032
  0
LINE
  8
_0-0_
  6
CONTINUOUS
 62
    7
 10
1387.2102343948914
 20
467.40456049586032
 11
1417.8599423750261
 21
520.4914119546022
  0
LINE
  8
_0-0_
  6
CONTINUOUS
 62
    7
 10
1109.187993662506
 20
422.98235466124356
 11
1109.187993662506
 21
426.98235466124356
  0
LINE
  8
_0-0_
  6
CONTINUOUS
 62
    7
 10
1054.1879936625014
 20
401.98235466123992
 11
1154.1879936625014
 21
401.98235466123992
  0
LINE
  8
_0-0_
  6
CONTINUOUS
 62
    7
 10
1109.187993662506
 20
554.98235466124356
 11
1109.187993662506
 21
550.98235466124356
  0
POINT
  8
_0-0_
 62
    7
 10
1056.6630918113419
 20
409.87742141679814
  0
POINT
  8
_0-0_
 62
    7
 10
1057.7908368632511
 20
405.08450494618342
  0
POINT
  8
_0-0_
 62
    7
 10
1065.6850522266141
 20
410.30032581126329
  0
POINT
  8
_0-0_
 62
    7
 10
1064.4163390432163
 20
404.80256868320544
  0
POINT
  8
_0-0_
 62
    7
 10
1071.6057137491362
 20
410.15935767977248
  0
POINT
  8
_0-0_
 62
    7
 10
1070.900873091693
 20
405.64837747213937
  0
POINT
  8
_0-0_
 62
    7
 10
1077.6673434031468
 20
414.67033788740923
  0
POINT
  8
_0-0_
 62
    7
 10
1076.9625027457037
 20
425.10197961756899
  0
POINT
  8
_0-0_
 62
    7
 10
1079.7818653754762
 20
429.89489608818008
  0
POINT
  8
_0-0_
 62
    7
 10
1081.332514821851
 20
424.67907522310384
  0
POINT
  8
_0-0_
 62
    7
 10
1087.5351126073501
 20
422.28261698779647
  0
POINT
  8
_0-0_
 62
    7
 10
1084.9976862405551
 20
428.06231037882867
  0
POINT
  8
_0-0_
 62
    7
 10
1091.0593158945658
 20
430.45876861413603
  0
POINT
  8
_0-0_
 62
    7
 10
1092.7509334724296
 20
425.80682027501211
  0
POINT
  8
_0-0_
 62
    7
 10
1101.2090213617466
 20
430.17683235115805
  0
POINT
  8
_0-0_
 62
    7
 10
1102.4777345451444
 20
424.96101148607818
  0
POINT
  8
_0-0_
 62
    7
 10
1098.3896587319741
 20
424.25617082863505
  0
POINT
  8
_0-0_
 62
    7
 10
1107.8345235417119
 20
422.70552138226162
  0
POINT
  8
_0-0_
 62
    7
 10
1093.9621819398067
 20
588.50738905376534
  0
POINT
  8
_0-0_
 62
    7
 10
1081.2050149831803
 20
588.50738905376534
  0
POINT
  8
_0-0_
 62
    7
 10
1087.9283867576187
 20
577.30176942970252
  0
POINT
  8
_0-0_
 62
    7
 10
1089.8247223863063
 20
564.02742002888522
  0
POINT
  8
_0-0_
 62
    7
 10
1103.4438600832455
 20
581.43922898320056
  0
POINT
  8
_0-0_
 62
    7
 10
1107.2365313406208
 20
566.61333224982559
  0
POINT
  8
_0-0_
 62
    7
 10
1123.9587637026852
 20
579.71528750257607
  0
POINT
  8
_0-0_
 62
    7
 10
1126.3722817755602
 20
568.1648795823869
  0
POINT
  8
_0-0_
 62
    7
 10
1116.0286328918091
 20
587.47302416538992
  0
POINT
  8
_0-0_
 62
    7
 10
1103.4438600832455
 20
596.26512571657918
  0
POINT
  8
_0-0_
 62
    7
 10
1084.8252920924933
 20
598.33385549332638
  0
POINT
  8
_0-0_
 62
    7
 10
1119.6489100011222
 20
596.78230816076507
  0
POINT
  8
_0-0_
 62
    7
 10
1141.0257843608742
 20
584.71471779639
  0
POINT
  8
_0-0_
 62
    7
 10
1139.6466311763743
 20
573.33670402426401
  0
POINT
  8
_0-0_
 62
    7
 10
1130.6821354771232
 20
564.37220832501157
  0
POINT
  8
_0-0_
 62
    7
 10
1138.0950838438116
 20
558.16601899476268
  0
POINT
  8
_0-0_
 62
    7
 10
1142.2325433973119
 20
563.6826317327625
  0
POINT
  8
_0-0_
 62
    7
 10
1105.8573781561208
 20
554.89053018157324
  0
POINT
  8
_0-0_
 62
    7
 10
1098.6168239374947
 20
548.68434085132435
  0
POINT
  8
_0-0_
 62
    7
 10
1087.066416017306
 20
550.23588818388566
  0
POINT
  8
_0-0_
 62
    7
 10
1079.3086793544926
 20
553.16658870094875
  0
POINT
  8
_0-0_
 62
    7
 10
1081.5498032793053
 20
564.02742002888522
  0
POINT
  8
_0-0_
 62
    7
 10
1090.1695106824313
 20
556.44207751413455
  0
POINT
  8
_0-0_
 62
    7
 10
1101.0303420103701
 20
558.68320143894857
  0
POINT
  8
_0-0_
 62
    7
 10
1111.7187791902461
 20
562.99305514051343
  0
POINT
  8
_0-0_
 62
    7
 10
1114.3046914111842
 20
558.5108072908854
  0
POINT
  8
_0-0_
 62
    7
 10
1118.0973626685595
 20
565.06178491726064
  0
POINT
  8
_0-0_
 62
    7
 10
1100.6855537142451
 20
572.47473328395176
  0
POINT
  8
_0-0_
 62
    7
 10
1087.5835984614937
 20
570.92318595138681
  0
POINT
  8
_0-0_
 62
    7
 10
1071.7233368397419
 20
572.30233913588859
  0
POINT
  8
_0-0_
 62
    7
 10
1056.7250459583029
 20
569.71642691494822
  0
POINT
  8
_0-0_
 62
    7
 10
1065.6895416575539
 20
568.1648795823869
  0
POINT
  8
_0-0_
 62
    7
 10
1063.4484177327408
 20
574.19867476457625
  0
POINT
  8
_0-0_
 62
    7
 10
1058.9661698831155
 20
576.09501039326392
  0
POINT
  8
_0-0_
 62
    7
 10
1056.7250459583029
 20
584.71471779639
  0
POINT
  8
_0-0_
 62
    7
 10
1061.7244762521159
 20
588.16260075763898
  0
POINT
  8
_0-0_
 62
    7
 10
1067.5858772862416
 20
585.05950609251272
  0
POINT
  8
_0-0_
 62
    7
 10
1071.8957309878042
 20
577.81895187388841
  0
POINT
  8
_0-0_
 62
    7
 10
1078.4467086141799
 20
572.12994498782541
  0
POINT
  8
_0-0_
 62
    7
 10
1082.7565623157429
 20
571.78515669169906
  0
POINT
  8
_0-0_
 62
    7
 10
1077.4123437258049
 20
577.64655772582523
  0
POINT
  8
_0-0_
 62
    7
 10
1075.68840224518
 20
584.19753535220048
  0
POINT
  8
_0-0_
 62
    7
 10
1073.2748841723046
 20
588.85217734988805
  0
POINT
  8
_0-0_
 62
    7
 10
1079.9982559467426
 20
596.26512571657918
  0
POINT
  8
_0-0_
 62
    7
 10
1084.3081096483056
 20
601.95413260264218
  0
POINT
  8
_0-0_
 62
    7
 10
1092.410634607244
 20
600.74737356620358
  0
POINT
  8
_0-0_
 62
    7
 10
1099.6511888258701
 20
600.23019112201405
  0
POINT
  8
_0-0_
 62
    7
 10
1096.5480941607448
 20
593.67921349563881
  0
POINT
  8
_0-0_
 62
    7
 10
1089.1351457940564
 20
595.23076082820376
  0
POINT
  8
_0-0_
 62
    7
 10
1088.1007809056814
 20
590.05893638632665
  0
POINT
  8
_0-0_
 62
    7
 10
1088.2731750537437
 20
583.68035290801458
  0
POINT
  8
_0-0_
 62
    7
 10
1096.375700012682
 20
582.81838216770234
  0
POINT
  8
_0-0_
 62
    7
 10
1095.6861234204321
 20
576.78458698551299
  0
POINT
  8
_0-0_
 62
    7
 10
1076.37797883743
 20
567.82009128626055
  0
POINT
  8
_0-0_
 62
    7
 10
1077.0675554296799
 20
561.61390195601166
  0
POINT
  8
_0-0_
 62
    7
 10
1086.376839425056
 20
557.30404825445044
  0
POINT
  8
_0-0_
 62
    7
 10
1076.8951612816177
 20
556.95925995832408
  0
POINT
  8
_0-0_
 62
    7
 10
1077.5847378738677
 20
548.68434085132435
  0
POINT
  8
_0-0_
 62
    7
 10
1092.755422903369
 20
549.20152329551024
  0
POINT
  8
_0-0_
 62
    7
 10
1092.410634607244
 20
552.47701210869968
  0
POINT
  8
_0-0_
 62
    7
 10
1097.065276604932
 20
559.37277803119764
  0
POINT
  8
_0-0_
 62
    7
 10
1095.3413351243071
 20
561.09671951182577
  0
POINT
  8
_0-0_
 62
    7
 10
1092.9278170514317
 20
567.30290884207466
  0
POINT
  8
_0-0_
 62
    7
 10
1100.6855537142451
 20
577.30176942970252
  0
POINT
  8
_0-0_
 62
    7
 10
1107.2365313406208
 20
573.33670402426401
  0
POINT
  8
_0-0_
 62
    7
 10
1104.1334366754954
 20
569.71642691494822
  0
POINT
  8
_0-0_
 62
    7
 10
1102.40949519487
 20
564.19981417694839
  0
POINT
  8
_0-0_
 62
    7
 10
1109.3052611173712
 20
557.82123069863633
  0
POINT
  8
_0-0_
 62
    7
 10
1107.4089254886835
 20
593.16203105145291
  0
POINT
  8
_0-0_
 62
    7
 10
1108.4432903770585
 20
600.74737356620358
  0
POINT
  8
_0-0_
 62
    7
 10
1114.1322972631215
 20
601.09216186232993
  0
POINT
  8
_0-0_
 62
    7
 10
1111.7187791902461
 20
593.85160764370198
  0
POINT
  8
_0-0_
 62
    7
 10
1110.8568084499339
 20
584.88711194445318
  0
POINT
  8
_0-0_
 62
    7
 10
1115.8562387437469
 20
575.40543380101485
  0
POINT
  8
_0-0_
 62
    7
 10
1126.7170700716856
 20
596.43751986463872
  0
POINT
  8
_0-0_
 62
    7
 10
1124.9931285910602
 20
586.61105342507767
  0
POINT
  8
_0-0_
 62
    7
 10
1118.4421509646845
 20
593.67921349563881
  0
POINT
  8
_0-0_
 62
    7
 10
1129.8201647368105
 20
589.71414809020393
  0
POINT
  8
_0-0_
 62
    7
 10
1129.6477705887482
 20
582.64598801963916
  0
POINT
  8
_0-0_
 62
    7
 10
1125.1655227391229
 20
573.68149232038672
  0
POINT
  8
_0-0_
 62
    7
 10
1110.3396260057461
 20
577.64655772582523
  0
POINT
  8
_0-0_
 62
    7
 10
1116.5458153359968
 20
579.37049920644972
  0
POINT
  8
_0-0_
 62
    7
 10
1118.9593334088722
 20
572.12994498782541
  0
POINT
  8
_0-0_
 62
    7
 10
1124.1311578507475
 20
563.85502588082568
  0
POINT
  8
_0-0_
 62
    7
 10
1137.0607189554366
 20
567.30290884207466
  0
POINT
  8
_0-0_
 62
    7
 10
1132.0612886616236
 20
570.5783976552641
  0
POINT
  8
_0-0_
 62
    7
 10
1129.6477705887482
 20
576.61219283744981
  0
POINT
  8
_0-0_
 62
    7
 10
1133.0956535499986
 20
582.81838216770234
  0
POINT
  8
_0-0_
 62
    7
 10
1139.1294487321866
 20
578.85331676226383
  0
POINT
  8
_0-0_
 62
    7
 10
1142.4049375453747
 20
575.92261624520074
  0
POINT
  8
_0-0_
 62
    7
 10
1142.7497258414996
 20
569.88882106301139
  0
POINT
  8
_0-0_
 62
    7
 10
1128.2686174042478
 20
558.68320143894857
  0
POINT
  8
_0-0_
 62
    7
 10
1132.0612886616236
 20
594.8859725320774
  0
POINT
  8
_0-0_
 62
    7
 10
1126.3722817755602
 20
599.3682203817018
  0
POINT
  8
_0-0_
 62
    7
 10
1136.7159306593117
 20
596.60991401270189
  0
POINT
  8
_0-0_
 62
    7
 10
1141.542966805062
 20
596.95470230882825
  0
POINT
  8
_0-0_
 62
    7
 10
1139.6466311763743
 20
590.57611883051618
  0
POINT
  8
_0-0_
 62
    7
 10
1137.9226896957489
 20
562.13108440019755
  0
POINT
  8
_0-0_
 62
    7
 10
1132.2336828096859
 20
559.02798973507493
  0
POINT
  8
_0-0_
 62
    7
 10
1118.2697568166218
 20
557.30404825445044
  0
POINT
  8
_0-0_
 62
    7
 10
1125.1655227391229
 20
556.95925995832408
  0
POINT
  8
_0-0_
 62
    7
 10
1066.7239065459289
 20
588.33499490570216
  0
POINT
  8
_0-0_
 62
    7
 10
1113.0979323747461
 20
626.77888992364501
  0
POINT
  8
_0-0_
 62
    7
 10
1108.2708962289958
 20
633.50226169808343
  0
POINT
  8
_0-0_
 62
    7
 10
1107.4089254886831
 20
621.95185377789426
  0
POINT
  8
_0-0_
 62
    7
 10
1115.5114504476214
 20
621.08988303758201
  0
POINT
  8
_0-0_
 62
    7
 10
1114.8218738553715
 20
615.05608785539266
  0
POINT
  8
_0-0_
 62
    7
 10
1119.8213041491845
 20
615.57327029958219
  0
POINT
  8
_0-0_
 62
    7
 10
1126.5446759236229
 20
631.43353192133259
  0
POINT
  8
_0-0_
 62
    7
 10
1130.8545296251855
 20
632.12310851358166
  0
POINT
  8
_0-0_
 62
    7
 10
1127.0618583678101
 20
621.6070654817679
  0
POINT
  8
_0-0_
 62
    7
 10
1141.3705726569992
 20
634.53662658645885
  0
POINT
  8
_0-0_
 62
    7
 10
1137.5779013996239
 20
631.95071436551848
  0
POINT
  8
_0-0_
 62
    7
 10
1129.4753764406855
 20
615.91805859570491
  0
POINT
  8
_0-0_
 62
    7
 10
1135.3367774748112
 20
621.77945962983108
  0
POINT
  8
_0-0_
 62
    7
 10
1056.2078635141156
 20
632.46789680970801
  0
POINT
  8
_0-0_
 62
    7
 10
1063.6208118808036
 20
635.91577977095699
  0
POINT
  8
_0-0_
 62
    7
 10
1059.655746475366
 20
624.19297770270828
  0
POINT
  8
_0-0_
 62
    7
 10
1073.7920666164923
 20
625.91691918333277
  0
POINT
  8
_0-0_
 62
    7
 10
1073.1024900242419
 20
630.57156118102034
  0
POINT
  8
_0-0_
 62
    7
 10
1075.68840224518
 20
635.74338562289381
  0
POINT
  8
_0-0_
 62
    7
 10
1067.2410889901166
 20
632.12310851358166
  0
POINT
  8
_0-0_
 62
    7
 10
1080.343044242868
 20
629.7095904407081
  0
POINT
  8
_0-0_
 62
    7
 10
1090.8590872746813
 20
635.91577977095699
  0
POINT
  8
_0-0_
 62
    7
 10
1097.5824590491197
 20
635.74338562289381
  0
POINT
  8
_0-0_
 62
    7
 10
1095.6861234204321
 20
621.43467133370473
  0
POINT
  8
_0-0_
 62
    7
 10
1083.7909272041179
 20
619.5383357050207
  0
POINT
  8
_0-0_
 62
    7
 10
1086.376839425056
 20
624.71016014689417
  0
POINT
  8
_0-0_
 62
    7
 10
1086.2044452769933
 20
613.8493288189577
  0
POINT
  8
_0-0_
 62
    7
 10
1101.5475244545573
 20
624.88255429495734
  0
POINT
  8
_0-0_
 62
    7
 10
1097.754853197182
 20
614.36651126314359
  0
POINT
  8
_0-0_
 62
    7
 10
1106.0297723041831
 20
614.53890541120677
  0
POINT
  8
_0-0_
 62
    7
 10
1089.9294601733018
 20
632.63032279444928
  0
POINT
  8
_0-0_
 62
    7
 10
1099.8759109794037
 20
631.66776303901975
  0
LINE
  8
_0-0_
  6
CONTINUOUS
 62
    7
 10
1079.1879936625014
 20
592.9823546612472
 11
1079.1879936625014
 21
622.9823546612472
  0
LINE
  8
_0-0_
  6
CONTINUOUS
 62
    7
 10
1079.1879936625014
 20
622.9823546612472
 11
1054.1879936625014
 21
622.9823546612472
  0
LINE
  8
_0-0_
  6
CONTINUOUS
 62
    7
 10
1078.9879936625016
 20
619.68205282947497
 11
1077.9879936625016
 21
619.68205282947497
  0
LINE
  8
_0-0_
  6
CONTINUOUS
 62
    7
 10
1077.9879936625016
 20
596.25265649301696
 11
1077.9879936625016
 21
619.68205282947497
  0
LINE
  8
_0-0_
  6
CONTINUOUS
 62
    7
 10
1078.9879936625016
 20
596.25265649301696
 11
1078.9879936625016
 21
619.68205282947497
  0
LINE
  8
_0-0_
  6
CONTINUOUS
 62
    7
 10
1077.9879936625016
 20
596.25265649301696
 11
1078.9879936625016
 21
596.25265649301696
  0
LINE
  8
_0-0_
  6
CONTINUOUS
 62
    7
 10
1067.1114402265416
 20
605.51826252434444
 11
1067.1114402265416
 21
610.41644679814385
  0
LINE
  8
_0-0_
  6
CONTINUOUS
 62
    7
 10
1077.9879936625016
 20
599.25265649301696
 11
1077.9879936625016
 21
616.68205282947497
  0
LINE
  8
_0-0_
  6
CONTINUOUS
 62
    7
 10
1072.8196959117213
 20
599.25265649301696
 11
1077.9879936625016
 21
599.25265649301696
  0
LINE
  8
_0-0_
  6
CONTINUOUS
 62
    7
 10
1072.1456116625018
 20
600.420204661242
 11
1072.8196959117213
 21
599.25265649301696
  0
LINE
  8
_0-0_
  6
CONTINUOUS
 62
    7
 10
1072.1456116625018
 20
615.51450466124265
 11
1072.1456116625018
 21
600.420204661242
  0
LINE
  8
_0-0_
  6
CONTINUOUS
 62
    7
 10
1072.8196959117213
 20
616.68205282947497
 11
1072.1456116625018
 21
615.51450466124265
  0
LINE
  8
_0-0_
  6
CONTINUOUS
 62
    7
 10
1077.9879936625016
 20
616.68205282947497
 11
1072.8196959117213
 21
616.68205282947497
  0
LINE
  8
_0-0_
  6
CONTINUOUS
 62
    7
 10
1072.8196959117213
 20
603.61000557712873
 11
1072.1456116625018
 21
600.420204661242
  0
ARC
  8
_0-0_
  6
CONTINUOUS
 62
    7
 10
1086.5658274132834
 20
607.96735466124414
 40
14.420215750781081
 50
162.41204622600637
 51
197.58795377399358
  0
LINE
  8
_0-0_
  6
CONTINUOUS
 62
    7
 10
1072.1456116625018
 20
615.51450466124265
 11
1072.8196959117213
 21
612.32470374535956
  0
LINE
  8
_0-0_
  6
CONTINUOUS
 62
    7
 10
1072.8196959117213
 20
603.61000557712873
 11
1077.9879936625016
 21
603.61000557712873
  0
LINE
  8
_0-0_
  6
CONTINUOUS
 62
    7
 10
1077.9879936625016
 20
612.32470374535956
 11
1072.8196959117213
 21
612.32470374535956
  0
LINE
  8
_0-0_
  6
CONTINUOUS
 62
    7
 10
1068.0773480896428
 20
611.38235466124502
 11
1067.1114402265416
 21
610.41644679814385
  0
LINE
  8
_0-0_
  6
CONTINUOUS
 62
    7
 10
1067.1114402265416
 20
605.51826252434444
 11
1068.0473480896403
 21
604.58235466124574
  0
LINE
  8
_0-0_
  6
CONTINUOUS
 62
    7
 10
1068.0473480896403
 20
604.58235466124574
 11
1072.1456116625018
 21
604.58235466124574
  0
LINE
  8
_0-0_
  6
CONTINUOUS
 62
    7
 10
1068.0773480896428
 20
611.38235466124502
 11
1072.1456116625018
 21
611.38235466124502
  0
LINE
  8
_0-0_
  6
CONTINUOUS
 62
    7
 10
1078.9879936625016
 20
611.38235466124502
 11
1126.1879936625014
 21
611.38235466124502
  0
LINE
  8
_0-0_
  6
CONTINUOUS
 62
    7
 10
1078.9879936625016
 20
604.58235466124574
 11
1126.1879936625014
 21
604.58235466124574
  0
LINE
  8
_0-0_
  6
CONTINUOUS
 62
    7
 10
1154.1879936625014
 20
662.98235466124356
 11
1054.1879936625014
 21
662.98235466124356
  0
POINT
  8
_0-0_
 62
    7
 10
1057.9308690046414
 20
659.46668246979357
  0
POINT
  8
_0-0_
 62
    7
 10
1077.9274190505357
 20
657.63366538225205
  0
POINT
  8
_0-0_
 62
    7
 10
1069.095609446932
 20
655.30073454356284
  0
POINT
  8
_0-0_
 62
    7
 10
1059.9305240092308
 20
645.63573535471483
  0
POINT
  8
_0-0_
 62
    7
 10
1074.0947469584057
 20
650.63487286618806
  0
POINT
  8
_0-0_
 62
    7
 10
1082.7599186449602
 20
642.46961493078311
  0
POINT
  8
_0-0_
 62
    7
 10
1086.2593149029917
 20
649.30176952979787
  0
POINT
  8
_0-0_
 62
    7
 10
1100.9234516033139
 20
643.96935618422253
  0
POINT
  8
_0-0_
 62
    7
 10
1087.7590561564334
 20
659.46668246979357
  0
POINT
  8
_0-0_
 62
    7
 10
1099.4237103498722
 20
652.63452787077881
  0
POINT
  8
_0-0_
 62
    7
 10
1098.5905207646265
 20
659.30004455274434
  0
POINT
  8
_0-0_
 62
    7
 10
1111.754916211507
 20
654.46754495832033
  0
POINT
  8
_0-0_
 62
    7
 10
1112.9213816308506
 20
658.13357913339973
  0
POINT
  8
_0-0_
 62
    7
 10
1122.2531049856016
 20
656.13392412880899
  0
POINT
  8
_0-0_
 62
    7
 10
1105.7559511977383
 20
656.63383787995667
  0
POINT
  8
_0-0_
 62
    7
 10
1107.4223303682297
 20
648.96849369569941
  0
POINT
  8
_0-0_
 62
    7
 10
1110.9217266262613
 20
644.80254576946868
  0
POINT
  8
_0-0_
 62
    7
 10
1113.4212953819979
 20
640.63659784324159
  0
POINT
  8
_0-0_
 62
    7
 10
1112.2548299626542
 20
634.97090866357144
  0
POINT
  8
_0-0_
 62
    7
 10
1128.9186216675662
 20
644.30263201832099
  0
POINT
  8
_0-0_
 62
    7
 10
1130.2517250039591
 20
648.96849369569941
  0
POINT
  8
_0-0_
 62
    7
 10
1138.0837071052679
 20
642.9695286819308
  0
POINT
  8
_0-0_
 62
    7
 10
1139.7500862757588
 20
638.80358075570007
  0
POINT
  8
_0-0_
 62
    7
 10
1138.4169829393659
 20
627.47220239635976
  0
POINT
  8
_0-0_
 62
    7
 10
1141.249827529201
 20
650.46823494913883
  0
POINT
  8
_0-0_
 62
    7
 10
1135.0842245983836
 20
656.8004757970059
  0
POINT
  8
_0-0_
 62
    7
 10
1142.0830171144466
 20
655.46737246061207
  0
POINT
  8
_0-0_
 62
    7
 10
1152.9144817226393
 20
661.46633747438068
  0
POINT
  8
_0-0_
 62
    7
 10
1146.5822408747727
 20
659.6333203868428
  0
POINT
  8
_0-0_
 62
    7
 10
1139.916724192808
 20
661.46633747438068
  0
POINT
  8
_0-0_
 62
    7
 10
1131.4181904233028
 20
661.63297539142991
  0
POINT
  8
_0-0_
 62
    7
 10
1123.0862945708468
 20
661.29969955733145
  0
POINT
  8
_0-0_
 62
    7
 10
1128.0854320823205
 20
655.6340103776613
  0
POINT
  8
_0-0_
 62
    7
 10
1119.2536224787173
 20
647.63539035930557
  0
POINT
  8
_0-0_
 62
    7
 10
1124.7526737413382
 20
637.13720158521141
  0
POINT
  8
_0-0_
 62
    7
 10
1072.3162126496541
 20
642.71029401179953
  0
POINT
  8
_0-0_
 62
    7
 10
1066.7161905737394
 20
647.77698065191476
  0
POINT
  8
_0-0_
 62
    7
 10
1080.3162441866757
 20
649.11031924141685
  0
POINT
  8
_0-0_
 62
    7
 10
1093.916297799612
 20
647.24364521611028
  0
POINT
  8
_0-0_
 62
    7
 10
1092.0496237743068
 20
642.1769585759987
  0
POINT
  8
_0-0_
 62
    7
 10
1093.916297799612
 20
653.91033816362801
  0
POINT
  8
_0-0_
 62
    7
 10
1069.3828677527463
 20
659.77702795744449
  0
POINT
  8
_0-0_
 62
    7
 10
1085.1162631088882
 20
654.17700588152843
  0
LINE
  8
_0-0_
  6
CONTINUOUS
 62
    7
 10
1079.1879936625014
 20
622.9823546612472
 11
1054.1879936625014
 21
622.9823546612472
  0
POINT
  8
_0-0_
 62
    7
 10
1330.9230304566554
 20
425.71454275354085
  0
POINT
  8
_0-0_
 62
    7
 10
1242.0781811459974
 20
426.33239968632301
  0
LINE
  8
_0-0_
  6
CONTINUOUS
 62
    7
 10
1242.0781811459974
 20
426.33239968632301
 11
1325.5583071047799
 21
570.92421926918291
  0
LINE
  8
_0-0_
  6
CONTINUOUS
 62
    7
 10
1054.1879936625014
 20
565.9823546612472
 11
1054.1879936625014
 21
732.03772351288467
  0
LINE
  8
_0-0_
  6
CONTINUOUS
 62
    2
 10
1074.1879936625014
 20
547.96368037980324
 11
1072.2066679439399
 21
545.98235466124356
  0
LINE
  8
_0-0_
  6
CONTINUOUS
 62
    2
 10
1074.1879936625014
 20
552.45380844033684
 11
1067.7165398834054
 21
545.98235466124356
  0
LINE
  8
_0-0_
  6
CONTINUOUS
 62
    2
 10
1074.1879936625014
 20
556.94393650087045
 11
1063.2264118228718
 21
545.98235466124356
  0
LINE
  8
_0-0_
  6
CONTINUOUS
 62
    2
 10
1074.1879936625014
 20
561.43406456140769
 11
1058.7362837623373
 21
545.98235466124356
  0
LINE
  8
_0-0_
  6
CONTINUOUS
 62
    2
 10
1074.1879936625014
 20
565.9241926219413
 11
1054.2461557018019
 21
545.98235466124356
  0
LINE
  8
_0-0_
  6
CONTINUOUS
 62
    2
 10
1074.1879936625014
 20
555.98235466124356
 11
1074.1879936625014
 21
545.98235466124356
  0
LINE
  8
_0-0_
  6
CONTINUOUS
 62
    2
 10
1054.1879936625014
 20
565.9823546612472
 11
1074.0981375713723
 21
565.9823546612472
  0
LINE
  8
_0-0_
  6
CONTINUOUS
 62
    2
 10
1074.0981375713723
 20
565.9823546612472
 11
1074.1879936625014
 21
565.9823546612472
  0
LINE
  8
_0-0_
  6
CONTINUOUS
 62
    2
 10
1074.1879936625014
 20
565.9823546612472
 11
1074.1879936625014
 21
555.98235466124356
  0
LINE
  8
_0-0_
  6
CONTINUOUS
 62
    7
 10
1054.1879936625014
 20
232.17551507287612
 11
1054.1879936625014
 21
411.98235466123992
  0
LINE
  8
_0-0_
  6
CONTINUOUS
 62
    2
 10
1074.1879936625014
 20
426.48235466123992
 11
1074.1879936625014
 21
421.98235466123992
  0
LINE
  8
_0-0_
  6
CONTINUOUS
 62
    2
 10
1074.1879936625014
 20
413.9636803797996
 11
1072.2066679439408
 21
411.98235466123992
  0
LINE
  8
_0-0_
  6
CONTINUOUS
 62
    2
 10
1074.1879936625014
 20
418.4538084403332
 11
1067.7165398834063
 21
411.98235466123992
  0
LINE
  8
_0-0_
  6
CONTINUOUS
 62
    2
 10
1074.1879936625014
 20
422.94393650087045
 11
1063.2264118228727
 21
411.98235466123992
  0
LINE
  8
_0-0_
  6
CONTINUOUS
 62
    2
 10
1074.1879936625014
 20
427.43406456140406
 11
1058.7362837623373
 21
411.98235466123992
  0
LINE
  8
_0-0_
  6
CONTINUOUS
 62
    2
 10
1074.1879936625014
 20
431.92419262193766
 11
1054.2461557018028
 21
411.98235466123992
  0
LINE
  8
_0-0_
  6
CONTINUOUS
 62
    2
 10
1073.8163288755509
 20
431.98235466124356
 11
1074.1879936625014
 21
431.61068987429212
  0
LINE
  8
_0-0_
  6
CONTINUOUS
 62
    2
 10
1074.1879936625014
 20
426.48235466123992
 11
1074.1879936625014
 21
431.98235466124356
  0
LINE
  8
_0-0_
  6
CONTINUOUS
 62
    2
 10
1074.1879936625014
 20
421.98235466123992
 11
1074.1879936625014
 21
411.98235466123992
  0
LINE
  8
_0-0_
  6
CONTINUOUS
 62
    2
 10
1054.1879936625014
 20
411.98235466123992
 11
1074.1879936625014
 21
411.98235466123992
  0
ARC
  8
_0-0_
  6
CONTINUOUS
 62
    2
 10
998.35818362849989
 20
555.9823546612472
 40
56.718318808236113
 50
349.84510594119388
 51
10.154894058802441
  0
LINE
  8
_0-0_
  6
CONTINUOUS
 62
    2
 10
1056.2856434596692
 20
565.9823546612472
 11
1054.4812588848913
 21
564.17797008646926
  0
LINE
  8
_0-0_
  6
CONTINUOUS
 62
    2
 10
1060.7757715202029
 20
565.9823546612472
 11
1054.9245625263907
 21
560.13114566743502
  0
LINE
  8
_0-0_
  6
CONTINUOUS
 62
    2
 10
1065.2658995807383
 20
565.9823546612472
 11
1055.0761851524298
 21
555.79264023294058
  0
LINE
  8
_0-0_
  6
CONTINUOUS
 62
    2
 10
1069.7560276412719
 20
565.9823546612472
 11
1054.8652445035082
 21
551.09157152348166
  0
ARC
  8
_0-0_
  6
CONTINUOUS
 62
    2
 10
998.35818362849989
 20
421.98235466123992
 40
56.718318808236113
 50
349.84510594119757
 51
10.154894058806104
  0
LINE
  8
_0-0_
  6
CONTINUOUS
 62
    2
 10
1065.2658995807383
 20
431.98235466124356
 11
1055.0761851524298
 21
421.79264023293695
  0
LINE
  8
_0-0_
  6
CONTINUOUS
 62
    2
 10
1069.7560276412719
 20
431.98235466124356
 11
1054.8652445035113
 21
417.09157152348166
  0
LINE
  8
_0-0_
  6
CONTINUOUS
 62
    2
 10
1060.7757715202029
 20
431.98235466124356
 11
1054.9245625263907
 21
426.13114566743138
  0
LINE
  8
_0-0_
  6
CONTINUOUS
 62
    2
 10
1056.2856434596692
 20
431.98235466124356
 11
1054.4812588848908
 21
430.17797008646562
  0
LINE
  8
_0-0_
  6
CONTINUOUS
 62
    7
 10
1021.7639348197969
 20
1147.1836679221715
 11
941.76393481979687
 21
1147.1836679221715
  0
LINE
  8
_0-0_
  6
CONTINUOUS
 62
    7
 10
941.76393481979687
 20
1160.077840944062
 11
941.76393481979687
 21
1147.1836679221715
  0
LINE
  8
_0-0_
  6
CONTINUOUS
 62
    7
 10
1021.7639348197969
 20
1147.1836679221717
 11
1021.7639348197969
 21
1107.94719591887
  0
LINE
  8
_0-0_
  6
CONTINUOUS
 62
    7
 10
1021.7639348197969
 20
1107.94719591887
 11
1021.7639348197969
 21
926.57301114003099
  0
LINE
  8
_0-0_
  6
CONTINUOUS
 62
    7
 10
1021.7639348197969
 20
926.57301114003099
 11
887.2364253644638
 21
926.57301114003099
  0
LINE
  8
_0-0_
  6
CONTINUOUS
 62
    7
 10
1363.7639348197968
 20
926.57301114003099
 11
1498.2914442751276
 21
926.57301114003099
  0
LINE
  8
_0-0_
  6
CONTINUOUS
 62
    7
 10
1363.7639348197968
 20
1147.1836679221717
 11
1443.7639348197968
 21
1147.1836679221717
  0
LINE
  8
_0-0_
  6
CONTINUOUS
 62
    7
 10
1426.7914442751276
 20
1160.077840944062
 11
1443.4436513494566
 21
1160.077840944062
  0
LINE
  8
_0-0_
  6
CONTINUOUS
 62
    7
 10
1443.4436513494566
 20
1160.077840944062
 11
1498.2914442751276
 21
1160.077840944062
  0
LINE
  8
_0-0_
  6
CONTINUOUS
 62
    7
 10
1443.7639348197968
 20
1160.077840944062
 11
1443.7639348197968
 21
1147.1836679221717
  0
LINE
  8
_0-0_
  6
CONTINUOUS
 62
    7
 10
1118.6834099203438
 20
926.57301114003099
 11
1021.7639348197969
 21
926.57301114003099
  0
LINE
  8
_0-0_
  6
CONTINUOUS
 62
    7
 10
1363.7639348197958
 20
1120.0211218639026
 11
1390.9264808780649
 21
1147.1836679221717
  0
LINE
  8
_0-0_
  6
CONTINUOUS
 62
    7
 10
1363.7639348197968
 20
1110.8287337084778
 11
1400.1188690334925
 21
1147.1836679221717
  0
POINT
  8
_0-0_
 62
    7
 10
1430.0640247056717
 20
1157.0578894059338
  0
POINT
  8
_0-0_
 62
    7
 10
1434.7641628126539
 20
1152.5621051296898
  0
POINT
  8
_0-0_
 62
    7
 10
1438.6468855966828
 20
1156.6491817444571
  0
POINT
  8
_0-0_
 62
    7
 10
1441.9165468884964
 20
1149.4967976686146
  0
POINT
  8
_0-0_
 62
    7
 10
1430.8814400286251
 20
1149.0880900071379
  0
POINT
  8
_0-0_
 62
    7
 10
1413.715718246603
 20
1150.5185668223064
  0
POINT
  8
_0-0_
 62
    7
 10
1407.7894571551906
 20
1149.0880900071379
  0
POINT
  8
_0-0_
 62
    7
 10
1399.0022424334411
 20
1149.0880900071379
  0
POINT
  8
_0-0_
 62
    7
 10
1417.3940871998934
 20
1148.679382345661
  0
POINT
  8
_0-0_
 62
    7
 10
1387.3336114147255
 20
1148.5568791814401
  0
POINT
  8
_0-0_
 62
    7
 10
969.62578615487087
 20
1148.711022163387
  0
POINT
  8
_0-0_
 62
    7
 10
975.13438045199393
 20
1150.4324578812382
  0
POINT
  8
_0-0_
 62
    7
 10
977.71653402877041
 20
1148.538878591602
  0
POINT
  8
_0-0_
 62
    7
 10
984.60227690017427
 20
1149.5717400223127
  0
POINT
  8
_0-0_
 62
    7
 10
993.89802977656939
 20
1148.711022163387
  0
POINT
  8
_0-0_
 62
    7
 10
1001.6444905068987
 20
1148.366735019817
  0
POINT
  8
_0-0_
 62
    7
 10
945.18139896138734
 20
1156.8017700372866
  0
POINT
  8
_0-0_
 62
    7
 10
951.72285468922098
 20
1153.0146114580145
  0
POINT
  8
_0-0_
 62
    7
 10
954.47715183778246
 20
1149.5717400223127
  0
POINT
  8
_0-0_
 62
    7
 10
956.54287469920359
 20
1157.1460571808568
  0
POINT
  8
_0-0_
 62
    7
 10
951.72285468922098
 20
1157.1460571808568
  0
POINT
  8
_0-0_
 62
    7
 10
950.34570611494019
 20
1149.2274528787425
  0
POINT
  8
_0-0_
 62
    7
 10
947.59140896637871
 20
1151.9817500273039
  0
POINT
  8
_0-0_
 62
    7
 10
944.63344393529587
 20
1148.9611015271287
  0
LINE
  8
_0-0_
  6
CONTINUOUS
 62
    7
 10
953.77191367637101
 20
1155.181250665705
 11
912.37057677248811
 21
1226.8904696845066
  0
POINT
  8
_0-0_
 62
    7
 10
953.77191367637101
 20
1155.181250665705
  0
TEXT
  8
_0-0_
 62
    7
 10
1424.1757468655544
 20
1250.0628267129669
 40
30
 41
1
 50
0
  1
防水層
  0
TEXT
  8
_0-0_
 62
    7
 10
881.46579260306021
 20
1224.966412643025
 40
30
 41
1
 50
0
  1
ﾓﾙﾀﾙ
  0
TEXT
  8
_0-0_
 62
    7
 10
1421.6278521349334
 20
508.26107625309464
 40
30
 41
1
 50
0
  1
防水層
  0
TEXT
  8
_0-0_
 62
    7
 10
1331.0261116207505
 20
557.33701903161034
 40
30
 41
1
 50
0
  1
ﾓﾙﾀﾙ
  0
LINE
  8
_0-0_
  6
CONTINUOUS
 62
    7
 10
672.13606690525205
 20
1633.3565543671114
 11
1706.8525777203672
 21
1633.3565543671114
  0
LINE
  8
_0-0_
  6
CONTINUOUS
 62
    7
 10
672.13606690525205
 20
1553.3565543671114
 11
1706.8525777203672
 21
1553.3565543671114
  0
LINE
  8
_0-0_
  6
CONTINUOUS
 62
    7
 10
672.13606690525205
 20
1473.3565543671114
 11
1706.8525777203672
 21
1473.3565543671114
  0
LINE
  8
_0-0_
  6
CONTINUOUS
 62
    7
 10
1189.4943223128098
 20
1633.3565543671114
 11
1189.4943223128098
 21
1473.3565543671114
  0
TEXT
  8
_0-0_
 62
    7
 10
696.13606690525205
 20
1497.3565543671114
 40
20
 41
1
 50
0
  1
施工部位：ドレン
  0
TEXT
  8
_0-0_
 62
    7
 10
1213.4943223128098
 20
1577.3565543671114
 40
20
 41
1
 50
0
  1
構造：Ｓ造
  0
TEXT
  8
_0-0_
 62
    7
 10
1213.4943223128098
 20
1497.3565543671114
 40
20
 41
1
 50
0
  1
下地：ＡＬＣ板
  0
TEXT
  8
_0-0_
 62
    7
 10
696.13606690525205
 20
1577.3565543671114
 40
20
 41
1
 50
0
  1
図面番号：dr-alc
  0
ENDSEC
  0
EOF
