  0
SECTION
  2
HEADER
  9
$ACADVER
  1
AC1009
  9
$INSBASE
 10
0
 20
0
 30
0
  9
$EXTMIN
 10
0
 20
0
  9
$EXTMAX
 10
2378
 20
1682
  9
$LIMMIN
 10
0
 20
0
  9
$LIMMAX
 10
2378
 20
1682
  9
$LTSCALE
 40
1
  0
ENDSEC
  0
SECTION
  2
TABLES
  0
TABLE
  2
LTYPE
 70
     9
  0
LTYPE
  2
CONTINUOUS
 70
    64
  3
実線
 72
    65
 73
     0
 40
0.0
  0
LTYPE
  2
DASHED1
 70
    64
  3
--  --  --  --  --  --  --  --  
 72
    65
 73
     2
 40
2.5
 49
1.25
 49
-1.25
  0
LTYPE
  2
DASHED2
 70
    64
  3
----    ----    ----    ----    
 72
    65
 73
     2
 40
5.0
 49
2.5
 49
-2.5
  0
LTYPE
  2
DASHED3
 70
    64
  3
------  ------  ------  ------  
 72
    65
 73
     2
 40
5.0
 49
3.75
 49
-1.25
  0
LTYPE
  2
CENTER1
 70
    64
  3
----- - ----- - ----- - ----- - 
 72
    65
 73
     4
 40
10.0
 49
6.25
 49
-1.25
 49
1.25
 49
-1.25
  0
LTYPE
  2
CENTER2
 70
    64
  3
----------  --  ----------  --  
 72
    65
 73
     4
 40
20.0
 49
12.5
 49
-2.5
 49
2.5
 49
-2.5
  0
LTYPE
  2
PHANTOM1
 70
    64
  3
--- - - --- - - --- - - --- - - 
 72
    65
 73
     6
 40
10.0
 49
3.25
 49
-1.25
 49
1.25
 49
-1.25
 49
1.25
 49
-1.25
  0
LTYPE
  2
PHANTOM2
 70
    64
  3
--------  -  -  --------  -  -  
 72
    65
 73
     6
 40
20.0
 49
10.0
 49
-2.5
 49
1.25
 49
-2.5
 49
1.25
 49
-2.5
  0
LTYPE
  2
DOT
 70
    64
  3
-   -   -   -   -   -   -   -   
 72
    65
 73
     2
 40
2.5
 49
0.625
 49
-1.875
  0
LTYPE
  2
DUMMY
 70
    64
  3
ダミー
 72
    65
 73
     0
 40
0.0
  0
LTYPE
  2
RAND1
 70
    64
  3
ランダム線1
 72
    65
 73
     4
 40
10.0
 49
1.0
 49
-2.0
 49
3.0
 49
-4.0
  0
LTYPE
  2
RAND2
 70
    64
  3
ランダム線2
 72
    65
 73
     4
 40
14.0
 49
2.0
 49
-3.0
 49
4.0
 49
-5.0
  0
LTYPE
  2
RAND3
 70
    64
  3
ランダム線3
 72
    65
 73
     4
 40
18.0
 49
3.0
 49
-4.0
 49
5.0
 49
-6.0
  0
LTYPE
  2
RAND4
 70
    64
  3
ランダム線4
 72
    65
 73
     4
 40
22.0
 49
4.0
 49
-5.0
 49
6.0
 49
-7.0
  0
LTYPE
  2
RAND5
 70
    64
  3
ランダム線5
 72
    65
 73
     4
 40
26.0
 49
5.0
 49
-6.0
 49
7.0
 49
-8.0
  0
LTYPE
  2
LONG1
 70
    64
  3
----------  --  ----------  --  
 72
    65
 73
     4
 40
40.0
 49
32.5
 49
-2.5
 49
2.5
 49
-2.5
  0
LTYPE
  2
LONG2
 70
    64
  3
--------  -  -  --------  -  -  
 72
    65
 73
     6
 40
40.0
 49
30.0
 49
-2.5
 49
1.25
 49
-2.5
 49
1.25
 49
-2.5
  0
LTYPE
  2
LONG3
 70
    64
  3
+++++++++++++++..+++++++++++++++
 72
    65
 73
     2
 40
40.0
 49
37.5
 49
-2.5
  0
LTYPE
  2
LONG4
 70
    64
  3
+++++++++++++++..+++++++++++++++
 72
    65
 73
     2
 40
80.0
 49
75.0
 49
-5.0
  0
LTYPE
  2
LONG5
 70
    64
  3
----------  --  ----------  --  
 72
    65
 73
     4
 40
60.0
 49
37.5
 49
-7.5
 49
7.5
 49
-7.5
  0
LTYPE
  2
dashed
 70
   64
  3
-------   -------------   ------
 72
   65
 73
    2
 40
7.5
 49
6
 49
-1.5
  0
LTYPE
  2
dashed_spaced
 70
   64
  3
----        --------        ----
 72
   65
 73
    2
 40
12
 49
6
 49
-6
  0
LTYPE
  2
long_dashed_dotted
 70
   64
  3
------------- --- --------------
 72
   65
 73
    4
 40
15.25
 49
12
 49
-1.5
 49
0.25
 49
-1.5
  0
LTYPE
  2
long_dashed_double-dotted
 70
   64
  3
----------- --- --- ------------
 72
   65
 73
    6
 40
17
 49
12
 49
-1.5
 49
0.25
 49
-1.5
 49
0.25
 49
-1.5
  0
LTYPE
  2
long_dashed_triplicate-dotted
 70
   64
  3
--------- --- --- --- ----------
 72
   65
 73
    8
 40
18.75
 49
12
 49
-1.5
 49
0.25
 49
-1.5
 49
0.25
 49
-1.5
 49
0.25
 49
-1.5
  0
LTYPE
  2
dotted
 70
   64
  3
   -       -       -       -    
 72
   65
 73
    2
 40
1.75
 49
0.25
 49
-1.5
  0
LTYPE
  2
chain
 70
   64
  3
-------------- -- --------------
 72
   65
 73
    4
 40
18.5
 49
12
 49
-1.5
 49
3.5
 49
-1.5
  0
LTYPE
  2
chain_double_dash
 70
   64
  3
------------ -- -- -------------
 72
   65
 73
    6
 40
23.5
 49
12
 49
-1.5
 49
3.5
 49
-1.5
 49
3.5
 49
-1.5
  0
LTYPE
  2
dashed_dotted
 70
   64
  3
-----------     -     ----------
 72
   65
 73
    4
 40
9.25
 49
6
 49
-1.5
 49
0.25
 49
-1.5
  0
LTYPE
  2
double-dashed_dotted
 70
   64
  3
------   -----------   -   -----
 72
   65
 73
    6
 40
16.75
 49
6
 49
-1.5
 49
6
 49
-1.5
 49
0.25
 49
-1.5
  0
LTYPE
  2
dashed_double-dotted
 70
   64
  3
---------    -    -    ---------
 72
   65
 73
    6
 40
11
 49
6
 49
-1.5
 49
0.25
 49
-1.5
 49
0.25
 49
-1.5
  0
LTYPE
  2
double-dashed_double-dotted
 70
   64
  3
-----   ---------   -   -   ----
 72
   65
 73
    8
 40
18.5
 49
6
 49
-1.5
 49
6
 49
-1.5
 49
0.25
 49
-1.5
 49
0.25
 49
-1.5
  0
LTYPE
  2
dashed_triplicate-dotted
 70
   64
  3
-------    -    -    -    ------
 72
   65
 73
    8
 40
12.75
 49
6
 49
-1.5
 49
0.25
 49
-1.5
 49
0.25
 49
-1.5
 49
0.25
 49
-1.5
  0
LTYPE
  2
double-dashed_triplicate-dotted
 70
   64
  3
-----  ---------  -  -  -  -----
 72
   65
 73
   10
 40
20.25
 49
6
 49
-1.5
 49
6
 49
-1.5
 49
0.25
 49
-1.5
 49
0.25
 49
-1.5
 49
0.25
 49
-1.5
  0
LTYPE
  2
undefined
 70
   64
  3
--------------------------------
 72
   65
 73
    0
 40
0
  0
ENDTAB
  0
TABLE
  2
STYLE
  5
3
100
AcDbSymbolTable
 70
     1
  0
STYLE
  5
10
100
AcDbSymbolTableRecord
100
AcDbTextStyleTableRecord
  2
STANDARD
 70
     0
 40
0.0
 41
1.0
 50
0.0
 71
     0
 42
0.2
  3
txt
  4
bigfont.shx
  0
STYLE
  5
26
100
AcDbSymbolTableRecord
100
AcDbTextStyleTableRecord
  2
TATEGAKI
 70
    68
 40
0.0
 41
1.0
 50
0.0
 71
     0
 42
1.0
  3
txt
  4
bigfont.shx
  0
ENDTAB
  0
TABLE
  2
LAYER
 70
    2
  0
LAYER
  2
_0-0_
 70
   64
 62
    7
  6
CONTINUOUS
  0
LAYER
  2
ADD_LINE
 70
   64
 62
    7
  6
CONTINUOUS
  0
ENDTAB
  0
ENDSEC
  0
SECTION
  2
BLOCKS
  0
ENDSEC
  0
SECTION
  2
ENTITIES
  0
LINE
  8
_0-0_
  6
CONTINUOUS
 62
    4
 10
1277.7101508514897
 20
937.43079690072159
 11
1277.7101508514897
 21
1135.5517510526126
  0
LINE
  8
_0-0_
  6
CONTINUOUS
 62
    7
 10
672.13606690525205
 20
1633.3565543671114
 11
672.13606690525205
 21
167.53106997205509
  0
LINE
  8
_0-0_
  6
CONTINUOUS
 62
    7
 10
1246.7101308514902
 20
1158.4308759007229
 11
1246.7101308514902
 21
1407.9188809007221
  0
LINE
  8
_0-0_
  6
CONTINUOUS
 62
    7
 10
1234.7577348514897
 20
1158.4308759007229
 11
1219.7577478514904
 21
1158.4308759007229
  0
LINE
  8
_0-0_
  6
CONTINUOUS
 62
    7
 10
1227.7577248514899
 20
1202.8308589007222
 11
1227.7577248514899
 21
1188.8308989007212
  0
LINE
  8
_0-0_
  6
CONTINUOUS
 62
    7
 10
1199.7578058514919
 20
1188.8308989007212
 11
1199.7578058514919
 21
1202.8308589007222
  0
LINE
  8
_0-0_
  6
CONTINUOUS
 62
    7
 10
1218.7527088514908
 20
1162.8897409007234
 11
1218.2577678514899
 21
1159.9308559007234
  0
LINE
  8
_0-0_
  6
CONTINUOUS
 62
    7
 10
1224.8271708514912
 20
1158.4308759007229
 11
1224.7577638514904
 21
1158.3614689007238
  0
LINE
  8
_0-0_
  6
CONTINUOUS
 62
    2
 10
1290.8584366317336
 20
1117.4315592129435
 11
1292.2578008514902
 21
1118.8309234327037
  0
LINE
  8
_0-0_
  6
CONTINUOUS
 62
    2
 10
1288.6827866533313
 20
1118.0843363592878
 11
1292.2578008514902
 21
1121.6593505574467
  0
LINE
  8
_0-0_
  6
CONTINUOUS
 62
    2
 10
1286.3354227919044
 20
1118.5653996226076
 11
1292.2578008514902
 21
1124.4877776821934
  0
LINE
  8
_0-0_
  6
CONTINUOUS
 62
    2
 10
1283.7904937724852
 20
1118.8488977279351
 11
1292.2578008514902
 21
1127.3162048069364
  0
LINE
  8
_0-0_
  6
CONTINUOUS
 62
    2
 10
1281.0032744238306
 20
1118.8901055040235
 11
1292.2578008514902
 21
1130.1446319316831
  0
LINE
  8
_0-0_
  6
CONTINUOUS
 62
    2
 10
1277.8897504679371
 20
1118.6050086728767
 11
1292.2578008514902
 21
1132.9730590564297
  0
LINE
  8
_0-0_
  6
CONTINUOUS
 62
    2
 10
1234.1488606690491
 20
1142.7463698678996
 11
1234.6512779960431
 21
1143.2487871948917
  0
LINE
  8
_0-0_
  6
CONTINUOUS
 62
    2
 10
1231.6467906053094
 20
1143.0727269289066
 11
1234.178881823038
 21
1145.6048181466333
  0
LINE
  8
_0-0_
  6
CONTINUOUS
 62
    2
 10
1229.1447205415716
 20
1143.3990839899136
 11
1233.878946400615
 21
1148.1333098489606
  0
LINE
  8
_0-0_
  6
CONTINUOUS
 62
    2
 10
1226.6426504778337
 20
1143.7254410509206
 11
1233.7828777669201
 21
1150.8656683400088
  0
LINE
  8
_0-0_
  6
CONTINUOUS
 62
    2
 10
1224.7577638514904
 20
1144.6689815493239
 11
1233.9448988117474
 21
1153.8561165095828
  0
LINE
  8
_0-0_
  6
CONTINUOUS
 62
    2
 10
1224.7577638514886
 20
1147.4974086740706
 11
1234.47003285348
 21
1157.2096776760602
  0
LINE
  8
_0-0_
  6
CONTINUOUS
 62
    2
 10
1224.7577638514904
 20
1150.3258357988173
 11
1232.862803953396
 21
1158.4308759007229
  0
LINE
  8
_0-0_
  6
CONTINUOUS
 62
    2
 10
1224.7577638514904
 20
1153.1542629235639
 11
1230.0343768286493
 21
1158.4308759007229
  0
LINE
  8
_0-0_
  6
CONTINUOUS
 62
    2
 10
1224.7577638514886
 20
1155.9826900483106
 11
1227.2059497039027
 21
1158.4308759007229
  0
LINE
  8
_0-0_
  6
CONTINUOUS
 62
    2
 10
1234.7577348514906
 20
1158.430875900721
 11
1234.0242643880733
 21
1154.56012936868
  0
LINE
  8
_0-0_
  6
CONTINUOUS
 62
    2
 10
1234.0242643880733
 20
1154.56012936868
 11
1233.7820427615941
 21
1150.569876040898
  0
LINE
  8
_0-0_
  6
CONTINUOUS
 62
    2
 10
1233.7820427615941
 20
1150.569876040898
 11
1234.0384297536036
 21
1146.581357745574
  0
LINE
  8
_0-0_
  6
CONTINUOUS
 62
    2
 10
1234.0384297536036
 20
1146.581357745574
 11
1234.7856351750877
 21
1142.7157635928238
  0
LINE
  8
_0-0_
  6
CONTINUOUS
 62
    2
 10
1234.7856351750877
 20
1142.7157635928238
 11
1234.7999205922001
 21
1142.6614489833312
  0
LINE
  8
_0-0_
  6
CONTINUOUS
 62
    2
 10
1224.7577638514904
 20
1153.9206659007225
 11
1224.7577638514904
 21
1158.3614689007238
  0
TEXT
  8
_0-0_
 62
    7
 10
1429.6891920142098
 20
576.02721287347708
 40
40
 41
1
 50
0
  1
Ｂ
  0
LINE
  8
_0-0_
  6
CONTINUOUS
 62
    7
 10
672.13606690525205
 20
567.53106997205509
 11
1706.8525777203686
 21
567.53106997205509
  0
LINE
  8
_0-0_
  6
CONTINUOUS
 62
    7
 10
672.13606690525205
 20
167.53106997205509
 11
1706.8525777203686
 21
167.53106997205509
  0
LINE
  8
_0-0_
  6
CONTINUOUS
 62
    7
 10
672.13606690525205
 20
627.53106997205509
 11
1706.8525777203686
 21
627.53106997205509
  0
LINE
  8
_0-0_
  6
CONTINUOUS
 62
    7
 10
1189.4943223128103
 20
627.53106997205509
 11
1189.4943223128103
 21
167.53106997205509
  0
LINE
  8
_0-0_
  6
CONTINUOUS
 62
    7
 10
1706.8525777203686
 20
1633.3565543671114
 11
1706.8525777203686
 21
167.53106997205509
  0
TEXT
  8
_0-0_
 62
    7
 10
906.73245032900388
 20
575.67973412100878
 40
40
 41
1
 50
0
  1
Ａ
  0
LINE
  8
_0-0_
  6
CONTINUOUS
 62
    7
 10
1227.7577248514899
 20
1261.8306569007229
 11
1227.7577248514899
 21
1203.8308869007208
  0
LINE
  8
_0-0_
  6
CONTINUOUS
 62
    7
 10
1199.7578058514919
 20
1261.8306569007229
 11
1199.7578058514919
 21
1203.8308869007208
  0
LINE
  8
_0-0_
  6
CONTINUOUS
 62
    7
 10
1227.7577248514899
 20
1291.8307559007237
 11
1227.7577248514899
 21
1262.8308089007235
  0
LINE
  8
_0-0_
  6
CONTINUOUS
 62
    7
 10
1199.7578058514919
 20
1291.8307559007237
 11
1199.7578058514919
 21
1262.8308089007235
  0
TEXT
  8
_0-0_
 62
    7
 10
1331.295700049488
 20
1362.9522484540259
 40
24
 41
1
 50
0
  1
屋外側
  0
LINE
  8
_0-0_
  6
CONTINUOUS
 62
    2
 10
1277.7101508514897
 20
1124.0822633059263
 11
1287.8562358039126
 21
1134.2283482583455
  0
LINE
  8
_0-0_
  6
CONTINUOUS
 62
    2
 10
1277.7101508514897
 20
1126.9106904306693
 11
1285.3541657443602
 21
1134.5547053235398
  0
LINE
  8
_0-0_
  6
CONTINUOUS
 62
    2
 10
1277.7101508514897
 20
1129.739117555416
 11
1282.8520956848042
 21
1134.8810623887305
  0
LINE
  8
_0-0_
  6
CONTINUOUS
 62
    2
 10
1277.7101508514897
 20
1132.5675446801627
 11
1280.3500256252501
 21
1135.2074194539211
  0
LINE
  8
_0-0_
  6
CONTINUOUS
 62
    2
 10
1277.7101508514897
 20
1135.3959718049093
 11
1277.8479555656959
 21
1135.5337765191155
  0
LINE
  8
_0-0_
  6
CONTINUOUS
 62
    2
 10
1277.7101508514897
 20
1121.2538361811796
 11
1290.3583058634649
 21
1133.9019911931548
  0
LINE
  8
_0-0_
  6
CONTINUOUS
 62
    2
 10
1292.257806551477
 20
1116.8933563878627
 11
1288.9219918256699
 21
1118.0227373127168
  0
LINE
  8
_0-0_
  6
CONTINUOUS
 62
    2
 10
1288.9219918256699
 20
1118.0227373127168
 11
1285.3753690350925
 21
1118.7005167924888
  0
LINE
  8
_0-0_
  6
CONTINUOUS
 62
    2
 10
1285.3753690350925
 20
1118.7005167924888
 11
1281.7257005185588
 21
1118.9061008406593
  0
LINE
  8
_0-0_
  6
CONTINUOUS
 62
    2
 10
1281.7257005185588
 20
1118.9061008406593
 11
1278.0838796071223
 21
1118.6332428899545
  0
LINE
  8
_0-0_
  6
CONTINUOUS
 62
    2
 10
1278.0838796071223
 20
1118.6332428899545
 11
1277.710150851492
 21
1118.5776172159306
  0
LINE
  8
_0-0_
  6
CONTINUOUS
 62
    2
 10
842.74235731494639
 20
451.85146659662973
 11
841.27541638811181
 21
444.1099735325476
  0
LINE
  8
_0-0_
  6
CONTINUOUS
 62
    2
 10
841.27541638811181
 20
444.1099735325476
 11
840.79097313515354
 21
436.12946687698349
  0
LINE
  8
_0-0_
  6
CONTINUOUS
 62
    2
 10
840.79097313515354
 20
436.12946687698349
 11
841.3037471191725
 21
428.15243028633546
  0
LINE
  8
_0-0_
  6
CONTINUOUS
 62
    2
 10
841.3037471191725
 20
428.15243028633546
 11
842.79815796214052
 21
420.42124198083508
  0
LINE
  8
_0-0_
  6
CONTINUOUS
 62
    2
 10
842.79815796214052
 20
420.42124198083508
 11
842.82672879636539
 21
420.31261276184995
  0
LINE
  8
_0-0_
  6
CONTINUOUS
 62
    2
 10
822.7424153149442
 20
446.95509489180517
 11
827.63878701977058
 21
451.85146659662973
  0
LINE
  8
_0-0_
  6
CONTINUOUS
 62
    2
 10
822.74241531494602
 20
441.29824064231184
 11
833.29564126926391
 21
451.85146659662973
  0
LINE
  8
_0-0_
  6
CONTINUOUS
 62
    2
 10
822.74241531494602
 20
435.6413863928185
 11
838.95249551875725
 21
451.85146659662973
  0
LINE
  8
_0-0_
  6
CONTINUOUS
 62
    2
 10
822.7424153149442
 20
429.98453214332517
 11
842.16695331892527
 21
449.40907014730442
  0
LINE
  8
_0-0_
  6
CONTINUOUS
 62
    2
 10
822.74241531494602
 20
424.32767789383183
 11
841.11668523546007
 21
442.70194781434952
  0
LINE
  8
_0-0_
  6
CONTINUOUS
 62
    2
 10
826.51218856763273
 20
422.44059689702885
 11
840.79264314580553
 21
436.72105147519801
  0
LINE
  8
_0-0_
  6
CONTINUOUS
 62
    2
 10
831.51632869510843
 20
421.78788277501485
 11
840.98478041319697
 21
431.25633449310158
  0
LINE
  8
_0-0_
  6
CONTINUOUS
 62
    2
 10
836.52046882258412
 20
421.13516865299721
 11
841.58465125803934
 21
426.19935108845061
  0
LINE
  8
_0-0_
  6
CONTINUOUS
 62
    2
 10
841.52460895006345
 20
420.4824545309832
 11
842.52944360405138
 21
421.48728918497113
  0
LINE
  8
_0-0_
  6
CONTINUOUS
 62
    2
 10
929.00638854783949
 20
372.19973214094102
 11
957.7424893149456
 21
400.93583290804713
  0
LINE
  8
_0-0_
  6
CONTINUOUS
 62
    2
 10
935.23343645962461
 20
372.76992580323463
 11
957.74248931494378
 21
395.2789786585538
  0
LINE
  8
_0-0_
  6
CONTINUOUS
 62
    2
 10
940.80787515693385
 20
372.68751025105053
 11
957.74248931494378
 21
389.62212440906046
  0
LINE
  8
_0-0_
  6
CONTINUOUS
 62
    2
 10
945.89773319577409
 20
372.12051404039926
 11
957.74248931494378
 21
383.96527015956713
  0
LINE
  8
_0-0_
  6
CONTINUOUS
 62
    2
 10
950.59246091862963
 20
371.15838751376327
 11
957.74248931494378
 21
378.30841591007743
  0
LINE
  8
_0-0_
  6
CONTINUOUS
 62
    2
 10
954.94376087543071
 20
369.85283322107466
 11
957.74248931494742
 21
372.65156166058773
  0
LINE
  8
_0-0_
  6
CONTINUOUS
 62
    2
 10
928.64718931494656
 20
405.78165840500264
 11
928.92279874335702
 21
406.05726783341129
  0
LINE
  8
_0-0_
  6
CONTINUOUS
 62
    2
 10
928.64718931494656
 20
400.12480415550931
 11
933.92693886246536
 21
405.40455370302629
  0
LINE
  8
_0-0_
  6
CONTINUOUS
 62
    2
 10
928.64718931494656
 20
394.46794990601597
 11
938.93107898157552
 21
404.75183957264494
  0
LINE
  8
_0-0_
  6
CONTINUOUS
 62
    2
 10
928.64718931494656
 20
388.81109565652628
 11
943.93521910068387
 21
404.09912544226358
  0
LINE
  8
_0-0_
  6
CONTINUOUS
 62
    2
 10
928.64718931494656
 20
383.15424140703294
 11
948.93935921978857
 21
403.44641131187495
  0
LINE
  8
_0-0_
  6
CONTINUOUS
 62
    2
 10
928.64718931494656
 20
377.49738715753961
 11
953.94349933889691
 21
402.79369718148996
  0
LINE
  8
_0-0_
  6
CONTINUOUS
 62
    2
 10
957.74250071491758
 20
368.7764275709095
 11
951.07087126330327
 21
371.03518942061748
  0
LINE
  8
_0-0_
  6
CONTINUOUS
 62
    2
 10
951.07087126330327
 20
371.03518942061748
 11
943.97762568214853
 21
372.39074838016171
  0
LINE
  8
_0-0_
  6
CONTINUOUS
 62
    2
 10
943.97762568214853
 20
372.39074838016171
 11
936.6782886490812
 21
372.80191647650241
  0
LINE
  8
_0-0_
  6
CONTINUOUS
 62
    2
 10
936.6782886490812
 20
372.80191647650241
 11
929.39464682620815
 21
372.25620057509332
  0
LINE
  8
_0-0_
  6
CONTINUOUS
 62
    2
 10
929.39464682620815
 20
372.25620057509332
 11
928.64718931494747
 21
372.14494922704529
  0
LINE
  8
_0-0_
  6
CONTINUOUS
 62
    4
 10
928.64718931494656
 20
214.67089664052151
 11
928.64718931494656
 21
406.05726783341129
  0
POINT
  8
_0-0_
 62
    7
 10
942.75965935177749
 20
388.05603718148018
  0
POINT
  8
_0-0_
 62
    7
 10
831.68997338364727
 20
436.45852422687972
  0
LINE
  8
_0-0_
  6
CONTINUOUS
 62
    7
 10
831.68997338364727
 20
436.45852422687972
 11
996.14633613430863
 21
480.52447381607931
  0
LINE
  8
_0-0_
  6
CONTINUOUS
 62
    7
 10
942.75965935177749
 20
388.05603718148018
 11
996.14633613430863
 21
480.52447381607931
  0
POINT
  8
_0-0_
 62
    7
 10
1286.903082906887
 20
1123.6868402357734
  0
POINT
  8
_0-0_
 62
    7
 10
1229.1151358979714
 20
1151.5106665733995
  0
LINE
  8
_0-0_
  6
CONTINUOUS
 62
    7
 10
1229.1151358979714
 20
1151.5106665733995
 11
1316.4830380296335
 21
1174.9208253939789
  0
LINE
  8
_0-0_
  6
CONTINUOUS
 62
    7
 10
1286.903082906887
 20
1123.6868402357734
 11
1316.4830380296335
 21
1174.9208253939789
  0
POINT
  8
_0-0_
 62
    7
 10
1261.8511876595694
 20
1138.4931934640529
  0
LINE
  8
_0-0_
  6
CONTINUOUS
 62
    7
 10
1261.8511876595694
 20
1138.4931934640529
 11
1327.7826796257596
 21
1252.689887368316
  0
CIRCLE
  8
_0-0_
  6
DASHED2
 62
    1
 10
1258.5714548320211
 20
1144.315906742487
 40
52.755020399010462
  0
TEXT
  8
_0-0_
 62
    7
 10
1253.8413721441866
 20
1193.8341614730282
 40
24
 41
1
 50
0
  1
Ａ
  0
TEXT
  8
_0-0_
 62
    7
 10
946.89278712563839
 20
1361.7621465564273
 40
24
 41
1
 50
0
  1
ＰＨ屋内側
  0
TEXT
  8
_0-0_
 62
    7
 10
1324.4513888072288
 20
1254.1932942301912
 40
30
 41
1
 50
0
  1
水切板
  0
TEXT
  8
_0-0_
 62
    7
 10
1323.2880865791667
 20
1165.3036745014517
 40
30
 41
1
 50
0
  1
ｼｰﾘﾝｸﾞ
  0
LINE
  8
_0-0_
  6
CONTINUOUS
 62
    7
 10
809.30481685149073
 20
823.43079690072159
 11
998.75777785148978
 21
823.43079690072159
  0
LINE
  8
_0-0_
  6
CONTINUOUS
 62
    7
 10
1398.7577778514897
 20
823.43079690072159
 11
1533.1415198514915
 21
823.43079690072159
  0
LINE
  8
_0-0_
  6
CONTINUOUS
 62
    7
 10
998.75777785148978
 20
756.4682129007208
 11
998.75777785148978
 21
823.43079690072159
  0
LINE
  8
_0-0_
  6
CONTINUOUS
 62
    7
 10
1398.7577778514897
 20
756.4682129007208
 11
1398.7577778514897
 21
823.43079690072159
  0
LINE
  8
_0-0_
  6
CONTINUOUS
 62
    7
 10
1136.7101388514893
 20
1093.4307849007212
 11
1271.7101508514897
 21
1082.1808099007224
  0
LINE
  8
_0-0_
  6
CONTINUOUS
 62
    7
 10
1136.7101388514893
 20
1093.4307849007212
 11
1136.7101388514893
 21
928.43079690072159
  0
LINE
  8
_0-0_
  6
CONTINUOUS
 62
    7
 10
924.71006985149154
 20
1085.4308079007217
 11
924.71006985149154
 21
928.43079690072159
  0
LINE
  8
_0-0_
  6
CONTINUOUS
 62
    7
 10
924.71006985149154
 20
1085.4308079007217
 11
1136.7101388514893
 21
1085.4308079007217
  0
LINE
  8
_0-0_
  6
CONTINUOUS
 62
    7
 10
906.71009385149239
 20
1093.430846900724
 11
906.71009385149239
 21
963.43078890072252
  0
LINE
  8
_0-0_
  6
CONTINUOUS
 62
    7
 10
909.7100258514912
 20
963.43078890072252
 11
909.7100258514912
 21
1093.430846900724
  0
LINE
  8
_0-0_
  6
CONTINUOUS
 62
    7
 10
896.71002685149153
 20
953.43078990072104
 11
809.30481685149073
 21
953.43078990072104
  0
LINE
  8
_0-0_
  6
CONTINUOUS
 62
    7
 10
896.71002685149153
 20
950.43078990072104
 11
809.30481685149073
 21
950.43078990072104
  0
LINE
  8
_0-0_
  6
CONTINUOUS
 62
    7
 10
916.71009285149205
 20
1103.4308459007236
 11
1108.7101578514903
 21
1103.4308459007236
  0
LINE
  8
_0-0_
  6
CONTINUOUS
 62
    7
 10
1108.7101578514903
 20
1100.430789900721
 11
916.71009285149205
 21
1100.430789900721
  0
ARC
  8
_0-0_
  6
CONTINUOUS
 62
    7
 10
896.71002685149153
 20
963.43078890072252
 40
10.000067000000399
 50
270
 51
0
  0
ARC
  8
_0-0_
  6
CONTINUOUS
 62
    7
 10
896.71002685149153
 20
963.43078890072252
 40
12.999999000000116
 50
270
 51
0
  0
ARC
  8
_0-0_
  6
CONTINUOUS
 62
    7
 10
916.71009285149205
 20
1093.430846900724
 40
9.9999990000001162
 50
90
 51
180
  0
ARC
  8
_0-0_
  6
CONTINUOUS
 62
    7
 10
916.71009285149205
 20
1093.430846900724
 40
6.9999990000001162
 50
89.770816709356467
 51
180
  0
ARC
  8
_0-0_
  6
CONTINUOUS
 62
    7
 10
1108.7101578514903
 20
1113.4307889007225
 40
9.9999990000001162
 50
270
 51
0
  0
ARC
  8
_0-0_
  6
CONTINUOUS
 62
    7
 10
1108.7101578514903
 20
1113.4307889007225
 40
12.999999000000116
 50
270
 51
0
  0
LINE
  8
_0-0_
  6
CONTINUOUS
 62
    7
 10
1112.7101458514917
 20
1173.4308629007221
 11
1128.5798848514896
 21
1173.4308629007221
  0
LINE
  8
_0-0_
  6
CONTINUOUS
 62
    7
 10
1114.2101258514904
 20
1174.9308429007226
 11
1114.2101258514904
 21
1201.930857900724
  0
LINE
  8
_0-0_
  6
CONTINUOUS
 62
    7
 10
1112.7101458514917
 20
1203.4308379007209
 11
1112.7101458514917
 21
1173.4308629007221
  0
LINE
  8
_0-0_
  6
CONTINUOUS
 62
    7
 10
1114.2101258514904
 20
1201.930857900724
 11
1187.7101458514917
 21
1201.930857900724
  0
LINE
  8
_0-0_
  6
CONTINUOUS
 62
    7
 10
1136.7101388514893
 20
1407.9188809007221
 11
1136.7101388514893
 21
1203.4308379007209
  0
LINE
  8
_0-0_
  6
CONTINUOUS
 62
    7
 10
1187.7101458514917
 20
1407.9188809007221
 11
1187.7101458514917
 21
1201.930857900724
  0
LINE
  8
_0-0_
  6
CONTINUOUS
 62
    7
 10
1112.7101458514917
 20
1203.4308379007209
 11
1187.7101458514917
 21
1203.4308379007209
  0
LINE
  8
_0-0_
  6
CONTINUOUS
 62
    7
 10
1118.7101568514918
 20
1113.4307889007225
 11
1118.7101568514918
 21
1173.4308629007221
  0
LINE
  8
_0-0_
  6
CONTINUOUS
 62
    7
 10
1121.7101568514918
 20
1113.4307889007225
 11
1121.7101568514918
 21
1173.4308629007221
  0
LINE
  8
_0-0_
  6
CONTINUOUS
 62
    7
 10
1174.7577228514892
 20
1197.4308559007234
 11
1174.7577228514892
 21
1182.4308679007238
  0
LINE
  8
_0-0_
  6
CONTINUOUS
 62
    7
 10
1173.2577428514905
 20
1195.9308759007229
 11
1173.2577428514905
 21
1181.1391079007237
  0
LINE
  8
_0-0_
  6
CONTINUOUS
 62
    7
 10
1174.7577228514892
 20
1182.4308679007238
 11
1234.7577348514897
 21
1173.4308629007221
  0
LINE
  8
_0-0_
  6
CONTINUOUS
 62
    7
 10
1173.2577428514905
 20
1181.1391079007237
 11
1233.2577548514892
 21
1172.1391039007224
  0
LINE
  8
_0-0_
  6
CONTINUOUS
 62
    7
 10
1218.2577678514899
 20
1159.9308559007234
 11
1233.2577548514892
 21
1159.9308559007234
  0
LINE
  8
_0-0_
  6
CONTINUOUS
 62
    7
 10
1234.7577348514897
 20
1173.4308629007221
 11
1234.7577348514897
 21
1158.4308759007229
  0
LINE
  8
_0-0_
  6
CONTINUOUS
 62
    7
 10
1233.2577548514892
 20
1172.1391039007224
 11
1233.2577548514892
 21
1159.9308559007234
  0
LINE
  8
_0-0_
  6
CONTINUOUS
 62
    7
 10
1218.2577678514899
 20
1159.9308559007234
 11
1218.2577678514899
 21
1143.4308879007233
  0
LINE
  8
_0-0_
  6
CONTINUOUS
 62
    7
 10
1219.7577478514904
 20
1158.4308759007229
 11
1219.7577478514904
 21
1143.4308879007233
  0
LINE
  8
_0-0_
  6
CONTINUOUS
 62
    7
 10
1218.2577678514899
 20
1143.4308879007233
 11
1219.7577478514904
 21
1143.4308879007233
  0
LINE
  8
_0-0_
  6
CONTINUOUS
 62
    7
 10
1224.7577638514904
 20
1153.9206659007225
 11
1223.2577838514917
 21
1153.9206659007225
  0
LINE
  8
_0-0_
  6
CONTINUOUS
 62
    7
 10
1223.2577838514917
 20
1153.9206659007225
 11
1223.2577838514917
 21
1142.6542359007228
  0
LINE
  8
_0-0_
  6
CONTINUOUS
 62
    7
 10
1224.7577638514904
 20
1153.9206659007225
 11
1224.7577638514904
 21
1143.971295900724
  0
LINE
  8
_0-0_
  6
CONTINUOUS
 62
    7
 10
1224.7577638514904
 20
1143.971295900724
 11
1293.757781851491
 21
1134.9712909007224
  0
LINE
  8
_0-0_
  6
CONTINUOUS
 62
    7
 10
1223.2577838514917
 20
1142.6542359007228
 11
1292.2578008514902
 21
1133.6542309007211
  0
LINE
  8
_0-0_
  6
CONTINUOUS
 62
    7
 10
1293.757781851491
 20
1134.9712909007224
 11
1293.757781851491
 21
1113.9713209007216
  0
LINE
  8
_0-0_
  6
CONTINUOUS
 62
    7
 10
1292.2578008514902
 20
1133.6542309007211
 11
1292.2578008514902
 21
1113.9713209007216
  0
LINE
  8
_0-0_
  6
CONTINUOUS
 62
    7
 10
1292.2578008514902
 20
1113.9713209007216
 11
1293.757781851491
 21
1113.9713209007216
  0
LINE
  8
_0-0_
  6
CONTINUOUS
 62
    7
 10
1271.7101508514897
 20
928.43079690072159
 11
1271.7101508514897
 21
1136.3343599902303
  0
CIRCLE
  8
_0-0_
  6
CONTINUOUS
 62
    7
 10
1198.7577778514897
 20
1375.1677459007235
 40
1.25
  0
CIRCLE
  8
_0-0_
  6
CONTINUOUS
 62
    7
 10
1198.7577778514897
 20
1375.1677459007235
 40
2.5
  0
LINE
  8
_0-0_
  6
CONTINUOUS
 62
    7
 10
1084.9669458514909
 20
1375.1677459007235
 11
1306.0883878514906
 21
1375.1677459007235
  0
LINE
  8
_0-0_
  6
CONTINUOUS
 62
    7
 10
1099.4557848514905
 20
1379.0500769007242
 11
1084.9669458514909
 21
1375.1677459007235
  0
LINE
  8
_0-0_
  6
CONTINUOUS
 62
    7
 10
1084.9669458514909
 20
1375.1677459007235
 11
1099.4557848514905
 21
1371.2854159007231
  0
LINE
  8
_0-0_
  6
CONTINUOUS
 62
    7
 10
1291.5994878514903
 20
1379.0500769007242
 11
1306.0883878514906
 21
1375.1677459007235
  0
LINE
  8
_0-0_
  6
CONTINUOUS
 62
    7
 10
1306.0883878514906
 20
1375.1677459007235
 11
1291.5994878514903
 21
1371.2854159007231
  0
LINE
  8
_0-0_
  6
CONTINUOUS
 62
    7
 10
1234.7577348514897
 20
1158.4308759007229
 11
1246.7101308514902
 21
1158.4308759007229
  0
LINE
  8
_0-0_
  6
CONTINUOUS
 62
    7
 10
1234.7577348514897
 20
1158.4308759007229
 11
1234.7577348514897
 21
1407.9188809007221
  0
LINE
  8
_0-0_
  6
CONTINUOUS
 62
    7
 10
1199.7578058514919
 20
1188.8308989007212
 11
1227.7577248514899
 21
1188.8308989007212
  0
LINE
  8
_0-0_
  6
CONTINUOUS
 62
    7
 10
1198.7577778514897
 20
1187.8308709007226
 11
1228.7577528514903
 21
1187.8308709007226
  0
ARC
  8
_0-0_
  6
CONTINUOUS
 62
    7
 10
1213.7577648514889
 20
1202.8308599007189
 40
3.999999072974235
 50
112.02387131587876
 51
67.976128684080152
  0
ARC
  8
_0-0_
  6
CONTINUOUS
 62
    7
 10
1213.7577648514889
 20
1202.8308599007189
 40
5.0000285827050082
 50
112.02387131587513
 51
67.976128684075547
  0
LINE
  8
_0-0_
  6
CONTINUOUS
 62
    7
 10
1211.8827898514901
 20
1207.4660249007222
 11
1212.257793773766
 21
1206.5389698437768
  0
LINE
  8
_0-0_
  6
CONTINUOUS
 62
    7
 10
1215.6327398514914
 20
1207.4660249007222
 11
1215.2577359292136
 21
1206.538969843775
  0
ARC
  8
_0-0_
  6
CONTINUOUS
 62
    7
 10
1213.7577648514907
 20
1262.8308089007235
 40
4.000000000000596
 50
292.02386499999767
 51
247.97613500000236
  0
ARC
  8
_0-0_
  6
CONTINUOUS
 62
    7
 10
1213.7577648514907
 20
1262.8308089007235
 40
5.0000000000003864
 50
292.02386499999795
 51
247.9761350000021
  0
LINE
  8
_0-0_
  6
CONTINUOUS
 62
    7
 10
1215.6327286222331
 20
1258.195670190996
 11
1215.2577358680865
 21
1259.1226979329415
  0
LINE
  8
_0-0_
  6
CONTINUOUS
 62
    7
 10
1211.8828010807483
 20
1258.195670190996
 11
1212.2577938348968
 21
1259.1226979329415
  0
CIRCLE
  8
_0-0_
  6
CONTINUOUS
 62
    7
 10
1183.8053922128856
 20
1192.8886145037879
 40
1.2843322407210123
  0
CIRCLE
  8
_0-0_
  6
CONTINUOUS
 62
    7
 10
1183.8053922128856
 20
1192.8886145037879
 40
2.5331176404733706
  0
CIRCLE
  8
_0-0_
  6
CONTINUOUS
 62
    7
 10
1183.8053922128856
 20
1192.8886145037879
 40
7.6084332730519142
  0
LINE
  8
_0-0_
  6
CONTINUOUS
 62
    7
 10
1210.7577396793858
 20
1286.4132203389647
 11
1216.7577900235956
 21
1286.4132203389665
  0
LINE
  8
_0-0_
  6
CONTINUOUS
 62
    7
 10
1210.7577396793858
 20
1286.4132203389647
 11
1210.7577396793858
 21
1407.9188809007221
  0
LINE
  8
_0-0_
  6
CONTINUOUS
 62
    7
 10
1216.7577900235956
 20
1286.4132203389665
 11
1216.7577900235956
 21
1407.9188809007221
  0
ARC
  8
_0-0_
  6
CONTINUOUS
 62
    7
 10
1213.7577648514907
 20
1292.3308319007222
 40
6.6346271657932299
 50
184.32269107201483
 51
243.11656212723824
  0
ARC
  8
_0-0_
  6
CONTINUOUS
 62
    7
 10
1213.7577648514907
 20
1292.3308319007222
 40
6.6346271657932299
 50
296.88343787276705
 51
355.67730892798511
  0
ARC
  8
_0-0_
  6
CONTINUOUS
 62
    7
 10
1213.7577648514907
 20
1292.3308319007222
 40
6.6346271657932299
 50
4.322691072014865
 51
63.11656212723296
  0
ARC
  8
_0-0_
  6
CONTINUOUS
 62
    7
 10
1213.7577648514907
 20
1292.3308319007222
 40
6.6346271657932299
 50
116.88343787276175
 51
175.67730892798517
  0
LINE
  8
_0-0_
  6
CONTINUOUS
 62
    7
 10
762.16355773024782
 20
312.22494080962247
 11
916.64718931494656
 21
299.3513345966287
  0
LINE
  8
_0-0_
  6
CONTINUOUS
 62
    7
 10
762.16355773024782
 20
493.93826483186899
 11
842.74235731494639
 21
481.85144059662821
  0
LINE
  8
_0-0_
  6
CONTINUOUS
 62
    7
 10
842.74235731494639
 20
481.85144059662821
 11
842.74235731494639
 21
451.85146659662973
  0
LINE
  8
_0-0_
  6
CONTINUOUS
 62
    7
 10
842.74235731494639
 20
451.85146659662973
 11
812.7423833149461
 21
451.85146659662973
  0
LINE
  8
_0-0_
  6
CONTINUOUS
 62
    7
 10
812.7423833149461
 20
451.85146659662973
 11
812.7423833149461
 21
421.85149059663058
  0
LINE
  8
_0-0_
  6
CONTINUOUS
 62
    7
 10
762.16355773024782
 20
490.90475137889121
 11
839.74239731494538
 21
479.26792259662875
  0
LINE
  8
_0-0_
  6
CONTINUOUS
 62
    7
 10
839.74239731494538
 20
479.26792259662875
 11
839.74239731494538
 21
454.85142659663074
  0
LINE
  8
_0-0_
  6
CONTINUOUS
 62
    7
 10
960.74245131494547
 20
404.9322965966287
 11
822.74241531494602
 21
422.93230659662845
  0
LINE
  8
_0-0_
  6
CONTINUOUS
 62
    7
 10
957.7424893149456
 20
402.2981765966299
 11
957.7424893149456
 21
362.93235659662719
  0
LINE
  8
_0-0_
  6
CONTINUOUS
 62
    7
 10
960.74245131494547
 20
404.9322965966287
 11
960.74245131494547
 21
362.93235659662719
  0
LINE
  8
_0-0_
  6
CONTINUOUS
 62
    7
 10
960.74245131494547
 20
362.93235659662719
 11
957.7424893149456
 21
362.93235659662719
  0
LINE
  8
_0-0_
  6
CONTINUOUS
 62
    7
 10
819.74245531494682
 20
420.29818659662965
 11
819.74245531494682
 21
442.83104659662899
  0
LINE
  8
_0-0_
  6
CONTINUOUS
 62
    7
 10
819.74245531494682
 20
442.83104659662899
 11
822.74241531494602
 21
442.83104659662899
  0
LINE
  8
_0-0_
  6
CONTINUOUS
 62
    7
 10
822.74241531494602
 20
442.83104659662899
 11
822.74241531494602
 21
422.93230659662845
  0
LINE
  8
_0-0_
  6
CONTINUOUS
 62
    7
 10
809.7424233149469
 20
421.85149059663058
 11
812.7423833149461
 21
421.85149059663058
  0
LINE
  8
_0-0_
  6
CONTINUOUS
 62
    2
 10
822.88122931494593
 20
451.85146659662973
 11
822.74241531494602
 21
451.712652596628
  0
LINE
  8
_0-0_
  6
CONTINUOUS
 62
    2
 10
822.74241531494602
 20
442.83104659662899
 11
822.74241531494602
 21
451.85146659662973
  0
LINE
  8
_0-0_
  6
CONTINUOUS
 62
    7
 10
839.74239731494538
 20
454.85142659663074
 11
809.7424233149469
 21
454.85142659663074
  0
LINE
  8
_0-0_
  6
CONTINUOUS
 62
    7
 10
809.7424233149469
 20
421.85149059663058
 11
809.7424233149469
 21
454.85142659663074
  0
LINE
  8
_0-0_
  6
CONTINUOUS
 62
    7
 10
819.74245531494682
 20
420.29818659662965
 11
957.7424893149456
 21
402.2981765966299
  0
LINE
  8
_0-0_
  6
CONTINUOUS
 62
    7
 10
916.64718931494656
 20
214.67089664052151
 11
916.64718931494656
 21
407.65846659663043
  0
LINE
  8
_0-0_
  6
CONTINUOUS
 62
    7
 10
1136.7101388514893
 20
928.43079690072159
 11
809.30481685149073
 21
928.43079690072159
  0
LINE
  8
_0-0_
  6
CONTINUOUS
 62
    7
 10
1114.2101258514904
 20
1174.9308429007226
 11
1128.5798848514896
 21
1174.9308429007226
  0
LINE
  8
_0-0_
  6
CONTINUOUS
 62
    7
 10
1128.5798848514896
 20
1173.4308629007221
 11
1128.5798848514896
 21
1174.9308429007226
  0
LINE
  8
_0-0_
  6
CONTINUOUS
 62
    7
 10
1209.7577148514902
 20
1291.8307559007237
 11
1199.7578058514919
 21
1291.8307559007237
  0
LINE
  8
_0-0_
  6
CONTINUOUS
 62
    7
 10
1209.7577148514902
 20
1292.8309079007206
 11
1209.7577148514902
 21
1291.8307559007237
  0
LINE
  8
_0-0_
  6
CONTINUOUS
 62
    7
 10
1217.7578148514913
 20
1292.8309079007206
 11
1217.7578148514913
 21
1291.8307559007237
  0
LINE
  8
_0-0_
  6
CONTINUOUS
 62
    7
 10
1217.7578148514913
 20
1291.8307559007237
 11
1227.7577248514899
 21
1291.8307559007237
  0
LINE
  8
_0-0_
  6
CONTINUOUS
 62
    7
 10
1217.7578148514913
 20
1292.8309079007206
 11
1228.7577528514903
 21
1292.8309079007206
  0
LINE
  8
_0-0_
  6
CONTINUOUS
 62
    7
 10
1209.7577148514902
 20
1292.8309079007206
 11
1198.7577778514897
 21
1292.8309079007206
  0
LINE
  8
_0-0_
  6
CONTINUOUS
 62
    7
 10
1198.7577778514897
 20
1187.8308709007226
 11
1198.7577778514897
 21
1407.9188809007221
  0
LINE
  8
_0-0_
  6
CONTINUOUS
 62
    7
 10
1228.7577528514903
 20
1187.8308709007226
 11
1228.7577528514903
 21
1407.9188809007221
  0
LINE
  8
_0-0_
  6
CONTINUOUS
 62
    7
 10
1208.7577648514907
 20
1262.8308089007235
 11
1198.7577778514897
 21
1262.8308089007235
  0
LINE
  8
_0-0_
  6
CONTINUOUS
 62
    7
 10
1208.8588163952518
 20
1261.8306569007229
 11
1198.7577778514897
 21
1261.8306569007229
  0
LINE
  8
_0-0_
  6
CONTINUOUS
 62
    7
 10
1228.7577528514903
 20
1262.8308089007235
 11
1218.7577648514925
 21
1262.8308089007235
  0
LINE
  8
_0-0_
  6
CONTINUOUS
 62
    7
 10
1228.7577528514903
 20
1261.8306569007229
 11
1218.6567133077315
 21
1261.8306569007229
  0
LINE
  8
_0-0_
  6
CONTINUOUS
 62
    7
 10
1142.7101208514905
 20
1197.4308559007234
 11
1174.7577228514892
 21
1197.4308559007234
  0
LINE
  8
_0-0_
  6
CONTINUOUS
 62
    7
 10
1173.2577428514905
 20
1195.9308759007229
 11
1142.7101208514905
 21
1195.9308759007229
  0
LINE
  8
_0-0_
  6
CONTINUOUS
 62
    7
 10
1142.7101208514905
 20
1197.4308559007234
 11
1142.7101208514905
 21
1195.9308759007229
  0
LINE
  8
_0-0_
  6
CONTINUOUS
 62
    7
 10
1198.7577778514897
 20
1203.8308869007208
 11
1208.858791081484
 21
1203.8308869007208
  0
LINE
  8
_0-0_
  6
CONTINUOUS
 62
    7
 10
1198.7577778514897
 20
1202.8308589007222
 11
1208.7577362687844
 21
1202.8308589007222
  0
LINE
  8
_0-0_
  6
CONTINUOUS
 62
    7
 10
1218.6567679977561
 20
1203.8308869007208
 11
1228.7577528514903
 21
1203.8308869007208
  0
LINE
  8
_0-0_
  6
CONTINUOUS
 62
    7
 10
1228.7577528514903
 20
1202.8308589007222
 11
1218.7577648514907
 21
1202.8308589007222
  0
LINE
  8
_0-0_
  6
CONTINUOUS
 62
    7
 10
1288.731341912513
 20
756.4682129007208
 11
1460.6939259125138
 21
928.43079690072159
  0
LINE
  8
_0-0_
  6
CONTINUOUS
 62
    7
 10
1281.6602741006463
 20
756.4682129007208
 11
1453.6228581006471
 21
928.43079690072159
  0
LINE
  8
_0-0_
  6
CONTINUOUS
 62
    7
 10
1274.5892062887815
 20
756.4682129007208
 11
1446.5517902887823
 21
928.43079690072159
  0
LINE
  8
_0-0_
  6
CONTINUOUS
 62
    7
 10
1062.4571719328178
 20
756.46821290072262
 11
1271.7101508514897
 21
965.72119181939456
  0
LINE
  8
_0-0_
  6
CONTINUOUS
 62
    7
 10
1055.386104120953
 20
756.4682129007208
 11
1271.7101508514916
 21
972.79225963126123
  0
LINE
  8
_0-0_
  6
CONTINUOUS
 62
    7
 10
1048.3150363090863
 20
756.4682129007208
 11
1271.7101508514897
 21
979.86332744312608
  0
LINE
  8
_0-0_
  6
CONTINUOUS
 62
    7
 10
903.14558595312349
 20
823.43079690072159
 11
1008.1455859531235
 21
928.43079690072159
  0
LINE
  8
_0-0_
  6
CONTINUOUS
 62
    7
 10
1136.7101388514893
 20
1056.9953497990894
 11
1170.3428541552239
 21
1090.6280651028221
  0
LINE
  8
_0-0_
  6
CONTINUOUS
 62
    7
 10
896.07451814125682
 20
823.43079690072159
 11
1001.0745181412568
 21
928.43079690072159
  0
LINE
  8
_0-0_
  6
CONTINUOUS
 62
    7
 10
1136.7101388514911
 20
1064.0664176109578
 11
1163.8157134761968
 21
1091.1719922356617
  0
LINE
  8
_0-0_
  6
CONTINUOUS
 62
    7
 10
889.00345032939379
 20
823.43079690072159
 11
994.00345032939379
 21
928.43079690072159
  0
LINE
  8
_0-0_
  6
CONTINUOUS
 62
    7
 10
1136.7101388514911
 20
1071.1374854228209
 11
1157.2885727971734
 21
1091.7159193685013
  0
LINE
  8
_0-0_
  6
CONTINUOUS
 62
    7
 10
924.71006985148972
 20
985.01417794186932
 11
981.29345089263745
 21
928.43079690072159
  0
LINE
  8
_0-0_
  6
CONTINUOUS
 62
    7
 10
924.71006985149154
 20
992.08524575373417
 11
988.3645187045023
 21
928.43079690072341
  0
LINE
  8
_0-0_
  6
CONTINUOUS
 62
    7
 10
1050.5676098723306
 20
1085.4308079007235
 11
1136.7101388514911
 21
999.28827892156301
  0
LINE
  8
_0-0_
  6
CONTINUOUS
 62
    7
 10
1057.6386776841991
 20
1085.4308079007217
 11
1136.7101388514893
 21
1006.3593467334297
  0
TEXT
  8
_0-0_
 62
    7
 10
1001.0988581212915
 20
476.35378049866017
 40
21.617968000000001
 41
1
 50
0
  1
ｼｰﾘﾝｸﾞ
  0
POINT
  8
_0-0_
 62
    7
 10
1533.1415198514915
 20
823.43079690072159
  0
LINE
  8
_0-0_
  6
CONTINUOUS
 62
    7
 10
1271.7101508514897
 20
928.43079690072159
 11
1533.1415198514915
 21
928.43079690072159
  0
CIRCLE
  8
_0-0_
  6
DASHED2
 62
    1
 10
1277.7101508514897
 20
978.77019568643777
 40
80
  0
TEXT
  8
_0-0_
 62
    7
 10
1236.5860290893252
 20
1040.500295549183
 40
24
 41
1
 50
0
  1
Ｂ
  0
LINE
  8
_0-0_
  6
CONTINUOUS
 62
    6
 10
1277.7101508514897
 20
973.43079690072159
 11
1277.7101508514897
 21
938.43079690072159
  0
LINE
  8
_0-0_
  6
CONTINUOUS
 62
    6
 10
1277.7101508514897
 20
939.08561515567385
 11
1278.3649691064384
 21
938.43079690072159
  0
LINE
  8
_0-0_
  6
CONTINUOUS
 62
    6
 10
1277.7101508514861
 20
953.22775077940537
 11
1292.5071047301717
 21
938.43079690071977
  0
LINE
  8
_0-0_
  6
CONTINUOUS
 62
    6
 10
1277.7101508514897
 20
967.36988640313507
 11
1306.6492403539014
 21
938.43079690072159
  0
LINE
  8
_0-0_
  6
CONTINUOUS
 62
    6
 10
1285.7913759776347
 20
973.43079690071977
 11
1320.7913759776347
 21
938.43079690071977
  0
LINE
  8
_0-0_
  6
CONTINUOUS
 62
    6
 10
1299.9335116013644
 20
973.43079690071977
 11
1334.9335116013644
 21
938.43079690071977
  0
LINE
  8
_0-0_
  6
CONTINUOUS
 62
    6
 10
1314.0756472250978
 20
973.43079690072159
 11
1349.0756472250978
 21
938.43079690072159
  0
LINE
  8
_0-0_
  6
CONTINUOUS
 62
    6
 10
1328.2177828488275
 20
973.43079690071977
 11
1363.2177828488238
 21
938.43079690072159
  0
LINE
  8
_0-0_
  6
CONTINUOUS
 62
    6
 10
1342.3599184725572
 20
973.43079690071977
 11
1377.3599184725572
 21
938.43079690071977
  0
LINE
  8
_0-0_
  6
CONTINUOUS
 62
    6
 10
1356.5020540962869
 20
973.43079690072159
 11
1391.5020540962869
 21
938.43079690072159
  0
LINE
  8
_0-0_
  6
CONTINUOUS
 62
    6
 10
1370.6441897200202
 20
973.43079690071977
 11
1405.6441897200202
 21
938.43079690071977
  0
LINE
  8
_0-0_
  6
CONTINUOUS
 62
    6
 10
1384.7863253437499
 20
973.43079690071977
 11
1419.7863253437499
 21
938.43079690071977
  0
LINE
  8
_0-0_
  6
CONTINUOUS
 62
    6
 10
1398.9284609674833
 20
973.43079690072159
 11
1433.9284609674833
 21
938.43079690072159
  0
LINE
  8
_0-0_
  6
CONTINUOUS
 62
    6
 10
1413.070596591213
 20
973.43079690071977
 11
1448.0705965912093
 21
938.43079690072159
  0
LINE
  8
_0-0_
  6
CONTINUOUS
 62
    6
 10
1427.2127322149427
 20
973.43079690072159
 11
1462.2127322149427
 21
938.43079690072159
  0
LINE
  8
_0-0_
  6
CONTINUOUS
 62
    6
 10
1441.3548678386724
 20
973.43079690072159
 11
1476.3548678386724
 21
938.43079690072159
  0
LINE
  8
_0-0_
  6
CONTINUOUS
 62
    6
 10
1455.4970034624057
 20
973.43079690071977
 11
1490.4970034624057
 21
938.43079690072159
  0
LINE
  8
_0-0_
  6
CONTINUOUS
 62
    6
 10
1469.6391390861354
 20
973.43079690072159
 11
1504.6391390861354
 21
938.43079690072159
  0
LINE
  8
_0-0_
  6
CONTINUOUS
 62
    6
 10
1483.7812747098687
 20
973.43079690072159
 11
1518.7812747098687
 21
938.43079690072159
  0
LINE
  8
_0-0_
  6
CONTINUOUS
 62
    6
 10
1497.9234103335984
 20
973.43079690072159
 11
1532.9234103335948
 21
938.43079690072159
  0
LINE
  8
_0-0_
  6
CONTINUOUS
 62
    6
 10
1490.6531471464732
 20
938.43079690071977
 11
1525.6531471464732
 21
973.43079690071977
  0
LINE
  8
_0-0_
  6
CONTINUOUS
 62
    6
 10
1476.5110115227471
 20
938.43079690072159
 11
1511.5110115227471
 21
973.43079690072159
  0
LINE
  8
_0-0_
  6
CONTINUOUS
 62
    6
 10
1462.3688758990138
 20
938.43079690072159
 11
1497.3688758990138
 21
973.43079690072159
  0
LINE
  8
_0-0_
  6
CONTINUOUS
 62
    6
 10
1448.2267402752805
 20
938.43079690072159
 11
1483.2267402752805
 21
973.43079690072159
  0
LINE
  8
_0-0_
  6
CONTINUOUS
 62
    6
 10
1434.0846046515508
 20
938.43079690072159
 11
1469.0846046515508
 21
973.43079690072159
  0
LINE
  8
_0-0_
  6
CONTINUOUS
 62
    6
 10
1419.9424690278211
 20
938.43079690072159
 11
1454.9424690278211
 21
973.43079690072159
  0
LINE
  8
_0-0_
  6
CONTINUOUS
 62
    6
 10
1405.8003334040877
 20
938.43079690072159
 11
1440.8003334040877
 21
973.43079690071977
  0
LINE
  8
_0-0_
  6
CONTINUOUS
 62
    6
 10
1391.6581977803617
 20
938.43079690072159
 11
1426.6581977803617
 21
973.43079690072159
  0
LINE
  8
_0-0_
  6
CONTINUOUS
 62
    6
 10
1377.5160621566283
 20
938.43079690072159
 11
1412.5160621566283
 21
973.43079690072159
  0
LINE
  8
_0-0_
  6
CONTINUOUS
 62
    6
 10
1363.373926532895
 20
938.43079690071977
 11
1398.373926532895
 21
973.43079690072159
  0
LINE
  8
_0-0_
  6
CONTINUOUS
 62
    6
 10
1349.2317909091653
 20
938.43079690072159
 11
1384.2317909091653
 21
973.43079690072159
  0
LINE
  8
_0-0_
  6
CONTINUOUS
 62
    6
 10
1335.0896552854356
 20
938.43079690072159
 11
1370.0896552854356
 21
973.43079690072159
  0
LINE
  8
_0-0_
  6
CONTINUOUS
 62
    6
 10
1320.9475196617022
 20
938.43079690072159
 11
1355.9475196617022
 21
973.43079690071977
  0
LINE
  8
_0-0_
  6
CONTINUOUS
 62
    6
 10
1306.8053840379762
 20
938.43079690072159
 11
1341.8053840379762
 21
973.43079690072159
  0
LINE
  8
_0-0_
  6
CONTINUOUS
 62
    6
 10
1292.6632484142428
 20
938.43079690072159
 11
1327.6632484142428
 21
973.43079690072159
  0
LINE
  8
_0-0_
  6
CONTINUOUS
 62
    6
 10
1278.5211127905095
 20
938.43079690071977
 11
1313.5211127905095
 21
973.43079690071977
  0
LINE
  8
_0-0_
  6
CONTINUOUS
 62
    6
 10
1277.7101508514861
 20
951.76197058542789
 11
1299.3789771667798
 21
973.43079690072159
  0
LINE
  8
_0-0_
  6
CONTINUOUS
 62
    6
 10
1277.7101508514861
 20
965.90410620915941
 11
1285.2368415430501
 21
973.43079690072159
  0
LINE
  8
_0-0_
  6
CONTINUOUS
 62
    5
 10
1297.7101508514897
 20
1055.4307969007216
 11
1297.7101508514897
 21
975.43079690072159
  0
LINE
  8
_0-0_
  6
CONTINUOUS
 62
    5
 10
1292.6497007417311
 20
1055.4307969007216
 11
1297.7101508514897
 21
1050.3703467909647
  0
LINE
  8
_0-0_
  6
CONTINUOUS
 62
    5
 10
1286.9928464922377
 20
1055.4307969007216
 11
1297.7101508514897
 21
1044.7134925414714
  0
LINE
  8
_0-0_
  6
CONTINUOUS
 62
    5
 10
1281.335992242748
 20
1055.4307969007216
 11
1297.7101508514897
 21
1039.0566382919799
  0
LINE
  8
_0-0_
  6
CONTINUOUS
 62
    5
 10
1277.7101508514897
 20
1053.3997840424884
 11
1297.7101508514897
 21
1033.3997840424884
  0
LINE
  8
_0-0_
  6
CONTINUOUS
 62
    5
 10
1277.7101508514897
 20
1047.7429297929968
 11
1297.7101508514897
 21
1027.7429297929968
  0
LINE
  8
_0-0_
  6
CONTINUOUS
 62
    5
 10
1277.7101508514897
 20
1042.0860755435053
 11
1297.7101508514897
 21
1022.0860755435053
  0
LINE
  8
_0-0_
  6
CONTINUOUS
 62
    5
 10
1277.7101508514897
 20
1036.429221294012
 11
1297.7101508514897
 21
1016.4292212940102
  0
LINE
  8
_0-0_
  6
CONTINUOUS
 62
    5
 10
1277.7101508514897
 20
1030.7723670445168
 11
1297.7101508514897
 21
1010.7723670445187
  0
LINE
  8
_0-0_
  6
CONTINUOUS
 62
    5
 10
1277.7101508514897
 20
1025.1155127950253
 11
1297.7101508514897
 21
1005.1155127950253
  0
LINE
  8
_0-0_
  6
CONTINUOUS
 62
    5
 10
1277.7101508514897
 20
1019.4586585455338
 11
1297.7101508514897
 21
999.45865854553381
  0
LINE
  8
_0-0_
  6
CONTINUOUS
 62
    5
 10
1277.7101508514897
 20
1013.8018042960423
 11
1297.7101508514897
 21
993.80180429604229
  0
LINE
  8
_0-0_
  6
CONTINUOUS
 62
    5
 10
1277.7101508514897
 20
1008.144950046549
 11
1297.7101508514897
 21
988.14495004654896
  0
LINE
  8
_0-0_
  6
CONTINUOUS
 62
    5
 10
1277.7101508514897
 20
1002.4880957970574
 11
1297.7101508514897
 21
982.48809579705744
  0
LINE
  8
_0-0_
  6
CONTINUOUS
 62
    5
 10
1277.7101508514897
 20
996.83124154756592
 11
1297.7101508514897
 21
976.83124154756592
  0
LINE
  8
_0-0_
  6
CONTINUOUS
 62
    5
 10
1277.7101508514897
 20
991.17438729807259
 11
1293.4537412488389
 21
975.43079690072159
  0
LINE
  8
_0-0_
  6
CONTINUOUS
 62
    5
 10
1277.7101508514897
 20
985.51753304857925
 11
1287.7968869993456
 21
975.43079690072159
  0
LINE
  8
_0-0_
  6
CONTINUOUS
 62
    5
 10
1277.7101508514897
 20
979.86067879908592
 11
1282.1400327498523
 21
975.43079690071977
  0
LINE
  8
_0-0_
  6
CONTINUOUS
 62
    5
 10
1297.7101508514897
 20
1055.4307969007216
 11
1277.7101508514897
 21
1055.4307969007216
  0
LINE
  8
_0-0_
  6
CONTINUOUS
 62
    7
 10
1297.7101508514897
 20
980.5186669861389
 11
1302.7980209369052
 21
975.43079690072159
  0
LINE
  8
_0-0_
  6
CONTINUOUS
 62
    7
 10
1297.7101508514897
 20
987.58973479800193
 11
1309.8690887487683
 21
975.43079690072159
  0
LINE
  8
_0-0_
  6
CONTINUOUS
 62
    7
 10
1297.7101508514897
 20
994.6608026098686
 11
1316.9401565606349
 21
975.43079690071977
  0
LINE
  8
_0-0_
  6
CONTINUOUS
 62
    5
 10
1457.7016634304164
 20
1051.9307969007216
 11
1457.7016634304164
 21
975.43079690072159
  0
LINE
  8
_0-0_
  6
CONTINUOUS
 62
    5
 10
1437.7016634304164
 20
1051.9307969007216
 11
1457.7016634304164
 21
1051.9307969007216
  0
LINE
  8
_0-0_
  6
CONTINUOUS
 62
    5
 10
1437.7016634304164
 20
975.43079690072159
 11
1437.7016634304164
 21
1051.9307969007216
  0
LINE
  8
_0-0_
  6
CONTINUOUS
 62
    5
 10
1436.7016634304164
 20
1053.4307969007216
 11
1458.7016634304164
 21
1053.4307969007216
  0
LINE
  8
_0-0_
  6
CONTINUOUS
 62
    5
 10
1436.7016634304164
 20
1052.4307969007216
 11
1436.7016634304164
 21
1053.4307969007216
  0
LINE
  8
_0-0_
  6
CONTINUOUS
 62
    5
 10
1438.7016634304164
 20
1052.4307969007216
 11
1436.7016634304164
 21
1052.4307969007216
  0
LINE
  8
_0-0_
  6
CONTINUOUS
 62
    5
 10
1438.7016634304164
 20
1051.9307969007216
 11
1438.7016634304164
 21
1052.4307969007216
  0
LINE
  8
_0-0_
  6
CONTINUOUS
 62
    5
 10
1436.7016634304164
 20
1051.9307969007216
 11
1438.7016634304164
 21
1051.9307969007216
  0
LINE
  8
_0-0_
  6
CONTINUOUS
 62
    5
 10
1436.7016634304164
 20
1040.4307969007216
 11
1436.7016634304164
 21
1051.9307969007216
  0
LINE
  8
_0-0_
  6
CONTINUOUS
 62
    5
 10
1437.2016634304164
 20
1040.4307969007216
 11
1436.7016634304164
 21
1040.4307969007216
  0
LINE
  8
_0-0_
  6
CONTINUOUS
 62
    5
 10
1436.7016634304164
 20
1039.4307969007216
 11
1437.2016634304164
 21
1040.4307969007216
  0
LINE
  8
_0-0_
  6
CONTINUOUS
 62
    5
 10
1436.7016634304164
 20
1026.4307969007216
 11
1436.7016634304164
 21
1039.4307969007216
  0
LINE
  8
_0-0_
  6
CONTINUOUS
 62
    5
 10
1437.2016634304164
 20
1026.4307969007216
 11
1436.7016634304164
 21
1026.4307969007216
  0
LINE
  8
_0-0_
  6
CONTINUOUS
 62
    5
 10
1436.7016634304164
 20
1025.4307969007216
 11
1437.2016634304164
 21
1026.4307969007216
  0
LINE
  8
_0-0_
  6
CONTINUOUS
 62
    5
 10
1435.7016634304164
 20
1025.4307969007216
 11
1436.7016634304164
 21
1025.4307969007216
  0
LINE
  8
_0-0_
  6
CONTINUOUS
 62
    5
 10
1435.7016634304164
 20
1051.9307969007216
 11
1435.7016634304164
 21
1025.4307969007216
  0
LINE
  8
_0-0_
  6
CONTINUOUS
 62
    5
 10
1435.2016634304164
 20
1051.9307969007216
 11
1435.7016634304164
 21
1051.9307969007216
  0
LINE
  8
_0-0_
  6
CONTINUOUS
 62
    5
 10
1435.2016634304164
 20
1053.9307969007216
 11
1435.2016634304164
 21
1051.9307969007216
  0
LINE
  8
_0-0_
  6
CONTINUOUS
 62
    5
 10
1460.2016634304164
 20
1053.9307969007216
 11
1435.2016634304164
 21
1053.9307969007216
  0
LINE
  8
_0-0_
  6
CONTINUOUS
 62
    5
 10
1460.2016634304164
 20
1051.9307969007216
 11
1460.2016634304164
 21
1053.9307969007216
  0
LINE
  8
_0-0_
  6
CONTINUOUS
 62
    5
 10
1459.7016634304164
 20
1051.9307969007216
 11
1460.2016634304164
 21
1051.9307969007216
  0
LINE
  8
_0-0_
  6
CONTINUOUS
 62
    5
 10
1459.7016634304164
 20
1025.4307969007216
 11
1459.7016634304164
 21
1051.9307969007216
  0
LINE
  8
_0-0_
  6
CONTINUOUS
 62
    5
 10
1458.7016634304164
 20
1025.4307969007216
 11
1459.7016634304164
 21
1025.4307969007216
  0
LINE
  8
_0-0_
  6
CONTINUOUS
 62
    5
 10
1458.2016634304164
 20
1026.4307969007216
 11
1458.7016634304164
 21
1025.4307969007216
  0
LINE
  8
_0-0_
  6
CONTINUOUS
 62
    5
 10
1458.7016634304164
 20
1026.4307969007216
 11
1458.2016634304164
 21
1026.4307969007216
  0
LINE
  8
_0-0_
  6
CONTINUOUS
 62
    5
 10
1458.7016634304164
 20
1039.4307969007216
 11
1458.7016634304164
 21
1026.4307969007216
  0
LINE
  8
_0-0_
  6
CONTINUOUS
 62
    5
 10
1458.2016634304164
 20
1040.4307969007216
 11
1458.7016634304164
 21
1039.4307969007216
  0
LINE
  8
_0-0_
  6
CONTINUOUS
 62
    5
 10
1458.7016634304164
 20
1040.4307969007216
 11
1458.2016634304164
 21
1040.4307969007216
  0
LINE
  8
_0-0_
  6
CONTINUOUS
 62
    5
 10
1458.7016634304164
 20
1051.9307969007216
 11
1458.7016634304164
 21
1040.4307969007216
  0
LINE
  8
_0-0_
  6
CONTINUOUS
 62
    5
 10
1456.7016634304164
 20
1051.9307969007216
 11
1458.7016634304164
 21
1051.9307969007216
  0
LINE
  8
_0-0_
  6
CONTINUOUS
 62
    5
 10
1456.7016634304164
 20
1052.4307969007216
 11
1456.7016634304164
 21
1051.9307969007216
  0
LINE
  8
_0-0_
  6
CONTINUOUS
 62
    5
 10
1458.7016634304164
 20
1052.4307969007216
 11
1456.7016634304164
 21
1052.4307969007216
  0
LINE
  8
_0-0_
  6
CONTINUOUS
 62
    5
 10
1458.7016634304164
 20
1053.4307969007216
 11
1458.7016634304164
 21
1052.4307969007216
  0
LINE
  8
_0-0_
  6
CONTINUOUS
 62
    5
 10
1447.7016634304164
 20
1054.9307969007216
 11
1460.2016634304164
 21
1054.9307969007216
  0
LINE
  8
_0-0_
  6
CONTINUOUS
 62
    5
 10
1435.2016634304164
 20
1054.9307969007216
 11
1447.7016634304164
 21
1054.9307969007216
  0
LINE
  8
_0-0_
  6
CONTINUOUS
 62
    5
 10
1434.7016634304164
 20
1055.4307969007216
 11
1435.2016634304164
 21
1054.9307969007216
  0
LINE
  8
_0-0_
  6
CONTINUOUS
 62
    5
 10
1433.7016634304164
 20
1055.4307969007216
 11
1434.7016634304164
 21
1055.4307969007216
  0
LINE
  8
_0-0_
  6
CONTINUOUS
 62
    5
 10
1433.7016634304164
 20
1052.4307969007216
 11
1433.7016634304164
 21
1055.4307969007216
  0
LINE
  8
_0-0_
  6
CONTINUOUS
 62
    5
 10
1434.2016634304164
 20
1052.4307969007216
 11
1433.7016634304164
 21
1052.4307969007216
  0
LINE
  8
_0-0_
  6
CONTINUOUS
 62
    5
 10
1434.2016634304164
 20
1037.4307969007216
 11
1434.2016634304164
 21
1052.4307969007216
  0
LINE
  8
_0-0_
  6
CONTINUOUS
 62
    5
 10
1433.7016634304091
 20
1037.4307969007216
 11
1434.2016634304164
 21
1037.4307969007216
  0
LINE
  8
_0-0_
  6
CONTINUOUS
 62
    5
 10
1433.7016634304164
 20
1035.4307969007216
 11
1433.7016634304091
 21
1037.4307969007216
  0
LINE
  8
_0-0_
  6
CONTINUOUS
 62
    5
 10
1435.2016634304164
 20
1035.4307969007216
 11
1433.7016634304164
 21
1035.4307969007216
  0
LINE
  8
_0-0_
  6
CONTINUOUS
 62
    5
 10
1435.2016634304164
 20
1053.9307969007216
 11
1435.2016634304164
 21
1035.4307969007216
  0
LINE
  8
_0-0_
  6
CONTINUOUS
 62
    5
 10
1460.2016634304164
 20
1053.9307969007216
 11
1435.2016634304164
 21
1053.9307969007216
  0
LINE
  8
_0-0_
  6
CONTINUOUS
 62
    5
 10
1460.2016634304164
 20
1035.4307969007216
 11
1460.2016634304164
 21
1053.9307969007216
  0
LINE
  8
_0-0_
  6
CONTINUOUS
 62
    5
 10
1461.7016634304164
 20
1035.4307969007216
 11
1460.2016634304164
 21
1035.4307969007216
  0
LINE
  8
_0-0_
  6
CONTINUOUS
 62
    5
 10
1461.70166343042
 20
1037.4307969007216
 11
1461.7016634304164
 21
1035.4307969007216
  0
LINE
  8
_0-0_
  6
CONTINUOUS
 62
    5
 10
1461.2016634304164
 20
1037.4307969007216
 11
1461.70166343042
 21
1037.4307969007216
  0
LINE
  8
_0-0_
  6
CONTINUOUS
 62
    5
 10
1461.2016634304164
 20
1052.4307969007216
 11
1461.2016634304164
 21
1037.4307969007216
  0
LINE
  8
_0-0_
  6
CONTINUOUS
 62
    5
 10
1461.7016634304164
 20
1052.4307969007216
 11
1461.2016634304164
 21
1052.4307969007216
  0
LINE
  8
_0-0_
  6
CONTINUOUS
 62
    5
 10
1461.7016634304164
 20
1055.4307969007216
 11
1461.7016634304164
 21
1052.4307969007216
  0
LINE
  8
_0-0_
  6
CONTINUOUS
 62
    5
 10
1460.7016634304164
 20
1055.4307969007216
 11
1461.7016634304164
 21
1055.4307969007216
  0
LINE
  8
_0-0_
  6
CONTINUOUS
 62
    5
 10
1460.2016634304164
 20
1054.9307969007216
 11
1460.7016634304164
 21
1055.4307969007216
  0
LINE
  8
_0-0_
  6
CONTINUOUS
 62
    5
 10
1440.9157485290234
 20
975.43079690072159
 11
1440.9157485290234
 21
1051.9307969007216
  0
LINE
  8
_0-0_
  6
CONTINUOUS
 62
    5
 10
1444.6657485290234
 20
975.43079690072159
 11
1444.6657485290234
 21
1051.9307969007216
  0
LINE
  8
_0-0_
  6
CONTINUOUS
 62
    5
 10
1448.4157485290234
 20
975.43079690072159
 11
1448.4157485290234
 21
1051.9307969007216
  0
LINE
  8
_0-0_
  6
CONTINUOUS
 62
    5
 10
1452.1657485290234
 20
975.43079690072159
 11
1452.1657485290234
 21
1051.9307969007216
  0
LINE
  8
_0-0_
  6
CONTINUOUS
 62
    5
 10
1455.9157485290234
 20
975.43079690072159
 11
1455.9157485290234
 21
1051.9307969007216
  0
LINE
  8
_0-0_
  6
CONTINUOUS
 62
    7
 10
1433.7016634304164
 20
1055.4307969007216
 11
1277.7101508514897
 21
1055.4307969007216
  0
LINE
  8
_0-0_
  6
CONTINUOUS
 62
    7
 10
1444.7596138356475
 20
1043.7317709950232
 11
1522.4466302676956
 21
1178.2896305437691
  0
POINT
  8
_0-0_
 62
    7
 10
1444.7596138356475
 20
1043.7317709950232
  0
TEXT
  8
_0-0_
 62
    7
 10
1524.7788803326075
 20
1164.2671217942418
 40
30
 41
1
 50
0
  1
伸縮目地
  0
POINT
  8
_0-0_
 62
    7
 10
1285.7339829492867
 20
1048.7962815328076
  0
POINT
  8
_0-0_
 62
    7
 10
1533.1415198514915
 20
823.43079690072159
  0
LINE
  8
_0-0_
  6
CONTINUOUS
 62
    7
 10
1461.7016634304164
 20
1055.4307969007216
 11
1533.1415198514915
 21
1055.4307969007216
  0
LINE
  8
_0-0_
  6
CONTINUOUS
 62
    6
 10
1533.0795540176659
 20
938.43079690072159
 11
1533.1415198514915
 21
938.49276273454711
  0
LINE
  8
_0-0_
  6
CONTINUOUS
 62
    6
 10
1512.0655459573281
 20
973.43079690072159
 11
1533.1415198514915
 21
952.35482300655826
  0
LINE
  8
_0-0_
  6
CONTINUOUS
 62
    6
 10
1526.2076815810578
 20
973.43079690072159
 11
1533.1415198514915
 21
966.49695863028796
  0
LINE
  8
_0-0_
  6
CONTINUOUS
 62
    6
 10
1518.9374183939362
 20
938.43079690072159
 11
1533.1415198514915
 21
952.63489835827681
  0
LINE
  8
_0-0_
  6
CONTINUOUS
 62
    6
 10
1504.7952827702065
 20
938.43079690072159
 11
1533.1415198514915
 21
966.77703398200651
  0
LINE
  8
_0-0_
  6
CONTINUOUS
 62
    7
 10
1533.1415198514915
 20
973.43079690072159
 11
1277.7101508514897
 21
973.43079690072159
  0
LINE
  8
_0-0_
  6
CONTINUOUS
 62
    6
 10
1277.7101508514897
 20
973.43079690072159
 11
1533.1415198514915
 21
973.43079690072159
  0
LINE
  8
_0-0_
  6
CONTINUOUS
 62
    5
 10
1277.7101508514897
 20
974.43079690071977
 11
1533.1415198514915
 21
974.43079690071977
  0
LINE
  8
_0-0_
  6
CONTINUOUS
 62
    7
 10
1277.7101508514897
 20
975.43079690071977
 11
1533.1415198514915
 21
975.43079690071977
  0
LINE
  8
_0-0_
  6
CONTINUOUS
 62
    7
 10
1477.3564621640617
 20
1055.4307969007216
 11
1533.1415198514915
 21
999.64573921328997
  0
LINE
  8
_0-0_
  6
CONTINUOUS
 62
    7
 10
1484.4275299759247
 20
1055.4307969007216
 11
1533.1415198514915
 21
1006.7168070251548
  0
LINE
  8
_0-0_
  6
CONTINUOUS
 62
    7
 10
1491.4985977877914
 20
1055.4307969007216
 11
1533.1415198514915
 21
1013.7878748370233
  0
LINE
  8
_0-0_
  6
CONTINUOUS
 62
    4
 10
1277.7101508514897
 20
937.43079690072159
 11
1533.1415198514915
 21
937.43079690072159
  0
LINE
  8
_0-0_
  6
CONTINUOUS
 62
    6
 10
1277.7101508514897
 20
938.43079690072159
 11
1533.1415198514915
 21
938.43079690072159
  0
LINE
  8
_0-0_
  6
CONTINUOUS
 62
    7
 10
1285.7339829492867
 20
1048.7962815328076
 11
1312.1051207483379
 21
1094.4724320541638
  0
TEXT
  8
_0-0_
 62
    7
 10
1305.6622122218796
 20
1096.4704027865384
 40
30
 41
1
 50
0
  1
成型緩衝材
  0
POINT
  8
_0-0_
 62
    7
 10
1454.6794431546841
 20
956.1886647015192
  0
LINE
  8
_0-0_
  6
CONTINUOUS
 62
    7
 10
1479.9094928109698
 20
933.8868107244482
 11
1558.4554991511886
 21
1069.9324844373325
  0
POINT
  8
_0-0_
 62
    7
 10
1479.9094928109698
 20
933.8868107244482
  0
TEXT
  8
_0-0_
 62
    7
 10
1559.1147857732758
 20
1061.3135079420438
 40
30
 41
1
 50
0
  1
防水層
  0
TEXT
  8
_0-0_
 62
    7
 10
1550.6051261988141
 20
1111.4986797914401
 40
30
 41
1
 50
0
  1
断熱材
  0
LINE
  8
_0-0_
  6
CONTINUOUS
 62
    7
 10
1454.6794431546841
 20
956.1886647015192
 11
1549.0367564796343
 21
1119.6203254460281
  0
LINE
  8
_0-0_
  6
CONTINUOUS
 62
    7
 10
1608.5084438513586
 20
503.74176064292374
 11
1257.5275405487737
 21
503.74176064292374
  0
LINE
  8
_0-0_
  6
CONTINUOUS
 62
    6
 10
1257.5275405487737
 20
319.24176064292374
 11
1257.5275405487737
 21
240.49176064292374
  0
LINE
  8
_0-0_
  6
CONTINUOUS
 62
    6
 10
1257.5275405487737
 20
241.96510171656632
 11
1259.000881622409
 21
240.49176064292374
  0
LINE
  8
_0-0_
  6
CONTINUOUS
 62
    6
 10
1257.5275405487646
 20
273.7849068699627
 11
1290.8206867758072
 21
240.4917606429201
  0
LINE
  8
_0-0_
  6
CONTINUOUS
 62
    6
 10
1257.5275405487737
 20
305.60471202335361
 11
1322.6404919291999
 21
240.49176064292374
  0
LINE
  8
_0-0_
  6
CONTINUOUS
 62
    6
 10
1275.7102970825999
 20
319.2417606429201
 11
1354.4602970825999
 21
240.4917606429201
  0
LINE
  8
_0-0_
  6
CONTINUOUS
 62
    6
 10
1307.5301022359909
 20
319.2417606429201
 11
1386.2801022359909
 21
240.4917606429201
  0
LINE
  8
_0-0_
  6
CONTINUOUS
 62
    6
 10
1339.3499073893927
 20
319.24176064292374
 11
1418.0999073893927
 21
240.49176064292374
  0
LINE
  8
_0-0_
  6
CONTINUOUS
 62
    6
 10
1371.1697125427836
 20
319.2417606429201
 11
1449.9197125427763
 21
240.49176064292374
  0
LINE
  8
_0-0_
  6
CONTINUOUS
 62
    6
 10
1402.9895176961745
 20
319.2417606429201
 11
1481.7395176961745
 21
240.4917606429201
  0
LINE
  8
_0-0_
  6
CONTINUOUS
 62
    6
 10
1434.8093228495673
 20
319.24176064292374
 11
1513.5593228495673
 21
240.49176064292374
  0
LINE
  8
_0-0_
  6
CONTINUOUS
 62
    6
 10
1466.6291280029673
 20
319.2417606429201
 11
1545.3791280029673
 21
240.4917606429201
  0
LINE
  8
_0-0_
  6
CONTINUOUS
 62
    6
 10
1498.4489331563582
 20
319.2417606429201
 11
1577.1989331563582
 21
240.4917606429201
  0
LINE
  8
_0-0_
  6
CONTINUOUS
 62
    6
 10
1513.9106461387364
 20
240.49176064292374
 11
1592.6606461387364
 21
319.24176064292374
  0
LINE
  8
_0-0_
  6
CONTINUOUS
 62
    6
 10
1482.0908409853346
 20
240.49176064292374
 11
1560.8408409853346
 21
319.24176064292374
  0
LINE
  8
_0-0_
  6
CONTINUOUS
 62
    6
 10
1450.2710358319364
 20
240.4917606429201
 11
1529.0210358319364
 21
319.24176064292374
  0
LINE
  8
_0-0_
  6
CONTINUOUS
 62
    6
 10
1418.4512306785437
 20
240.49176064292374
 11
1497.2012306785437
 21
319.24176064292374
  0
LINE
  8
_0-0_
  6
CONTINUOUS
 62
    6
 10
1386.6314255251509
 20
240.49176064292374
 11
1465.3814255251509
 21
319.24176064292374
  0
LINE
  8
_0-0_
  6
CONTINUOUS
 62
    6
 10
1354.8116203717527
 20
240.49176064292374
 11
1433.5616203717527
 21
319.2417606429201
  0
LINE
  8
_0-0_
  6
CONTINUOUS
 62
    6
 10
1322.9918152183691
 20
240.49176064292374
 11
1401.7418152183691
 21
319.24176064292374
  0
LINE
  8
_0-0_
  6
CONTINUOUS
 62
    6
 10
1291.1720100649673
 20
240.49176064292374
 11
1369.9220100649673
 21
319.24176064292374
  0
LINE
  8
_0-0_
  6
CONTINUOUS
 62
    6
 10
1259.3522049115691
 20
240.4917606429201
 11
1338.1022049115691
 21
319.2417606429201
  0
LINE
  8
_0-0_
  6
CONTINUOUS
 62
    6
 10
1257.5275405487646
 20
270.48690143351382
 11
1306.2823997581763
 21
319.24176064292374
  0
LINE
  8
_0-0_
  6
CONTINUOUS
 62
    6
 10
1257.5275405487646
 20
302.30670658690838
 11
1274.4625946047836
 21
319.24176064292374
  0
LINE
  8
_0-0_
  6
CONTINUOUS
 62
    5
 10
1302.5275405487737
 20
503.74176064292374
 11
1302.5275405487737
 21
323.74176064292374
  0
LINE
  8
_0-0_
  6
CONTINUOUS
 62
    5
 10
1291.1415278018158
 20
503.74176064292374
 11
1302.5275405487737
 21
492.35574789597126
  0
LINE
  8
_0-0_
  6
CONTINUOUS
 62
    5
 10
1278.4136057404558
 20
503.74176064292192
 11
1302.5275405487737
 21
479.62782583461126
  0
LINE
  8
_0-0_
  6
CONTINUOUS
 62
    5
 10
1265.6856836791048
 20
503.74176064292374
 11
1302.5275405487737
 21
466.89990377325307
  0
LINE
  8
_0-0_
  6
CONTINUOUS
 62
    5
 10
1257.5275405487737
 20
499.17198171190034
 11
1302.5275405487737
 21
454.17198171190034
  0
LINE
  8
_0-0_
  6
CONTINUOUS
 62
    5
 10
1257.5275405487737
 20
486.44405965054398
 11
1302.5275405487737
 21
441.44405965054398
  0
LINE
  8
_0-0_
  6
CONTINUOUS
 62
    5
 10
1257.5275405487737
 20
473.71613758918761
 11
1302.5275405487737
 21
428.71613758918761
  0
LINE
  8
_0-0_
  6
CONTINUOUS
 62
    5
 10
1257.5275405487737
 20
460.98821552782761
 11
1302.5275405487737
 21
415.98821552782397
  0
LINE
  8
_0-0_
  6
CONTINUOUS
 62
    5
 10
1257.5275405487737
 20
448.26029346646578
 11
1302.5275405487737
 21
403.2602934664676
  0
LINE
  8
_0-0_
  6
CONTINUOUS
 62
    5
 10
1257.5275405487737
 20
435.5323714051076
 11
1302.5275405487737
 21
390.5323714051076
  0
LINE
  8
_0-0_
  6
CONTINUOUS
 62
    5
 10
1257.5275405487737
 20
422.80444934374941
 11
1302.5275405487737
 21
377.80444934375123
  0
LINE
  8
_0-0_
  6
CONTINUOUS
 62
    5
 10
1257.5275405487737
 20
410.07652728239486
 11
1302.5275405487737
 21
365.07652728239668
  0
LINE
  8
_0-0_
  6
CONTINUOUS
 62
    5
 10
1257.5275405487737
 20
397.34860522103486
 11
1302.5275405487737
 21
352.34860522103668
  0
LINE
  8
_0-0_
  6
CONTINUOUS
 62
    5
 10
1257.5275405487737
 20
384.62068315968031
 11
1302.5275405487737
 21
339.62068315968031
  0
LINE
  8
_0-0_
  6
CONTINUOUS
 62
    5
 10
1257.5275405487737
 20
371.89276109832394
 11
1302.5275405487737
 21
326.89276109832394
  0
LINE
  8
_0-0_
  6
CONTINUOUS
 62
    5
 10
1257.5275405487737
 20
359.16483903696394
 11
1292.9506189428084
 21
323.74176064292374
  0
LINE
  8
_0-0_
  6
CONTINUOUS
 62
    5
 10
1257.5275405487737
 20
346.43691697560394
 11
1280.2226968814484
 21
323.74176064292374
  0
LINE
  8
_0-0_
  6
CONTINUOUS
 62
    5
 10
1257.5275405487737
 20
333.70899491424393
 11
1267.4947748200884
 21
323.7417606429201
  0
LINE
  8
_0-0_
  6
CONTINUOUS
 62
    5
 10
1302.5275405487737
 20
503.74176064292374
 11
1257.5275405487737
 21
503.74176064292374
  0
LINE
  8
_0-0_
  6
CONTINUOUS
 62
    7
 10
1244.0275405487737
 20
217.99176064292374
 11
1244.0275405487737
 21
523.74176064292374
  0
LINE
  8
_0-0_
  6
CONTINUOUS
 62
    4
 10
1257.5275405487737
 20
523.74176064292374
 11
1257.5275405487737
 21
238.24176064292374
  0
LINE
  8
_0-0_
  6
CONTINUOUS
 62
    7
 10
1204.0275405487737
 20
418.61132485434177
 11
1244.0275405487737
 21
458.61132485434177
  0
LINE
  8
_0-0_
  6
CONTINUOUS
 62
    7
 10
1204.0275405487737
 20
402.70142227764268
 11
1244.0275405487737
 21
442.70142227764268
  0
LINE
  8
_0-0_
  6
CONTINUOUS
 62
    7
 10
1204.0275405487737
 20
386.7915197009454
 11
1244.0275405487737
 21
426.7915197009454
  0
LINE
  8
_0-0_
  6
CONTINUOUS
 62
    7
 10
1472.5248587916685
 20
177.99176064292374
 11
1512.5248587916703
 21
217.99176064292556
  0
LINE
  8
_0-0_
  6
CONTINUOUS
 62
    7
 10
1488.4347613683676
 20
177.99176064292374
 11
1528.4347613683676
 21
217.99176064292374
  0
LINE
  8
_0-0_
  6
CONTINUOUS
 62
    7
 10
1504.3446639450667
 20
177.99176064292374
 11
1544.3446639450667
 21
217.99176064292374
  0
LINE
  8
_0-0_
  6
CONTINUOUS
 62
    7
 10
1302.5275405487737
 20
458.88185645243107
 11
1437.6676363582847
 21
323.7417606429201
  0
LINE
  8
_0-0_
  6
CONTINUOUS
 62
    7
 10
1302.52754054877
 20
474.79175902913198
 11
1453.5775389349837
 21
323.74176064291828
  0
LINE
  8
_0-0_
  6
CONTINUOUS
 62
    7
 10
1302.5275405487737
 20
490.70166160582562
 11
1469.4874415116792
 21
323.7417606429201
  0
LINE
  8
_0-0_
  6
CONTINUOUS
 62
    7
 10
1244.0275405487737
 20
217.99176064292374
 11
1608.5084438513586
 21
217.99176064292374
  0
LINE
  8
_0-0_
  6
CONTINUOUS
 62
    6
 10
1562.0885434631509
 20
319.2417606429201
 11
1608.5084438513586
 21
272.8218602547106
  0
LINE
  8
_0-0_
  6
CONTINUOUS
 62
    6
 10
1577.5502564455182
 20
240.49176064292374
 11
1608.5084438513586
 21
271.4499480487641
  0
LINE
  8
_0-0_
  6
CONTINUOUS
 62
    6
 10
1257.5275405487737
 20
240.49176064292374
 11
1608.5084438513586
 21
240.49176064292374
  0
LINE
  8
_0-0_
  6
CONTINUOUS
 62
    6
 10
1530.26873830976
 20
319.24176064292374
 11
1608.5084438513586
 21
241.00205510132514
  0
LINE
  8
_0-0_
  6
CONTINUOUS
 62
    4
 10
1257.5275405487737
 20
238.24176064292374
 11
1608.5084438513586
 21
238.24176064292374
  0
LINE
  8
_0-0_
  6
CONTINUOUS
 62
    6
 10
1545.7304512921201
 20
240.49176064292374
 11
1608.5084438513586
 21
303.26975320215865
  0
LINE
  8
_0-0_
  6
CONTINUOUS
 62
    6
 10
1593.9083486165418
 20
319.24176064292374
 11
1608.5084438513586
 21
304.64166540810697
  0
LINE
  8
_0-0_
  6
CONTINUOUS
 62
    6
 10
1257.5275405487737
 20
319.24176064292374
 11
1608.5084438513586
 21
319.24176064292374
  0
LINE
  8
_0-0_
  6
CONTINUOUS
 62
    5
 10
1257.5275405487737
 20
321.4917606429201
 11
1608.5084438513586
 21
321.4917606429201
  0
LINE
  8
_0-0_
  6
CONTINUOUS
 62
    7
 10
1257.5275405487737
 20
323.7417606429201
 11
1608.5084438513586
 21
323.7417606429201
  0
LINE
  8
_0-0_
  6
CONTINUOUS
 62
    7
 10
1583.0107625970813
 20
217.99176064292374
 11
1625.8088725403541
 21
292.12026153259035
  0
POINT
  8
_0-0_
 62
    7
 10
1583.0107625970813
 20
217.99176064292374
  0
TEXT
  8
_0-0_
 62
    7
 10
1628.4274829595179
 20
283.86735272399278
 40
21.617968000000001
 41
1
 50
0
  1
ﾌﾟﾗｲﾏｰ
  0
LINE
  8
_0-0_
  6
CONTINUOUS
 62
    7
 10
1519.8516291843498
 20
239.46503554247761
 11
1589.0537512927331
 21
359.32662702578386
  0
POINT
  8
_0-0_
 62
    7
 10
1519.8516291843498
 20
239.46503554247761
  0
TEXT
  8
_0-0_
 62
    7
 10
1593.1663655452157
 20
352.60506079072661
 40
21.617968000000001
 41
1
 50
0
  1
ｳﾚﾀﾝ防水
  0
LINE
  8
_0-0_
  6
CONTINUOUS
 62
    7
 10
1487.7454793779543
 20
321.4917606429201
 11
1533.5388311815295
 21
400.80817261558991
  0
POINT
  8
_0-0_
 62
    7
 10
1487.7454793779543
 20
321.4917606429201
  0
TEXT
  8
_0-0_
 62
    7
 10
1535.9780930053512
 20
391.75721702861415
 40
21.617968000000001
 41
1
 50
0
  1
絶縁ﾌｨﾙﾑ
  0
LINE
  8
_0-0_
  6
CONTINUOUS
 62
    7
 10
1466.6517202869891
 20
434.83499409035107
 11
1516.6443052467148
 21
521.42469124229979
  0
POINT
  8
_0-0_
 62
    7
 10
1466.6517202869891
 20
434.83499409035107
  0
TEXT
  8
_0-0_
 62
    7
 10
1520.5269549282257
 20
511.67344349670498
 40
21.617968000000001
 41
1
 50
0
  1
保護ｺﾝｸﾘｰﾄ
  0
TEXT
  8
_0-0_
 62
    7
 10
1368.6164572512971
 20
509.90704236092574
 40
21.617968000000001
 41
1
 50
0
  1
成型緩衝材
  0
LINE
  8
_0-0_
  6
CONTINUOUS
 62
    7
 10
1367.5298017755176
 20
519.57068169556737
 11
1294.4605371966591
 21
393.01100297329072
  0
POINT
  8
_0-0_
 62
    7
 10
1294.4605371966591
 20
393.01100297329072
  0
LINE
  8
_0-0_
  6
CONTINUOUS
 62
    7
 10
1257.5275405487737
 20
514.86204633399507
 11
1271.256080723284
 21
538.64057542999694
  0
TEXT
  8
_0-0_
 62
    7
 10
1270.8998556503011
 20
538.70865610497935
 40
21.617968000000001
 41
1
 50
0
  1
ﾄｯﾌﾟｺｰﾄ(露出部のみ)
  0
POINT
  8
_0-0_
 62
    7
 10
1257.5275405487737
 20
514.86204633399507
  0
LINE
  8
_0-0_
  6
CONTINUOUS
 62
    7
 10
672.13606690525205
 20
1633.3565543671114
 11
1706.8525777203686
 21
1633.3565543671114
  0
LINE
  8
_0-0_
  6
CONTINUOUS
 62
    7
 10
672.13606690525205
 20
1553.3565543671114
 11
1706.8525777203686
 21
1553.3565543671114
  0
LINE
  8
_0-0_
  6
CONTINUOUS
 62
    7
 10
672.13606690525205
 20
1473.3565543671114
 11
1706.8525777203686
 21
1473.3565543671114
  0
LINE
  8
_0-0_
  6
CONTINUOUS
 62
    7
 10
1189.4943223128103
 20
1633.3565543671114
 11
1189.4943223128103
 21
1473.3565543671114
  0
TEXT
  8
_0-0_
 62
    7
 10
1213.4943223128103
 20
1577.3565543671114
 40
20
 41
1
 50
0
  1
構造：ＲＣ造
  0
TEXT
  8
_0-0_
 62
    7
 10
1213.4943223128103
 20
1497.3565543671114
 40
20
 41
1
 50
0
  1
下地：コンクリートスラブ
  0
TEXT
  8
_0-0_
 62
    7
 10
696.13606690525194
 20
1577.3565543671114
 40
20
 41
1
 50
0
  1
図面番号：UPM-10CF-sash-01
  0
TEXT
  8
_0-0_
 62
    7
 10
696.13606690525194
 20
1497.3565543671114
 40
20
 41
1
 50
0
  1
施工部位：サッシ廻り
  0
ENDSEC
  0
EOF
