  0
SECTION
  2
HEADER
  9
$ACADVER
  1
AC1009
  9
$INSBASE
 10
0
 20
0
 30
0
  9
$EXTMIN
 10
0
 20
0
  9
$EXTMAX
 10
2378
 20
1682
  9
$LIMMIN
 10
0
 20
0
  9
$LIMMAX
 10
2378
 20
1682
  9
$LTSCALE
 40
1
  0
ENDSEC
  0
SECTION
  2
TABLES
  0
TABLE
  2
LTYPE
 70
     9
  0
LTYPE
  2
CONTINUOUS
 70
    64
  3
実線
 72
    65
 73
     0
 40
0.0
  0
LTYPE
  2
DASHED1
 70
    64
  3
--  --  --  --  --  --  --  --  
 72
    65
 73
     2
 40
2.5
 49
1.25
 49
-1.25
  0
LTYPE
  2
DASHED2
 70
    64
  3
----    ----    ----    ----    
 72
    65
 73
     2
 40
5.0
 49
2.5
 49
-2.5
  0
LTYPE
  2
DASHED3
 70
    64
  3
------  ------  ------  ------  
 72
    65
 73
     2
 40
5.0
 49
3.75
 49
-1.25
  0
LTYPE
  2
CENTER1
 70
    64
  3
----- - ----- - ----- - ----- - 
 72
    65
 73
     4
 40
10.0
 49
6.25
 49
-1.25
 49
1.25
 49
-1.25
  0
LTYPE
  2
CENTER2
 70
    64
  3
----------  --  ----------  --  
 72
    65
 73
     4
 40
20.0
 49
12.5
 49
-2.5
 49
2.5
 49
-2.5
  0
LTYPE
  2
PHANTOM1
 70
    64
  3
--- - - --- - - --- - - --- - - 
 72
    65
 73
     6
 40
10.0
 49
3.25
 49
-1.25
 49
1.25
 49
-1.25
 49
1.25
 49
-1.25
  0
LTYPE
  2
PHANTOM2
 70
    64
  3
--------  -  -  --------  -  -  
 72
    65
 73
     6
 40
20.0
 49
10.0
 49
-2.5
 49
1.25
 49
-2.5
 49
1.25
 49
-2.5
  0
LTYPE
  2
DOT
 70
    64
  3
-   -   -   -   -   -   -   -   
 72
    65
 73
     2
 40
2.5
 49
0.625
 49
-1.875
  0
LTYPE
  2
DUMMY
 70
    64
  3
ダミー
 72
    65
 73
     0
 40
0.0
  0
LTYPE
  2
RAND1
 70
    64
  3
ランダム線1
 72
    65
 73
     4
 40
10.0
 49
1.0
 49
-2.0
 49
3.0
 49
-4.0
  0
LTYPE
  2
RAND2
 70
    64
  3
ランダム線2
 72
    65
 73
     4
 40
14.0
 49
2.0
 49
-3.0
 49
4.0
 49
-5.0
  0
LTYPE
  2
RAND3
 70
    64
  3
ランダム線3
 72
    65
 73
     4
 40
18.0
 49
3.0
 49
-4.0
 49
5.0
 49
-6.0
  0
LTYPE
  2
RAND4
 70
    64
  3
ランダム線4
 72
    65
 73
     4
 40
22.0
 49
4.0
 49
-5.0
 49
6.0
 49
-7.0
  0
LTYPE
  2
RAND5
 70
    64
  3
ランダム線5
 72
    65
 73
     4
 40
26.0
 49
5.0
 49
-6.0
 49
7.0
 49
-8.0
  0
LTYPE
  2
LONG1
 70
    64
  3
----------  --  ----------  --  
 72
    65
 73
     4
 40
40.0
 49
32.5
 49
-2.5
 49
2.5
 49
-2.5
  0
LTYPE
  2
LONG2
 70
    64
  3
--------  -  -  --------  -  -  
 72
    65
 73
     6
 40
40.0
 49
30.0
 49
-2.5
 49
1.25
 49
-2.5
 49
1.25
 49
-2.5
  0
LTYPE
  2
LONG3
 70
    64
  3
+++++++++++++++..+++++++++++++++
 72
    65
 73
     2
 40
40.0
 49
37.5
 49
-2.5
  0
LTYPE
  2
LONG4
 70
    64
  3
+++++++++++++++..+++++++++++++++
 72
    65
 73
     2
 40
80.0
 49
75.0
 49
-5.0
  0
LTYPE
  2
LONG5
 70
    64
  3
----------  --  ----------  --  
 72
    65
 73
     4
 40
60.0
 49
37.5
 49
-7.5
 49
7.5
 49
-7.5
  0
LTYPE
  2
dashed
 70
   64
  3
-------   -------------   ------
 72
   65
 73
    2
 40
7.5
 49
6
 49
-1.5
  0
LTYPE
  2
dashed_spaced
 70
   64
  3
----        --------        ----
 72
   65
 73
    2
 40
12
 49
6
 49
-6
  0
LTYPE
  2
long_dashed_dotted
 70
   64
  3
------------- --- --------------
 72
   65
 73
    4
 40
15.25
 49
12
 49
-1.5
 49
0.25
 49
-1.5
  0
LTYPE
  2
long_dashed_double-dotted
 70
   64
  3
----------- --- --- ------------
 72
   65
 73
    6
 40
17
 49
12
 49
-1.5
 49
0.25
 49
-1.5
 49
0.25
 49
-1.5
  0
LTYPE
  2
long_dashed_triplicate-dotted
 70
   64
  3
--------- --- --- --- ----------
 72
   65
 73
    8
 40
18.75
 49
12
 49
-1.5
 49
0.25
 49
-1.5
 49
0.25
 49
-1.5
 49
0.25
 49
-1.5
  0
LTYPE
  2
dotted
 70
   64
  3
   -       -       -       -    
 72
   65
 73
    2
 40
1.75
 49
0.25
 49
-1.5
  0
LTYPE
  2
chain
 70
   64
  3
-------------- -- --------------
 72
   65
 73
    4
 40
18.5
 49
12
 49
-1.5
 49
3.5
 49
-1.5
  0
LTYPE
  2
chain_double_dash
 70
   64
  3
------------ -- -- -------------
 72
   65
 73
    6
 40
23.5
 49
12
 49
-1.5
 49
3.5
 49
-1.5
 49
3.5
 49
-1.5
  0
LTYPE
  2
dashed_dotted
 70
   64
  3
-----------     -     ----------
 72
   65
 73
    4
 40
9.25
 49
6
 49
-1.5
 49
0.25
 49
-1.5
  0
LTYPE
  2
double-dashed_dotted
 70
   64
  3
------   -----------   -   -----
 72
   65
 73
    6
 40
16.75
 49
6
 49
-1.5
 49
6
 49
-1.5
 49
0.25
 49
-1.5
  0
LTYPE
  2
dashed_double-dotted
 70
   64
  3
---------    -    -    ---------
 72
   65
 73
    6
 40
11
 49
6
 49
-1.5
 49
0.25
 49
-1.5
 49
0.25
 49
-1.5
  0
LTYPE
  2
double-dashed_double-dotted
 70
   64
  3
-----   ---------   -   -   ----
 72
   65
 73
    8
 40
18.5
 49
6
 49
-1.5
 49
6
 49
-1.5
 49
0.25
 49
-1.5
 49
0.25
 49
-1.5
  0
LTYPE
  2
dashed_triplicate-dotted
 70
   64
  3
-------    -    -    -    ------
 72
   65
 73
    8
 40
12.75
 49
6
 49
-1.5
 49
0.25
 49
-1.5
 49
0.25
 49
-1.5
 49
0.25
 49
-1.5
  0
LTYPE
  2
double-dashed_triplicate-dotted
 70
   64
  3
-----  ---------  -  -  -  -----
 72
   65
 73
   10
 40
20.25
 49
6
 49
-1.5
 49
6
 49
-1.5
 49
0.25
 49
-1.5
 49
0.25
 49
-1.5
 49
0.25
 49
-1.5
  0
LTYPE
  2
undefined
 70
   64
  3
--------------------------------
 72
   65
 73
    0
 40
0
  0
ENDTAB
  0
TABLE
  2
STYLE
  5
3
100
AcDbSymbolTable
 70
     1
  0
STYLE
  5
10
100
AcDbSymbolTableRecord
100
AcDbTextStyleTableRecord
  2
STANDARD
 70
     0
 40
0.0
 41
1.0
 50
0.0
 71
     0
 42
0.2
  3
txt
  4
bigfont.shx
  0
STYLE
  5
26
100
AcDbSymbolTableRecord
100
AcDbTextStyleTableRecord
  2
TATEGAKI
 70
    68
 40
0.0
 41
1.0
 50
0.0
 71
     0
 42
1.0
  3
txt
  4
bigfont.shx
  0
ENDTAB
  0
TABLE
  2
LAYER
 70
    2
  0
LAYER
  2
_0-0_
 70
   64
 62
    7
  6
CONTINUOUS
  0
LAYER
  2
ADD_LINE
 70
   64
 62
    7
  6
CONTINUOUS
  0
ENDTAB
  0
ENDSEC
  0
SECTION
  2
BLOCKS
  0
ENDSEC
  0
SECTION
  2
ENTITIES
  0
ARC
  8
_0-0_
  6
CONTINUOUS
 62
    7
 10
1072.9518364040596
 20
1207.3279057056272
 40
10
 50
0
 51
180
  0
TEXT
  8
_0-0_
 62
    7
 10
1429.6891920142079
 20
576.02721287347708
 40
40
 41
1
 50
0
  1
Ｂ
  0
TEXT
  8
_0-0_
 62
    7
 10
906.73245032900388
 20
575.6797341210106
 40
40
 41
1
 50
0
  1
Ａ
  0
LINE
  8
_0-0_
  6
CONTINUOUS
 62
    7
 10
873.9254991561121
 20
1020.2671375299317
 11
1023.9254991561121
 21
1170.2671375299317
  0
LINE
  8
_0-0_
  6
CONTINUOUS
 62
    7
 10
873.9254991561121
 20
1013.196069718065
 11
1023.9254991561139
 21
1163.1960697180668
  0
LINE
  8
_0-0_
  6
CONTINUOUS
 62
    7
 10
873.92549915611391
 20
1006.125001906202
 11
1023.9254991561121
 21
1156.125001906202
  0
LINE
  8
_0-0_
  6
CONTINUOUS
 62
    7
 10
1706.8525777203668
 20
1633.3565543671132
 11
1706.8525777203668
 21
167.53106997205509
  0
LINE
  8
_0-0_
  6
CONTINUOUS
 62
    7
 10
672.13606690525205
 20
1633.3565543671132
 11
672.13606690525205
 21
167.53106997205509
  0
LINE
  8
_0-0_
  6
CONTINUOUS
 62
    7
 10
1189.4943223128103
 20
627.53106997205509
 11
1189.4943223128103
 21
167.53106997205509
  0
LINE
  8
_0-0_
  6
CONTINUOUS
 62
    7
 10
672.13606690525205
 20
627.53106997205509
 11
1706.8525777203668
 21
627.53106997205509
  0
LINE
  8
_0-0_
  6
CONTINUOUS
 62
    7
 10
672.13606690525205
 20
167.53106997205509
 11
1706.8525777203668
 21
167.53106997205509
  0
LINE
  8
_0-0_
  6
CONTINUOUS
 62
    7
 10
672.13606690525205
 20
567.53106997205509
 11
1706.8525777203668
 21
567.53106997205509
  0
LINE
  8
_0-0_
  6
DASHED1
 62
    7
 10
916.74017122517046
 20
1227.3279057056272
 11
916.74017122517046
 21
1187.3279057056272
  0
LINE
  8
_0-0_
  6
DASHED1
 62
    7
 10
916.74017122517046
 20
1227.3279057056272
 11
916.74017122517046
 21
1187.3279057056272
  0
ARC
  8
_0-0_
  6
CONTINUOUS
 62
    7
 10
1072.9518364040596
 20
1207.3279057056272
 40
20
 50
1.8794552231624875
 51
90
  0
LINE
  8
_0-0_
  6
CONTINUOUS
 62
    7
 10
1082.9518364040596
 20
1207.3279057056272
 11
1082.9518364040596
 21
1147.3279057056272
  0
LINE
  8
_0-0_
  6
CONTINUOUS
 62
    7
 10
1062.9518364040596
 20
1207.3279057056272
 11
1062.9518364040596
 21
1147.3279057056272
  0
ARC
  8
_0-0_
  6
DASHED1
 62
    7
 10
1072.9518364040596
 20
1207.3279057056272
 40
10
 50
180
 51
1.879455223162438
  0
ARC
  8
_0-0_
  6
CONTINUOUS
 62
    7
 10
1072.9518364040596
 20
1147.3279057056272
 40
10
 50
180
 51
0
  0
CIRCLE
  8
_0-0_
  6
DASHED1
 62
    7
 10
937.06813921920195
 20
1207.6558736996587
 40
9.6720320059689584
  0
ARC
  8
_0-0_
  6
CONTINUOUS
 62
    7
 10
1072.9518364040596
 20
1207.3279057056272
 40
20
 50
299.99999999999989
 51
1.8794552231624542
  0
ARC
  8
_0-0_
  6
DASHED1
 62
    7
 10
1072.9518364040596
 20
1207.6558736996587
 40
20.284691458917379
 50
270
 51
299.53680866691025
  0
LINE
  8
_0-0_
  6
DASHED1
 62
    7
 10
1062.9518364040596
 20
1187.3279057056272
 11
1072.9518364040596
 21
1187.3279057056272
  0
LINE
  8
_0-0_
  6
DASHED1
 62
    7
 10
1023.9254991561121
 20
1227.3279057056272
 11
916.74017122517046
 21
1227.3279057056272
  0
LINE
  8
_0-0_
  6
DASHED1
 62
    7
 10
1023.9254991561121
 20
1187.3279057056272
 11
916.74017122517046
 21
1187.3279057056272
  0
LINE
  8
_0-0_
  6
CONTINUOUS
 62
    7
 10
1072.9518364040596
 20
1227.3279057056272
 11
1023.9254991561121
 21
1227.3279057056272
  0
LINE
  8
_0-0_
  6
CONTINUOUS
 62
    7
 10
1062.9518364040596
 20
1187.3279057056272
 11
1023.9254991561121
 21
1187.3279057056272
  0
CIRCLE
  8
_0-0_
  6
DASHED2
 62
    1
 10
951.16433613602396
 20
1269.5458920707854
 40
94.513505632925799
  0
TEXT
  8
_0-0_
 62
    7
 10
941.25844822473675
 20
1351.4850665766128
 40
24
 41
1
 50
0
  1
Ａ
  0
ARC
  8
_0-0_
  6
CONTINUOUS
 62
    7
 10
1124.6036622740139
 20
350.25343932904912
 40
18
 50
0
 51
180
  0
LINE
  8
_0-0_
  6
CONTINUOUS
 62
    4
 10
1022.3382189126279
 20
470.31675150108754
 11
1047.1562552277046
 21
444.61692256806896
  0
LINE
  8
_0-0_
  6
CONTINUOUS
 62
    7
 10
1017.6004792253117
 20
459.67561393819346
 11
1036.3562552277035
 21
440.25343932904912
  0
LINE
  8
_0-0_
  6
CONTINUOUS
 62
    7
 10
766.35625522770727
 20
395.38171845353395
 11
836.9583141204804
 21
465.98377734630708
  0
LINE
  8
_0-0_
  6
CONTINUOUS
 62
    7
 10
766.35625522770363
 20
408.1096405148885
 11
824.65986342110421
 21
466.41324870828907
  0
LINE
  8
_0-0_
  6
CONTINUOUS
 62
    7
 10
766.35625522770363
 20
420.83756257624486
 11
812.3614127217262
 21
466.84272007026743
  0
LINE
  8
_0-0_
  6
DASHED1
 62
    7
 10
843.42266495200977
 20
386.25343932904912
 11
843.42266495200977
 21
314.25343932904912
  0
LINE
  8
_0-0_
  6
DASHED1
 62
    7
 10
843.42266495200977
 20
386.25343932904912
 11
843.42266495200977
 21
314.25343932904912
  0
ARC
  8
_0-0_
  6
CONTINUOUS
 62
    7
 10
1124.6036622740139
 20
350.25343932904912
 40
36
 50
1.8794552231624875
 51
90
  0
LINE
  8
_0-0_
  6
CONTINUOUS
 62
    7
 10
1142.6036622740139
 20
350.25343932904912
 11
1142.6036622740139
 21
242.25343932904912
  0
LINE
  8
_0-0_
  6
CONTINUOUS
 62
    7
 10
1106.6036622740139
 20
350.25343932904912
 11
1106.6036622740139
 21
242.25343932904912
  0
ARC
  8
_0-0_
  6
DASHED1
 62
    7
 10
1124.6036622740139
 20
350.25343932904912
 40
18
 50
180
 51
1.879455223162438
  0
ARC
  8
_0-0_
  6
CONTINUOUS
 62
    7
 10
1124.6036622740139
 20
242.25343932904912
 40
18
 50
180
 51
0
  0
CIRCLE
  8
_0-0_
  6
DASHED1
 62
    7
 10
880.01300734126573
 20
350.84378171830508
 40
17.409657610744127
  0
ARC
  8
_0-0_
  6
CONTINUOUS
 62
    7
 10
1124.6036622740139
 20
350.25343932904912
 40
36
 50
299.99999999999989
 51
1.8794552231624542
  0
ARC
  8
_0-0_
  6
DASHED1
 62
    7
 10
1124.6036622740139
 20
350.84378171830508
 40
36.512444626051284
 50
270
 51
299.53680866691025
  0
LINE
  8
_0-0_
  6
DASHED1
 62
    7
 10
1106.6036622740139
 20
314.25343932904912
 11
1124.6036622740139
 21
314.25343932904912
  0
LINE
  8
_0-0_
  6
DASHED1
 62
    7
 10
1036.3562552277035
 20
386.25343932904912
 11
843.42266495200977
 21
386.25343932904912
  0
LINE
  8
_0-0_
  6
DASHED1
 62
    7
 10
1036.3562552277035
 20
314.25343932904912
 11
843.42266495200977
 21
314.25343932904912
  0
LINE
  8
_0-0_
  6
CONTINUOUS
 62
    7
 10
1124.6036622740139
 20
386.25343932904912
 11
1036.3562552277035
 21
386.25343932904912
  0
LINE
  8
_0-0_
  6
CONTINUOUS
 62
    7
 10
1106.6036622740139
 20
314.25343932904912
 11
1036.3562552277035
 21
314.25343932904912
  0
LINE
  8
_0-0_
  6
CONTINUOUS
 62
    7
 10
970.71660084648477
 20
217.90440223157498
 11
1036.3562552277035
 21
283.54405661279384
  0
LINE
  8
_0-0_
  6
CONTINUOUS
 62
    7
 10
983.44452290784113
 20
217.90440223157498
 11
1036.3562552277072
 21
270.81613455143929
  0
LINE
  8
_0-0_
  6
CONTINUOUS
 62
    7
 10
996.1724449691975
 20
217.90440223157498
 11
1036.3562552277035
 21
258.0882124900811
  0
LINE
  8
_0-0_
  6
CONTINUOUS
 62
    7
 10
1023.9254991561121
 20
982.9922480620146
 11
1523.925499156112
 21
982.9922480620146
  0
LINE
  8
_0-0_
  6
CONTINUOUS
 62
    7
 10
1013.5056235992271
 20
1268.1180027107068
 11
1023.9254991561121
 21
1257.3279057056272
  0
LINE
  8
_0-0_
  6
CONTINUOUS
 62
    4
 10
1016.1377012032918
 20
1274.0297458012058
 11
1029.925499156112
 21
1259.7520630606389
  0
LINE
  8
_0-0_
  6
CONTINUOUS
 62
    7
 10
873.9254991561121
 20
793.99296755023647
 11
1062.9247796678919
 21
982.9922480620146
  0
LINE
  8
_0-0_
  6
CONTINUOUS
 62
    7
 10
873.9254991561121
 20
786.92189973837162
 11
1069.9958474797568
 21
982.9922480620146
  0
LINE
  8
_0-0_
  6
CONTINUOUS
 62
    7
 10
873.92549915611391
 20
779.85083192650677
 11
1077.0669152916234
 21
982.9922480620146
  0
LINE
  8
_0-0_
  6
CONTINUOUS
 62
    7
 10
1079.1989496475871
 20
772.9922480620146
 11
1289.1989496475871
 21
982.9922480620146
  0
LINE
  8
_0-0_
  6
CONTINUOUS
 62
    7
 10
1086.270017459452
 20
772.9922480620146
 11
1296.2700174594538
 21
982.9922480620146
  0
LINE
  8
_0-0_
  6
CONTINUOUS
 62
    7
 10
1093.3410852713168
 20
772.9922480620146
 11
1303.3410852713168
 21
982.9922480620146
  0
LINE
  8
_0-0_
  6
CONTINUOUS
 62
    7
 10
1223.925499156112
 20
802.9922480620146
 11
1523.925499156112
 21
802.9922480620146
  0
LINE
  8
_0-0_
  6
CONTINUOUS
 62
    7
 10
1223.925499156112
 20
802.9922480620146
 11
1223.925499156112
 21
772.9922480620146
  0
LINE
  8
_0-0_
  6
CONTINUOUS
 62
    7
 10
1335.4731196272824
 20
802.9922480620146
 11
1515.4731196272824
 21
982.9922480620146
  0
LINE
  8
_0-0_
  6
CONTINUOUS
 62
    7
 10
1342.5441874391472
 20
802.9922480620146
 11
1522.5441874391472
 21
982.9922480620146
  0
LINE
  8
_0-0_
  6
CONTINUOUS
 62
    7
 10
1349.6152552510121
 20
802.9922480620146
 11
1523.9254991561138
 21
977.30249196711452
  0
POINT
  8
_0-0_
 62
    7
 10
1337.1185834863518
 20
987.32039321624802
  0
LINE
  8
_0-0_
  6
CONTINUOUS
 62
    7
 10
1337.1185834863518
 20
987.32039321624802
 11
1430.4565639073244
 21
1148.9865175812404
  0
TEXT
  8
_0-0_
 62
    7
 10
1434.9264839000698
 20
1136.8791128179157
 40
30
 41
1
 50
0
  1
防水層
  0
CIRCLE
  8
_0-0_
  6
DASHED2
 62
    1
 10
1029.925499156112
 20
1033.3316468477308
 40
80
  0
TEXT
  8
_0-0_
 62
    7
 10
988.80137739394752
 20
1095.061746710476
 40
24
 41
1
 50
0
  1
Ｂ
  0
LINE
  8
_0-0_
  6
CONTINUOUS
 62
    4
 10
1029.925499156112
 20
991.9922480620146
 11
1523.925499156112
 21
991.9922480620146
  0
LINE
  8
_0-0_
  6
CONTINUOUS
 62
    6
 10
1029.925499156112
 20
992.9922480620146
 11
1523.925499156112
 21
992.9922480620146
  0
LINE
  8
_0-0_
  6
CONTINUOUS
 62
    7
 10
1521.4076835609612
 20
1027.9922480620146
 11
1029.925499156112
 21
1027.9922480620146
  0
LINE
  8
_0-0_
  6
CONTINUOUS
 62
    6
 10
1490.5550642416474
 20
1027.9922480620146
 11
1523.925499156112
 21
994.62181314755185
  0
LINE
  8
_0-0_
  6
CONTINUOUS
 62
    6
 10
1504.6971998653771
 20
1027.9922480620146
 11
1523.925499156112
 21
1008.7639487712815
  0
LINE
  8
_0-0_
  6
CONTINUOUS
 62
    6
 10
1511.5690723019852
 20
992.9922480620146
 11
1523.925499156112
 21
1005.3486749161377
  0
LINE
  8
_0-0_
  6
CONTINUOUS
 62
    6
 10
1518.8393354891105
 20
1027.9922480620146
 11
1523.925499156112
 21
1022.9060843950131
  0
LINE
  8
_0-0_
  6
CONTINUOUS
 62
    6
 10
1497.4269366782519
 20
992.9922480620146
 11
1523.925499156112
 21
1019.4908105398692
  0
LINE
  8
_0-0_
  6
CONTINUOUS
 62
    6
 10
1029.925499156112
 20
1027.9922480620146
 11
1029.925499156112
 21
992.9922480620146
  0
LINE
  8
_0-0_
  6
CONTINUOUS
 62
    6
 10
1029.925499156112
 20
993.64706631696686
 11
1030.5803174110606
 21
992.9922480620146
  0
LINE
  8
_0-0_
  6
CONTINUOUS
 62
    6
 10
1029.9254991561083
 20
1007.7892019406984
 11
1044.7224530347939
 21
992.99224806201278
  0
LINE
  8
_0-0_
  6
CONTINUOUS
 62
    6
 10
1029.925499156112
 20
1021.9313375644281
 11
1058.8645886585236
 21
992.9922480620146
  0
LINE
  8
_0-0_
  6
CONTINUOUS
 62
    6
 10
1038.006724282257
 20
1027.9922480620128
 11
1073.006724282257
 21
992.99224806201278
  0
LINE
  8
_0-0_
  6
CONTINUOUS
 62
    6
 10
1052.1488599059867
 20
1027.9922480620128
 11
1087.1488599059867
 21
992.99224806201278
  0
LINE
  8
_0-0_
  6
CONTINUOUS
 62
    6
 10
1066.29099552972
 20
1027.9922480620146
 11
1101.29099552972
 21
992.9922480620146
  0
LINE
  8
_0-0_
  6
CONTINUOUS
 62
    6
 10
1080.4331311534497
 20
1027.9922480620128
 11
1115.4331311534461
 21
992.9922480620146
  0
LINE
  8
_0-0_
  6
CONTINUOUS
 62
    6
 10
1094.5752667771794
 20
1027.9922480620128
 11
1129.5752667771794
 21
992.99224806201278
  0
LINE
  8
_0-0_
  6
CONTINUOUS
 62
    6
 10
1108.7174024009091
 20
1027.9922480620146
 11
1143.7174024009091
 21
992.9922480620146
  0
LINE
  8
_0-0_
  6
CONTINUOUS
 62
    6
 10
1122.8595380246425
 20
1027.9922480620128
 11
1157.8595380246425
 21
992.99224806201278
  0
LINE
  8
_0-0_
  6
CONTINUOUS
 62
    6
 10
1137.0016736483722
 20
1027.9922480620128
 11
1172.0016736483722
 21
992.99224806201278
  0
LINE
  8
_0-0_
  6
CONTINUOUS
 62
    6
 10
1151.1438092721055
 20
1027.9922480620146
 11
1186.1438092721055
 21
992.9922480620146
  0
LINE
  8
_0-0_
  6
CONTINUOUS
 62
    6
 10
1165.2859448958352
 20
1027.9922480620128
 11
1200.2859448958316
 21
992.9922480620146
  0
LINE
  8
_0-0_
  6
CONTINUOUS
 62
    6
 10
1179.4280805195649
 20
1027.9922480620146
 11
1214.4280805195649
 21
992.9922480620146
  0
LINE
  8
_0-0_
  6
CONTINUOUS
 62
    6
 10
1193.5702161432946
 20
1027.9922480620146
 11
1228.5702161432946
 21
992.9922480620146
  0
LINE
  8
_0-0_
  6
CONTINUOUS
 62
    6
 10
1207.7123517670279
 20
1027.9922480620128
 11
1242.7123517670279
 21
992.9922480620146
  0
LINE
  8
_0-0_
  6
CONTINUOUS
 62
    6
 10
1221.8544873907576
 20
1027.9922480620146
 11
1256.8544873907576
 21
992.9922480620146
  0
LINE
  8
_0-0_
  6
CONTINUOUS
 62
    6
 10
1235.996623014491
 20
1027.9922480620146
 11
1270.996623014491
 21
992.9922480620146
  0
LINE
  8
_0-0_
  6
CONTINUOUS
 62
    6
 10
1250.1387586382207
 20
1027.9922480620146
 11
1285.138758638217
 21
992.9922480620146
  0
LINE
  8
_0-0_
  6
CONTINUOUS
 62
    6
 10
1264.2808942619504
 20
1027.9922480620146
 11
1299.2808942619504
 21
992.9922480620146
  0
LINE
  8
_0-0_
  6
CONTINUOUS
 62
    6
 10
1278.4230298856801
 20
1027.9922480620146
 11
1313.4230298856837
 21
992.9922480620146
  0
LINE
  8
_0-0_
  6
CONTINUOUS
 62
    6
 10
1292.5651655094134
 20
1027.9922480620146
 11
1327.5651655094134
 21
992.9922480620146
  0
LINE
  8
_0-0_
  6
CONTINUOUS
 62
    6
 10
1306.7073011331431
 20
1027.9922480620146
 11
1341.7073011331431
 21
992.9922480620146
  0
LINE
  8
_0-0_
  6
CONTINUOUS
 62
    6
 10
1320.8494367568765
 20
1027.9922480620146
 11
1355.8494367568765
 21
992.9922480620146
  0
LINE
  8
_0-0_
  6
CONTINUOUS
 62
    6
 10
1334.9915723806025
 20
1027.9922480620146
 11
1369.9915723806062
 21
992.9922480620146
  0
LINE
  8
_0-0_
  6
CONTINUOUS
 62
    6
 10
1349.1337080043359
 20
1027.9922480620146
 11
1384.1337080043359
 21
992.9922480620146
  0
LINE
  8
_0-0_
  6
CONTINUOUS
 62
    6
 10
1363.2758436280692
 20
1027.9922480620146
 11
1398.2758436280692
 21
992.9922480620146
  0
LINE
  8
_0-0_
  6
CONTINUOUS
 62
    6
 10
1377.4179792517989
 20
1027.9922480620146
 11
1412.4179792517989
 21
992.9922480620146
  0
LINE
  8
_0-0_
  6
CONTINUOUS
 62
    6
 10
1391.5601148755286
 20
1027.9922480620146
 11
1426.5601148755322
 21
992.9922480620146
  0
LINE
  8
_0-0_
  6
CONTINUOUS
 62
    6
 10
1405.7022504992619
 20
1027.9922480620146
 11
1440.7022504992619
 21
992.9922480620146
  0
LINE
  8
_0-0_
  6
CONTINUOUS
 62
    6
 10
1419.8443861229916
 20
1027.9922480620128
 11
1454.8443861229916
 21
992.9922480620146
  0
LINE
  8
_0-0_
  6
CONTINUOUS
 62
    6
 10
1433.986521746725
 20
1027.9922480620146
 11
1468.986521746725
 21
992.9922480620146
  0
LINE
  8
_0-0_
  6
CONTINUOUS
 62
    6
 10
1448.1286573704547
 20
1027.9922480620146
 11
1483.1286573704547
 21
992.9922480620146
  0
LINE
  8
_0-0_
  6
CONTINUOUS
 62
    6
 10
1462.2707929941844
 20
1027.9922480620146
 11
1497.2707929941844
 21
992.9922480620146
  0
LINE
  8
_0-0_
  6
CONTINUOUS
 62
    6
 10
1476.4129286179177
 20
1027.9922480620146
 11
1511.4129286179177
 21
992.9922480620146
  0
LINE
  8
_0-0_
  6
CONTINUOUS
 62
    6
 10
1483.2848010545258
 20
992.99224806201278
 11
1518.2848010545258
 21
1027.9922480620128
  0
LINE
  8
_0-0_
  6
CONTINUOUS
 62
    6
 10
1469.1426654307925
 20
992.9922480620146
 11
1504.1426654307925
 21
1027.9922480620146
  0
LINE
  8
_0-0_
  6
CONTINUOUS
 62
    6
 10
1455.0005298070628
 20
992.9922480620146
 11
1490.0005298070628
 21
1027.9922480620146
  0
LINE
  8
_0-0_
  6
CONTINUOUS
 62
    6
 10
1440.8583941833294
 20
992.99224806201278
 11
1475.8583941833294
 21
1027.9922480620128
  0
LINE
  8
_0-0_
  6
CONTINUOUS
 62
    6
 10
1426.7162585595997
 20
992.9922480620146
 11
1461.7162585595997
 21
1027.9922480620146
  0
LINE
  8
_0-0_
  6
CONTINUOUS
 62
    6
 10
1412.5741229358664
 20
992.9922480620146
 11
1447.5741229358664
 21
1027.9922480620146
  0
LINE
  8
_0-0_
  6
CONTINUOUS
 62
    6
 10
1398.4319873121403
 20
992.9922480620146
 11
1433.4319873121403
 21
1027.9922480620146
  0
LINE
  8
_0-0_
  6
CONTINUOUS
 62
    6
 10
1384.289851688407
 20
992.9922480620146
 11
1419.289851688407
 21
1027.9922480620146
  0
LINE
  8
_0-0_
  6
CONTINUOUS
 62
    6
 10
1370.1477160646773
 20
992.9922480620146
 11
1405.1477160646773
 21
1027.9922480620146
  0
LINE
  8
_0-0_
  6
CONTINUOUS
 62
    6
 10
1356.005580440944
 20
992.9922480620146
 11
1391.005580440944
 21
1027.9922480620146
  0
LINE
  8
_0-0_
  6
CONTINUOUS
 62
    6
 10
1341.8634448172143
 20
992.9922480620146
 11
1376.8634448172143
 21
1027.9922480620146
  0
LINE
  8
_0-0_
  6
CONTINUOUS
 62
    6
 10
1327.7213091934809
 20
992.9922480620146
 11
1362.7213091934809
 21
1027.9922480620146
  0
LINE
  8
_0-0_
  6
CONTINUOUS
 62
    6
 10
1313.5791735697549
 20
992.9922480620146
 11
1348.5791735697549
 21
1027.9922480620146
  0
LINE
  8
_0-0_
  6
CONTINUOUS
 62
    6
 10
1299.4370379460215
 20
992.9922480620146
 11
1334.4370379460215
 21
1027.9922480620146
  0
LINE
  8
_0-0_
  6
CONTINUOUS
 62
    6
 10
1285.2949023222882
 20
992.9922480620146
 11
1320.2949023222882
 21
1027.9922480620128
  0
LINE
  8
_0-0_
  6
CONTINUOUS
 62
    6
 10
1271.1527666985585
 20
992.9922480620146
 11
1306.1527666985585
 21
1027.9922480620146
  0
LINE
  8
_0-0_
  6
CONTINUOUS
 62
    6
 10
1257.0106310748288
 20
992.9922480620146
 11
1292.0106310748288
 21
1027.9922480620146
  0
LINE
  8
_0-0_
  6
CONTINUOUS
 62
    6
 10
1242.8684954510954
 20
992.99224806201278
 11
1277.8684954510954
 21
1027.9922480620128
  0
LINE
  8
_0-0_
  6
CONTINUOUS
 62
    6
 10
1228.7263598273694
 20
992.9922480620146
 11
1263.7263598273694
 21
1027.9922480620146
  0
LINE
  8
_0-0_
  6
CONTINUOUS
 62
    6
 10
1214.584224203636
 20
992.9922480620146
 11
1249.584224203636
 21
1027.9922480620146
  0
LINE
  8
_0-0_
  6
CONTINUOUS
 62
    6
 10
1200.4420885799027
 20
992.9922480620146
 11
1235.4420885799027
 21
1027.9922480620146
  0
LINE
  8
_0-0_
  6
CONTINUOUS
 62
    6
 10
1186.299952956173
 20
992.9922480620146
 11
1221.299952956173
 21
1027.9922480620146
  0
LINE
  8
_0-0_
  6
CONTINUOUS
 62
    6
 10
1172.1578173324433
 20
992.9922480620146
 11
1207.1578173324433
 21
1027.9922480620146
  0
LINE
  8
_0-0_
  6
CONTINUOUS
 62
    6
 10
1158.01568170871
 20
992.9922480620146
 11
1193.01568170871
 21
1027.9922480620128
  0
LINE
  8
_0-0_
  6
CONTINUOUS
 62
    6
 10
1143.8735460849839
 20
992.9922480620146
 11
1178.8735460849839
 21
1027.9922480620146
  0
LINE
  8
_0-0_
  6
CONTINUOUS
 62
    6
 10
1129.7314104612506
 20
992.9922480620146
 11
1164.7314104612506
 21
1027.9922480620146
  0
LINE
  8
_0-0_
  6
CONTINUOUS
 62
    6
 10
1115.5892748375172
 20
992.99224806201278
 11
1150.5892748375172
 21
1027.9922480620146
  0
LINE
  8
_0-0_
  6
CONTINUOUS
 62
    6
 10
1101.4471392137875
 20
992.9922480620146
 11
1136.4471392137875
 21
1027.9922480620146
  0
LINE
  8
_0-0_
  6
CONTINUOUS
 62
    6
 10
1087.3050035900578
 20
992.9922480620146
 11
1122.3050035900578
 21
1027.9922480620146
  0
LINE
  8
_0-0_
  6
CONTINUOUS
 62
    6
 10
1073.1628679663245
 20
992.9922480620146
 11
1108.1628679663245
 21
1027.9922480620128
  0
LINE
  8
_0-0_
  6
CONTINUOUS
 62
    6
 10
1059.0207323425984
 20
992.9922480620146
 11
1094.0207323425984
 21
1027.9922480620146
  0
LINE
  8
_0-0_
  6
CONTINUOUS
 62
    6
 10
1044.8785967188651
 20
992.9922480620146
 11
1079.8785967188651
 21
1027.9922480620146
  0
LINE
  8
_0-0_
  6
CONTINUOUS
 62
    6
 10
1030.7364610951317
 20
992.99224806201278
 11
1065.7364610951317
 21
1027.9922480620128
  0
LINE
  8
_0-0_
  6
CONTINUOUS
 62
    6
 10
1029.9254991561083
 20
1006.3234217467209
 11
1051.594325471402
 21
1027.9922480620146
  0
LINE
  8
_0-0_
  6
CONTINUOUS
 62
    6
 10
1029.9254991561083
 20
1020.4655573704524
 11
1037.4521898476723
 21
1027.9922480620146
  0
LINE
  8
_0-0_
  6
CONTINUOUS
 62
    6
 10
1029.925499156112
 20
1027.9922480620146
 11
1523.925499156112
 21
1027.9922480620146
  0
LINE
  8
_0-0_
  6
CONTINUOUS
 62
    5
 10
1049.925499156112
 20
1109.9922480620146
 11
1049.925499156112
 21
1029.9922480620146
  0
LINE
  8
_0-0_
  6
CONTINUOUS
 62
    5
 10
1044.8650490463533
 20
1109.9922480620146
 11
1049.925499156112
 21
1104.9317979522577
  0
LINE
  8
_0-0_
  6
CONTINUOUS
 62
    5
 10
1039.20819479686
 20
1109.9922480620146
 11
1049.925499156112
 21
1099.2749437027644
  0
LINE
  8
_0-0_
  6
CONTINUOUS
 62
    5
 10
1033.5513405473703
 20
1109.9922480620146
 11
1049.925499156112
 21
1093.6180894532729
  0
LINE
  8
_0-0_
  6
CONTINUOUS
 62
    5
 10
1029.925499156112
 20
1107.9612352037814
 11
1049.925499156112
 21
1087.9612352037814
  0
LINE
  8
_0-0_
  6
CONTINUOUS
 62
    5
 10
1029.925499156112
 20
1102.3043809542899
 11
1049.925499156112
 21
1082.3043809542899
  0
LINE
  8
_0-0_
  6
CONTINUOUS
 62
    5
 10
1029.925499156112
 20
1096.6475267047983
 11
1049.925499156112
 21
1076.6475267047983
  0
LINE
  8
_0-0_
  6
CONTINUOUS
 62
    5
 10
1029.925499156112
 20
1090.990672455305
 11
1049.925499156112
 21
1070.9906724553032
  0
LINE
  8
_0-0_
  6
CONTINUOUS
 62
    5
 10
1029.925499156112
 20
1085.3338182058098
 11
1049.925499156112
 21
1065.3338182058117
  0
LINE
  8
_0-0_
  6
CONTINUOUS
 62
    5
 10
1029.925499156112
 20
1079.6769639563183
 11
1049.925499156112
 21
1059.6769639563183
  0
LINE
  8
_0-0_
  6
CONTINUOUS
 62
    5
 10
1029.925499156112
 20
1074.0201097068268
 11
1049.925499156112
 21
1054.0201097068268
  0
LINE
  8
_0-0_
  6
CONTINUOUS
 62
    5
 10
1029.925499156112
 20
1068.3632554573353
 11
1049.925499156112
 21
1048.3632554573353
  0
LINE
  8
_0-0_
  6
CONTINUOUS
 62
    5
 10
1029.925499156112
 20
1062.706401207842
 11
1049.925499156112
 21
1042.706401207842
  0
LINE
  8
_0-0_
  6
CONTINUOUS
 62
    5
 10
1029.925499156112
 20
1057.0495469583504
 11
1049.925499156112
 21
1037.0495469583504
  0
LINE
  8
_0-0_
  6
CONTINUOUS
 62
    5
 10
1029.925499156112
 20
1051.3926927088589
 11
1049.925499156112
 21
1031.3926927088589
  0
LINE
  8
_0-0_
  6
CONTINUOUS
 62
    5
 10
1029.925499156112
 20
1045.7358384593656
 11
1045.6690895534612
 21
1029.9922480620146
  0
LINE
  8
_0-0_
  6
CONTINUOUS
 62
    5
 10
1029.925499156112
 20
1040.0789842098723
 11
1040.0122353039678
 21
1029.9922480620146
  0
LINE
  8
_0-0_
  6
CONTINUOUS
 62
    5
 10
1029.925499156112
 20
1034.4221299603789
 11
1034.3553810544745
 21
1029.9922480620128
  0
LINE
  8
_0-0_
  6
CONTINUOUS
 62
    5
 10
1049.925499156112
 20
1109.9922480620146
 11
1029.925499156112
 21
1109.9922480620146
  0
LINE
  8
_0-0_
  6
CONTINUOUS
 62
    7
 10
1049.925499156112
 20
1035.0801181474319
 11
1055.0133692415275
 21
1029.9922480620146
  0
LINE
  8
_0-0_
  6
CONTINUOUS
 62
    7
 10
1049.925499156112
 20
1042.1511859592949
 11
1062.0844370533905
 21
1029.9922480620146
  0
LINE
  8
_0-0_
  6
CONTINUOUS
 62
    7
 10
1049.925499156112
 20
1049.2222537711616
 11
1069.1555048652572
 21
1029.9922480620128
  0
LINE
  8
_0-0_
  6
CONTINUOUS
 62
    5
 10
1209.9170117350386
 20
1106.4922480620146
 11
1209.9170117350386
 21
1029.9922480620146
  0
LINE
  8
_0-0_
  6
CONTINUOUS
 62
    5
 10
1189.9170117350386
 20
1106.4922480620146
 11
1209.9170117350386
 21
1106.4922480620146
  0
LINE
  8
_0-0_
  6
CONTINUOUS
 62
    5
 10
1189.9170117350386
 20
1029.9922480620146
 11
1189.9170117350386
 21
1106.4922480620146
  0
LINE
  8
_0-0_
  6
CONTINUOUS
 62
    5
 10
1188.9170117350386
 20
1107.9922480620146
 11
1210.9170117350386
 21
1107.9922480620146
  0
LINE
  8
_0-0_
  6
CONTINUOUS
 62
    5
 10
1188.9170117350386
 20
1106.9922480620146
 11
1188.9170117350386
 21
1107.9922480620146
  0
LINE
  8
_0-0_
  6
CONTINUOUS
 62
    5
 10
1190.9170117350386
 20
1106.9922480620146
 11
1188.9170117350386
 21
1106.9922480620146
  0
LINE
  8
_0-0_
  6
CONTINUOUS
 62
    5
 10
1190.9170117350386
 20
1106.4922480620146
 11
1190.9170117350386
 21
1106.9922480620146
  0
LINE
  8
_0-0_
  6
CONTINUOUS
 62
    5
 10
1188.9170117350386
 20
1106.4922480620146
 11
1190.9170117350386
 21
1106.4922480620146
  0
LINE
  8
_0-0_
  6
CONTINUOUS
 62
    5
 10
1188.9170117350386
 20
1094.9922480620146
 11
1188.9170117350386
 21
1106.4922480620146
  0
LINE
  8
_0-0_
  6
CONTINUOUS
 62
    5
 10
1189.4170117350386
 20
1094.9922480620146
 11
1188.9170117350386
 21
1094.9922480620146
  0
LINE
  8
_0-0_
  6
CONTINUOUS
 62
    5
 10
1188.9170117350386
 20
1093.9922480620146
 11
1189.4170117350386
 21
1094.9922480620146
  0
LINE
  8
_0-0_
  6
CONTINUOUS
 62
    5
 10
1188.9170117350386
 20
1080.9922480620146
 11
1188.9170117350386
 21
1093.9922480620146
  0
LINE
  8
_0-0_
  6
CONTINUOUS
 62
    5
 10
1189.4170117350386
 20
1080.9922480620146
 11
1188.9170117350386
 21
1080.9922480620146
  0
LINE
  8
_0-0_
  6
CONTINUOUS
 62
    5
 10
1188.9170117350386
 20
1079.9922480620146
 11
1189.4170117350386
 21
1080.9922480620146
  0
LINE
  8
_0-0_
  6
CONTINUOUS
 62
    5
 10
1187.9170117350386
 20
1079.9922480620146
 11
1188.9170117350386
 21
1079.9922480620146
  0
LINE
  8
_0-0_
  6
CONTINUOUS
 62
    5
 10
1187.9170117350386
 20
1106.4922480620146
 11
1187.9170117350386
 21
1079.9922480620146
  0
LINE
  8
_0-0_
  6
CONTINUOUS
 62
    5
 10
1187.4170117350386
 20
1106.4922480620146
 11
1187.9170117350386
 21
1106.4922480620146
  0
LINE
  8
_0-0_
  6
CONTINUOUS
 62
    5
 10
1187.4170117350386
 20
1108.4922480620146
 11
1187.4170117350386
 21
1106.4922480620146
  0
LINE
  8
_0-0_
  6
CONTINUOUS
 62
    5
 10
1212.4170117350386
 20
1108.4922480620146
 11
1187.4170117350386
 21
1108.4922480620146
  0
LINE
  8
_0-0_
  6
CONTINUOUS
 62
    5
 10
1212.4170117350386
 20
1106.4922480620146
 11
1212.4170117350386
 21
1108.4922480620146
  0
LINE
  8
_0-0_
  6
CONTINUOUS
 62
    5
 10
1211.9170117350386
 20
1106.4922480620146
 11
1212.4170117350386
 21
1106.4922480620146
  0
LINE
  8
_0-0_
  6
CONTINUOUS
 62
    5
 10
1211.9170117350386
 20
1079.9922480620146
 11
1211.9170117350386
 21
1106.4922480620146
  0
LINE
  8
_0-0_
  6
CONTINUOUS
 62
    5
 10
1210.9170117350386
 20
1079.9922480620146
 11
1211.9170117350386
 21
1079.9922480620146
  0
LINE
  8
_0-0_
  6
CONTINUOUS
 62
    5
 10
1210.4170117350386
 20
1080.9922480620146
 11
1210.9170117350386
 21
1079.9922480620146
  0
LINE
  8
_0-0_
  6
CONTINUOUS
 62
    5
 10
1210.9170117350386
 20
1080.9922480620146
 11
1210.4170117350386
 21
1080.9922480620146
  0
LINE
  8
_0-0_
  6
CONTINUOUS
 62
    5
 10
1210.9170117350386
 20
1093.9922480620146
 11
1210.9170117350386
 21
1080.9922480620146
  0
LINE
  8
_0-0_
  6
CONTINUOUS
 62
    5
 10
1210.4170117350386
 20
1094.9922480620146
 11
1210.9170117350386
 21
1093.9922480620146
  0
LINE
  8
_0-0_
  6
CONTINUOUS
 62
    5
 10
1210.9170117350386
 20
1094.9922480620146
 11
1210.4170117350386
 21
1094.9922480620146
  0
LINE
  8
_0-0_
  6
CONTINUOUS
 62
    5
 10
1210.9170117350386
 20
1106.4922480620146
 11
1210.9170117350386
 21
1094.9922480620146
  0
LINE
  8
_0-0_
  6
CONTINUOUS
 62
    5
 10
1208.9170117350386
 20
1106.4922480620146
 11
1210.9170117350386
 21
1106.4922480620146
  0
LINE
  8
_0-0_
  6
CONTINUOUS
 62
    5
 10
1208.9170117350386
 20
1106.9922480620146
 11
1208.9170117350386
 21
1106.4922480620146
  0
LINE
  8
_0-0_
  6
CONTINUOUS
 62
    5
 10
1210.9170117350386
 20
1106.9922480620146
 11
1208.9170117350386
 21
1106.9922480620146
  0
LINE
  8
_0-0_
  6
CONTINUOUS
 62
    5
 10
1210.9170117350386
 20
1107.9922480620146
 11
1210.9170117350386
 21
1106.9922480620146
  0
LINE
  8
_0-0_
  6
CONTINUOUS
 62
    5
 10
1199.9170117350386
 20
1109.4922480620146
 11
1212.4170117350386
 21
1109.4922480620146
  0
LINE
  8
_0-0_
  6
CONTINUOUS
 62
    5
 10
1187.4170117350386
 20
1109.4922480620146
 11
1199.9170117350386
 21
1109.4922480620146
  0
LINE
  8
_0-0_
  6
CONTINUOUS
 62
    5
 10
1186.9170117350386
 20
1109.9922480620146
 11
1187.4170117350386
 21
1109.4922480620146
  0
LINE
  8
_0-0_
  6
CONTINUOUS
 62
    5
 10
1185.9170117350386
 20
1109.9922480620146
 11
1186.9170117350386
 21
1109.9922480620146
  0
LINE
  8
_0-0_
  6
CONTINUOUS
 62
    5
 10
1185.9170117350386
 20
1106.9922480620146
 11
1185.9170117350386
 21
1109.9922480620146
  0
LINE
  8
_0-0_
  6
CONTINUOUS
 62
    5
 10
1186.4170117350386
 20
1106.9922480620146
 11
1185.9170117350386
 21
1106.9922480620146
  0
LINE
  8
_0-0_
  6
CONTINUOUS
 62
    5
 10
1186.4170117350386
 20
1091.9922480620146
 11
1186.4170117350386
 21
1106.9922480620146
  0
LINE
  8
_0-0_
  6
CONTINUOUS
 62
    5
 10
1185.9170117350313
 20
1091.9922480620146
 11
1186.4170117350386
 21
1091.9922480620146
  0
LINE
  8
_0-0_
  6
CONTINUOUS
 62
    5
 10
1185.9170117350386
 20
1089.9922480620146
 11
1185.9170117350313
 21
1091.9922480620146
  0
LINE
  8
_0-0_
  6
CONTINUOUS
 62
    5
 10
1187.4170117350386
 20
1089.9922480620146
 11
1185.9170117350386
 21
1089.9922480620146
  0
LINE
  8
_0-0_
  6
CONTINUOUS
 62
    5
 10
1187.4170117350386
 20
1108.4922480620146
 11
1187.4170117350386
 21
1089.9922480620146
  0
LINE
  8
_0-0_
  6
CONTINUOUS
 62
    5
 10
1212.4170117350386
 20
1108.4922480620146
 11
1187.4170117350386
 21
1108.4922480620146
  0
LINE
  8
_0-0_
  6
CONTINUOUS
 62
    5
 10
1212.4170117350386
 20
1089.9922480620146
 11
1212.4170117350386
 21
1108.4922480620146
  0
LINE
  8
_0-0_
  6
CONTINUOUS
 62
    5
 10
1213.9170117350386
 20
1089.9922480620146
 11
1212.4170117350386
 21
1089.9922480620146
  0
LINE
  8
_0-0_
  6
CONTINUOUS
 62
    5
 10
1213.9170117350423
 20
1091.9922480620146
 11
1213.9170117350386
 21
1089.9922480620146
  0
LINE
  8
_0-0_
  6
CONTINUOUS
 62
    5
 10
1213.4170117350386
 20
1091.9922480620146
 11
1213.9170117350423
 21
1091.9922480620146
  0
LINE
  8
_0-0_
  6
CONTINUOUS
 62
    5
 10
1213.4170117350386
 20
1106.9922480620146
 11
1213.4170117350386
 21
1091.9922480620146
  0
LINE
  8
_0-0_
  6
CONTINUOUS
 62
    5
 10
1213.9170117350386
 20
1106.9922480620146
 11
1213.4170117350386
 21
1106.9922480620146
  0
LINE
  8
_0-0_
  6
CONTINUOUS
 62
    5
 10
1213.9170117350386
 20
1109.9922480620146
 11
1213.9170117350386
 21
1106.9922480620146
  0
LINE
  8
_0-0_
  6
CONTINUOUS
 62
    5
 10
1212.9170117350386
 20
1109.9922480620146
 11
1213.9170117350386
 21
1109.9922480620146
  0
LINE
  8
_0-0_
  6
CONTINUOUS
 62
    5
 10
1212.4170117350386
 20
1109.4922480620146
 11
1212.9170117350386
 21
1109.9922480620146
  0
LINE
  8
_0-0_
  6
CONTINUOUS
 62
    5
 10
1193.1310968336456
 20
1029.9922480620146
 11
1193.1310968336456
 21
1106.4922480620146
  0
LINE
  8
_0-0_
  6
CONTINUOUS
 62
    5
 10
1196.8810968336456
 20
1029.9922480620146
 11
1196.8810968336456
 21
1106.4922480620146
  0
LINE
  8
_0-0_
  6
CONTINUOUS
 62
    5
 10
1200.6310968336456
 20
1029.9922480620146
 11
1200.6310968336456
 21
1106.4922480620146
  0
LINE
  8
_0-0_
  6
CONTINUOUS
 62
    5
 10
1204.3810968336456
 20
1029.9922480620146
 11
1204.3810968336456
 21
1106.4922480620146
  0
LINE
  8
_0-0_
  6
CONTINUOUS
 62
    5
 10
1208.1310968336456
 20
1029.9922480620146
 11
1208.1310968336456
 21
1106.4922480620146
  0
LINE
  8
_0-0_
  6
CONTINUOUS
 62
    7
 10
1213.9170117350386
 20
1109.9922480620146
 11
1521.4076835609612
 21
1109.9922480620146
  0
LINE
  8
_0-0_
  6
CONTINUOUS
 62
    7
 10
1498.2723873195737
 20
1109.9922480620146
 11
1521.4076835609612
 21
1086.8569518206234
  0
LINE
  8
_0-0_
  6
CONTINUOUS
 62
    7
 10
1491.201319507707
 20
1109.9922480620146
 11
1521.4076835609612
 21
1079.7858840087586
  0
LINE
  8
_0-0_
  6
CONTINUOUS
 62
    7
 10
1484.1302516958403
 20
1109.9922480620146
 11
1521.4076835609612
 21
1072.7148161968937
  0
LINE
  8
_0-0_
  6
CONTINUOUS
 62
    7
 10
1185.9170117350386
 20
1109.9922480620146
 11
1029.925499156112
 21
1109.9922480620146
  0
LINE
  8
_0-0_
  6
CONTINUOUS
 62
    7
 10
1243.7139460924136
 20
1109.9922480620146
 11
1323.7139460924172
 21
1029.9922480620146
  0
LINE
  8
_0-0_
  6
CONTINUOUS
 62
    7
 10
1236.6428782805469
 20
1109.9922480620146
 11
1316.6428782805469
 21
1029.9922480620146
  0
LINE
  8
_0-0_
  6
CONTINUOUS
 62
    7
 10
1229.5718104686839
 20
1109.9922480620146
 11
1309.5718104686839
 21
1029.9922480620128
  0
LINE
  8
_0-0_
  6
CONTINUOUS
 62
    7
 10
1029.925499156112
 20
1029.9922480620128
 11
1523.925499156112
 21
1029.9922480620128
  0
LINE
  8
_0-0_
  6
CONTINUOUS
 62
    5
 10
1029.925499156112
 20
1028.9922480620128
 11
1523.925499156112
 21
1028.9922480620128
  0
LINE
  8
_0-0_
  6
CONTINUOUS
 62
    7
 10
1258.761990701214
 20
1012.1965430140201
 11
1358.4248154697034
 21
1184.8176191388768
  0
POINT
  8
_0-0_
 62
    7
 10
1258.761990701214
 20
1012.1965430140201
  0
TEXT
  8
_0-0_
 62
    7
 10
1360.0522014568578
 20
1173.2479781154937
 40
30
 41
1
 50
0
  1
断熱材
  0
LINE
  8
_0-0_
  6
CONTINUOUS
 62
    7
 10
1196.9749621402698
 20
1098.2932221563162
 11
1274.6619785723178
 21
1232.8510817050621
  0
POINT
  8
_0-0_
 62
    7
 10
1196.9749621402698
 20
1098.2932221563162
  0
TEXT
  8
_0-0_
 62
    7
 10
1276.9942286372298
 20
1218.8285729555348
 40
30
 41
1
 50
0
  1
伸縮目地
  0
LINE
  8
_0-0_
  6
CONTINUOUS
 62
    7
 10
1037.9493312539089
 20
1103.3577326941006
 11
1097.3057404560877
 21
1206.1660491871219
  0
POINT
  8
_0-0_
 62
    7
 10
1037.9493312539089
 20
1103.3577326941006
  0
TEXT
  8
_0-0_
 62
    7
 10
1097.7105555997387
 20
1195.5318244817347
 40
30
 41
1
 50
0
  1
成型緩衝材
  0
LINE
  8
_0-0_
  6
CONTINUOUS
 62
    7
 10
1604.7337118673349
 20
502.14630504284946
 11
1253.75280856475
 21
502.14630504284946
  0
LINE
  8
_0-0_
  6
CONTINUOUS
 62
    6
 10
1253.75280856475
 20
317.64630504284946
 11
1253.75280856475
 21
238.89630504284946
  0
LINE
  8
_0-0_
  6
CONTINUOUS
 62
    6
 10
1253.75280856475
 20
240.36964611649205
 11
1255.2261496383853
 21
238.89630504284946
  0
LINE
  8
_0-0_
  6
CONTINUOUS
 62
    6
 10
1253.7528085647409
 20
272.18945126988842
 11
1287.0459547917835
 21
238.89630504284582
  0
LINE
  8
_0-0_
  6
CONTINUOUS
 62
    6
 10
1253.75280856475
 20
304.00925642327934
 11
1318.8657599451763
 21
238.89630504284946
  0
LINE
  8
_0-0_
  6
CONTINUOUS
 62
    6
 10
1271.9355650985763
 20
317.64630504284582
 11
1350.6855650985763
 21
238.89630504284582
  0
LINE
  8
_0-0_
  6
CONTINUOUS
 62
    6
 10
1303.7553702519672
 20
317.64630504284582
 11
1382.5053702519672
 21
238.89630504284582
  0
LINE
  8
_0-0_
  6
CONTINUOUS
 62
    6
 10
1335.575175405369
 20
317.64630504284946
 11
1414.325175405369
 21
238.89630504284946
  0
LINE
  8
_0-0_
  6
CONTINUOUS
 62
    6
 10
1367.3949805587599
 20
317.64630504284582
 11
1446.1449805587526
 21
238.89630504284946
  0
LINE
  8
_0-0_
  6
CONTINUOUS
 62
    6
 10
1399.2147857121508
 20
317.64630504284582
 11
1477.9647857121508
 21
238.89630504284582
  0
LINE
  8
_0-0_
  6
CONTINUOUS
 62
    6
 10
1431.0345908655436
 20
317.64630504284946
 11
1509.7845908655436
 21
238.89630504284946
  0
LINE
  8
_0-0_
  6
CONTINUOUS
 62
    6
 10
1462.8543960189436
 20
317.64630504284582
 11
1541.6043960189436
 21
238.89630504284582
  0
LINE
  8
_0-0_
  6
CONTINUOUS
 62
    6
 10
1494.6742011723345
 20
317.64630504284582
 11
1573.4242011723345
 21
238.89630504284582
  0
LINE
  8
_0-0_
  6
CONTINUOUS
 62
    6
 10
1510.1359141547127
 20
238.89630504284946
 11
1588.8859141547127
 21
317.64630504284946
  0
LINE
  8
_0-0_
  6
CONTINUOUS
 62
    6
 10
1478.3161090013109
 20
238.89630504284946
 11
1557.0661090013109
 21
317.64630504284946
  0
LINE
  8
_0-0_
  6
CONTINUOUS
 62
    6
 10
1446.4963038479127
 20
238.89630504284582
 11
1525.2463038479127
 21
317.64630504284946
  0
LINE
  8
_0-0_
  6
CONTINUOUS
 62
    6
 10
1414.67649869452
 20
238.89630504284946
 11
1493.42649869452
 21
317.64630504284946
  0
LINE
  8
_0-0_
  6
CONTINUOUS
 62
    6
 10
1382.8566935411272
 20
238.89630504284946
 11
1461.6066935411272
 21
317.64630504284946
  0
LINE
  8
_0-0_
  6
CONTINUOUS
 62
    6
 10
1351.0368883877291
 20
238.89630504284946
 11
1429.7868883877291
 21
317.64630504284582
  0
LINE
  8
_0-0_
  6
CONTINUOUS
 62
    6
 10
1319.2170832343454
 20
238.89630504284946
 11
1397.9670832343454
 21
317.64630504284946
  0
LINE
  8
_0-0_
  6
CONTINUOUS
 62
    6
 10
1287.3972780809436
 20
238.89630504284946
 11
1366.1472780809436
 21
317.64630504284946
  0
LINE
  8
_0-0_
  6
CONTINUOUS
 62
    6
 10
1255.5774729275454
 20
238.89630504284582
 11
1334.3274729275454
 21
317.64630504284582
  0
LINE
  8
_0-0_
  6
CONTINUOUS
 62
    6
 10
1253.7528085647409
 20
268.89144583343955
 11
1302.5076677741527
 21
317.64630504284946
  0
LINE
  8
_0-0_
  6
CONTINUOUS
 62
    6
 10
1253.7528085647409
 20
300.7112509868341
 11
1270.6878626207599
 21
317.64630504284946
  0
LINE
  8
_0-0_
  6
CONTINUOUS
 62
    5
 10
1298.75280856475
 20
502.14630504284946
 11
1298.75280856475
 21
322.14630504284946
  0
LINE
  8
_0-0_
  6
CONTINUOUS
 62
    5
 10
1287.3667958177921
 20
502.14630504284946
 11
1298.75280856475
 21
490.76029229589699
  0
LINE
  8
_0-0_
  6
CONTINUOUS
 62
    5
 10
1274.6388737564321
 20
502.14630504284764
 11
1298.75280856475
 21
478.03237023453698
  0
LINE
  8
_0-0_
  6
CONTINUOUS
 62
    5
 10
1261.9109516950812
 20
502.14630504284946
 11
1298.75280856475
 21
465.3044481731788
  0
LINE
  8
_0-0_
  6
CONTINUOUS
 62
    5
 10
1253.75280856475
 20
497.57652611182607
 11
1298.75280856475
 21
452.57652611182607
  0
LINE
  8
_0-0_
  6
CONTINUOUS
 62
    5
 10
1253.75280856475
 20
484.8486040504697
 11
1298.75280856475
 21
439.8486040504697
  0
LINE
  8
_0-0_
  6
CONTINUOUS
 62
    5
 10
1253.75280856475
 20
472.12068198911334
 11
1298.75280856475
 21
427.12068198911334
  0
LINE
  8
_0-0_
  6
CONTINUOUS
 62
    5
 10
1253.75280856475
 20
459.39275992775333
 11
1298.75280856475
 21
414.39275992774969
  0
LINE
  8
_0-0_
  6
CONTINUOUS
 62
    5
 10
1253.75280856475
 20
446.66483786639151
 11
1298.75280856475
 21
401.66483786639333
  0
LINE
  8
_0-0_
  6
CONTINUOUS
 62
    5
 10
1253.75280856475
 20
433.93691580503332
 11
1298.75280856475
 21
388.93691580503332
  0
LINE
  8
_0-0_
  6
CONTINUOUS
 62
    5
 10
1253.75280856475
 20
421.20899374367514
 11
1298.75280856475
 21
376.20899374367696
  0
LINE
  8
_0-0_
  6
CONTINUOUS
 62
    5
 10
1253.75280856475
 20
408.48107168232059
 11
1298.75280856475
 21
363.48107168232241
  0
LINE
  8
_0-0_
  6
CONTINUOUS
 62
    5
 10
1253.75280856475
 20
395.75314962096058
 11
1298.75280856475
 21
350.7531496209624
  0
LINE
  8
_0-0_
  6
CONTINUOUS
 62
    5
 10
1253.75280856475
 20
383.02522755960604
 11
1298.75280856475
 21
338.02522755960604
  0
LINE
  8
_0-0_
  6
CONTINUOUS
 62
    5
 10
1253.75280856475
 20
370.29730549824967
 11
1298.75280856475
 21
325.29730549824967
  0
LINE
  8
_0-0_
  6
CONTINUOUS
 62
    5
 10
1253.75280856475
 20
357.56938343688967
 11
1289.1758869587848
 21
322.14630504284946
  0
LINE
  8
_0-0_
  6
CONTINUOUS
 62
    5
 10
1253.75280856475
 20
344.84146137552966
 11
1276.4479648974248
 21
322.14630504284946
  0
LINE
  8
_0-0_
  6
CONTINUOUS
 62
    5
 10
1253.75280856475
 20
332.11353931416966
 11
1263.7200428360647
 21
322.14630504284582
  0
LINE
  8
_0-0_
  6
CONTINUOUS
 62
    5
 10
1298.75280856475
 20
502.14630504284946
 11
1253.75280856475
 21
502.14630504284946
  0
LINE
  8
_0-0_
  6
CONTINUOUS
 62
    7
 10
1240.25280856475
 20
216.39630504284946
 11
1240.25280856475
 21
522.14630504284946
  0
LINE
  8
_0-0_
  6
CONTINUOUS
 62
    4
 10
1253.75280856475
 20
522.14630504284946
 11
1253.75280856475
 21
236.64630504284946
  0
LINE
  8
_0-0_
  6
CONTINUOUS
 62
    7
 10
1200.25280856475
 20
417.0158692542675
 11
1240.25280856475
 21
457.0158692542675
  0
LINE
  8
_0-0_
  6
CONTINUOUS
 62
    7
 10
1200.25280856475
 20
401.1059666775684
 11
1240.25280856475
 21
441.1059666775684
  0
LINE
  8
_0-0_
  6
CONTINUOUS
 62
    7
 10
1200.25280856475
 20
385.19606410087113
 11
1240.25280856475
 21
425.19606410087113
  0
LINE
  8
_0-0_
  6
CONTINUOUS
 62
    7
 10
1468.7501268076448
 20
176.39630504284946
 11
1508.7501268076467
 21
216.39630504285128
  0
LINE
  8
_0-0_
  6
CONTINUOUS
 62
    7
 10
1484.6600293843439
 20
176.39630504284946
 11
1524.6600293843439
 21
216.39630504284946
  0
LINE
  8
_0-0_
  6
CONTINUOUS
 62
    7
 10
1500.569931961043
 20
176.39630504284946
 11
1540.569931961043
 21
216.39630504284946
  0
LINE
  8
_0-0_
  6
CONTINUOUS
 62
    7
 10
1298.75280856475
 20
457.28640085235679
 11
1433.892904374261
 21
322.14630504284582
  0
LINE
  8
_0-0_
  6
CONTINUOUS
 62
    7
 10
1298.7528085647464
 20
473.19630342905771
 11
1449.8028069509601
 21
322.14630504284401
  0
LINE
  8
_0-0_
  6
CONTINUOUS
 62
    7
 10
1298.75280856475
 20
489.10620600575135
 11
1465.7127095276555
 21
322.14630504284582
  0
LINE
  8
_0-0_
  6
CONTINUOUS
 62
    7
 10
1240.25280856475
 20
216.39630504284946
 11
1604.7337118673349
 21
216.39630504284946
  0
LINE
  8
_0-0_
  6
CONTINUOUS
 62
    6
 10
1558.3138114791273
 20
317.64630504284582
 11
1604.7337118673349
 21
271.22640465463633
  0
LINE
  8
_0-0_
  6
CONTINUOUS
 62
    6
 10
1573.7755244614946
 20
238.89630504284946
 11
1604.7337118673349
 21
269.85449244868983
  0
LINE
  8
_0-0_
  6
CONTINUOUS
 62
    6
 10
1253.75280856475
 20
238.89630504284946
 11
1604.7337118673349
 21
238.89630504284946
  0
LINE
  8
_0-0_
  6
CONTINUOUS
 62
    6
 10
1526.4940063257363
 20
317.64630504284946
 11
1604.7337118673349
 21
239.40659950125087
  0
LINE
  8
_0-0_
  6
CONTINUOUS
 62
    4
 10
1253.75280856475
 20
236.64630504284946
 11
1604.7337118673349
 21
236.64630504284946
  0
LINE
  8
_0-0_
  6
CONTINUOUS
 62
    6
 10
1541.9557193080964
 20
238.89630504284946
 11
1604.7337118673349
 21
301.67429760208438
  0
LINE
  8
_0-0_
  6
CONTINUOUS
 62
    6
 10
1590.1336166325182
 20
317.64630504284946
 11
1604.7337118673349
 21
303.0462098080327
  0
LINE
  8
_0-0_
  6
CONTINUOUS
 62
    6
 10
1253.75280856475
 20
317.64630504284946
 11
1604.7337118673349
 21
317.64630504284946
  0
LINE
  8
_0-0_
  6
CONTINUOUS
 62
    5
 10
1253.75280856475
 20
319.89630504284582
 11
1604.7337118673349
 21
319.89630504284582
  0
LINE
  8
_0-0_
  6
CONTINUOUS
 62
    7
 10
1253.75280856475
 20
322.14630504284582
 11
1604.7337118673349
 21
322.14630504284582
  0
LINE
  8
_0-0_
  6
CONTINUOUS
 62
    7
 10
1579.2360306130577
 20
216.39630504284946
 11
1622.0341405563304
 21
290.52480593251607
  0
POINT
  8
_0-0_
 62
    7
 10
1579.2360306130577
 20
216.39630504284946
  0
TEXT
  8
_0-0_
 62
    7
 10
1624.6527509754942
 20
282.27189712391851
 40
21.617968000000001
 41
1
 50
0
  1
ﾌﾟﾗｲﾏｰ
  0
LINE
  8
_0-0_
  6
CONTINUOUS
 62
    7
 10
1516.0768972003261
 20
237.86957994240333
 11
1585.2790193087094
 21
357.73117142570959
  0
POINT
  8
_0-0_
 62
    7
 10
1516.0768972003261
 20
237.86957994240333
  0
TEXT
  8
_0-0_
 62
    7
 10
1589.3916335611921
 20
351.00960519065234
 40
21.617968000000001
 41
1
 50
0
  1
ｳﾚﾀﾝ防水
  0
LINE
  8
_0-0_
  6
CONTINUOUS
 62
    7
 10
1483.9707473939307
 20
319.89630504284582
 11
1529.7640991975059
 21
399.21271701551564
  0
POINT
  8
_0-0_
 62
    7
 10
1483.9707473939307
 20
319.89630504284582
  0
TEXT
  8
_0-0_
 62
    7
 10
1532.2033610213275
 20
390.16176142853988
 40
21.617968000000001
 41
1
 50
0
  1
絶縁ﾌｨﾙﾑ
  0
LINE
  8
_0-0_
  6
CONTINUOUS
 62
    7
 10
1462.8769883029654
 20
433.2395384902768
 11
1512.8695732626911
 21
519.82923564222551
  0
POINT
  8
_0-0_
 62
    7
 10
1462.8769883029654
 20
433.2395384902768
  0
TEXT
  8
_0-0_
 62
    7
 10
1516.752222944202
 20
510.0779878966307
 40
21.617968000000001
 41
1
 50
0
  1
保護ｺﾝｸﾘｰﾄ
  0
TEXT
  8
_0-0_
 62
    7
 10
1364.8417252672734
 20
508.31158676085147
 40
21.617968000000001
 41
1
 50
0
  1
成型緩衝材
  0
LINE
  8
_0-0_
  6
CONTINUOUS
 62
    7
 10
1363.755069791494
 20
517.9752260954931
 11
1290.6858052126354
 21
391.41554737321644
  0
POINT
  8
_0-0_
 62
    7
 10
1290.6858052126354
 20
391.41554737321644
  0
LINE
  8
_0-0_
  6
CONTINUOUS
 62
    7
 10
1253.75280856475
 20
513.26659073392079
 11
1267.4813487392603
 21
537.04511982992267
  0
TEXT
  8
_0-0_
 62
    7
 10
1267.1251236662774
 20
537.11320050490508
 40
21.617968000000001
 41
1
 50
0
  1
ﾄｯﾌﾟｺｰﾄ(露出部のみ)
  0
POINT
  8
_0-0_
 62
    7
 10
1253.75280856475
 20
513.26659073392079
  0
LINE
  8
_0-0_
  6
CONTINUOUS
 62
    7
 10
1023.9254991561121
 20
1187.3279057056272
 11
1013.9254991561121
 21
1187.3279057056272
  0
LINE
  8
_0-0_
  6
CONTINUOUS
 62
    7
 10
1013.9254991561121
 20
1187.3279057056272
 11
1013.9254991561121
 21
1177.3279057056272
  0
LINE
  8
_0-0_
  6
CONTINUOUS
 62
    7
 10
1013.9254991561121
 20
1177.3279057056272
 11
1023.9254991561121
 21
1177.3279057056272
  0
LINE
  8
_0-0_
  6
CONTINUOUS
 62
    7
 10
1023.9254991561121
 20
1227.3279057056272
 11
1013.9254991561121
 21
1227.3279057056272
  0
LINE
  8
_0-0_
  6
CONTINUOUS
 62
    7
 10
1013.9254991561121
 20
1227.3279057056272
 11
1013.9254991561121
 21
1237.3279057056272
  0
LINE
  8
_0-0_
  6
CONTINUOUS
 62
    2
 10
1023.925499156112
 20
1187.3279057056272
 11
1023.925499156112
 21
1187.3279057056272
  0
LINE
  8
_0-0_
  6
CONTINUOUS
 62
    2
 10
1023.925499156112
 20
1187.3279057056272
 11
1023.6229474302646
 21
1184.2442698070795
  0
LINE
  8
_0-0_
  6
CONTINUOUS
 62
    2
 10
1023.6229474302646
 20
1184.2442698070795
 11
1023.5927260221484
 21
1181.1024061550363
  0
LINE
  8
_0-0_
  6
CONTINUOUS
 62
    2
 10
1023.5927260221484
 20
1181.1024061550363
 11
1023.8357531939564
 21
1177.997778686705
  0
LINE
  8
_0-0_
  6
CONTINUOUS
 62
    2
 10
1023.8357531939564
 20
1177.997778686705
 11
1023.925499156112
 21
1177.3279057056272
  0
LINE
  8
_0-0_
  6
CONTINUOUS
 62
    2
 10
1023.925499156112
 20
1237.3279057056272
 11
1023.925499156112
 21
1237.3279057056272
  0
LINE
  8
_0-0_
  6
CONTINUOUS
 62
    2
 10
1023.925499156112
 20
1237.3279057056272
 11
1023.6229474302646
 21
1234.2442698070795
  0
LINE
  8
_0-0_
  6
CONTINUOUS
 62
    2
 10
1023.6229474302646
 20
1234.2442698070795
 11
1023.5927260221484
 21
1231.1024061550363
  0
LINE
  8
_0-0_
  6
CONTINUOUS
 62
    2
 10
1023.5927260221484
 20
1231.1024061550363
 11
1023.8357531939564
 21
1227.997778686705
  0
LINE
  8
_0-0_
  6
CONTINUOUS
 62
    2
 10
1023.8357531939564
 20
1227.997778686705
 11
1023.925499156112
 21
1227.3279057056272
  0
LINE
  8
_0-0_
  6
CONTINUOUS
 62
    2
 10
1023.2035117548149
 20
1227.3279057056272
 11
1023.8399114355326
 21
1227.9643053863467
  0
LINE
  8
_0-0_
  6
CONTINUOUS
 62
    2
 10
1020.3750846300692
 20
1227.3279057056272
 11
1023.6149408841167
 21
1230.5677619596747
  0
LINE
  8
_0-0_
  6
CONTINUOUS
 62
    2
 10
1017.5466575053225
 20
1227.3279057056272
 11
1023.5868934154734
 21
1233.368141615779
  0
LINE
  8
_0-0_
  6
CONTINUOUS
 62
    2
 10
1014.7182303805758
 20
1227.3279057056272
 11
1023.8067432478693
 21
1236.4164185729217
  0
LINE
  8
_0-0_
  6
CONTINUOUS
 62
    2
 10
1013.9254991561121
 20
1229.3636016059093
 11
1021.889803255831
 21
1237.3279057056272
  0
LINE
  8
_0-0_
  6
CONTINUOUS
 62
    2
 10
1013.9254991561121
 20
1232.1920287306559
 11
1019.0613761310843
 21
1237.3279057056291
  0
LINE
  8
_0-0_
  6
CONTINUOUS
 62
    2
 10
1013.9254991561121
 20
1235.0204558554026
 11
1016.2329490063377
 21
1237.3279057056291
  0
LINE
  8
_0-0_
  6
CONTINUOUS
 62
    2
 10
1021.2867728755001
 20
1177.3279057056272
 11
1023.6675202459111
 21
1179.7086530760382
  0
LINE
  8
_0-0_
  6
CONTINUOUS
 62
    2
 10
1018.4583457507534
 20
1177.3279057056272
 11
1023.572054308872
 21
1182.4416142637467
  0
LINE
  8
_0-0_
  6
CONTINUOUS
 62
    2
 10
1015.6299186260086
 20
1177.3279057056272
 11
1023.7038788331448
 21
1185.4018659127644
  0
LINE
  8
_0-0_
  6
CONTINUOUS
 62
    2
 10
1013.9254991561121
 20
1178.4519133604783
 11
1022.8014915012619
 21
1187.3279057056272
  0
LINE
  8
_0-0_
  6
CONTINUOUS
 62
    2
 10
1013.9254991561121
 20
1181.280340485225
 11
1019.9730643765153
 21
1187.3279057056272
  0
LINE
  8
_0-0_
  6
CONTINUOUS
 62
    2
 10
1013.9254991561121
 20
1184.1087676099717
 11
1017.1446372517686
 21
1187.3279057056272
  0
LINE
  8
_0-0_
  6
CONTINUOUS
 62
    2
 10
1013.9254991561121
 20
1186.9371947347165
 11
1014.3162101270237
 21
1187.3279057056272
  0
LINE
  8
_0-0_
  6
CONTINUOUS
 62
    2
 10
1023.2035117548149
 20
1227.3279057056272
 11
1023.8399114355326
 21
1227.9643053863467
  0
LINE
  8
_0-0_
  6
CONTINUOUS
 62
    2
 10
1020.3750846300692
 20
1227.3279057056272
 11
1023.6149408841167
 21
1230.5677619596747
  0
LINE
  8
_0-0_
  6
CONTINUOUS
 62
    2
 10
1017.5466575053225
 20
1227.3279057056272
 11
1023.5868934154734
 21
1233.368141615779
  0
LINE
  8
_0-0_
  6
CONTINUOUS
 62
    2
 10
1014.7182303805758
 20
1227.3279057056272
 11
1023.8067432478693
 21
1236.4164185729217
  0
LINE
  8
_0-0_
  6
CONTINUOUS
 62
    2
 10
1013.9254991561121
 20
1229.3636016059093
 11
1021.889803255831
 21
1237.3279057056272
  0
LINE
  8
_0-0_
  6
CONTINUOUS
 62
    2
 10
1013.9254991561121
 20
1232.1920287306559
 11
1019.0613761310843
 21
1237.3279057056291
  0
LINE
  8
_0-0_
  6
CONTINUOUS
 62
    2
 10
1013.9254991561121
 20
1235.0204558554026
 11
1016.2329490063377
 21
1237.3279057056291
  0
LINE
  8
_0-0_
  6
CONTINUOUS
 62
    7
 10
1036.3562552277035
 20
314.2534393290473
 11
1018.3562552277036
 21
314.2534393290473
  0
LINE
  8
_0-0_
  6
CONTINUOUS
 62
    7
 10
1018.3562552277036
 20
314.2534393290473
 11
1018.3562552277036
 21
296.2534393290473
  0
LINE
  8
_0-0_
  6
CONTINUOUS
 62
    7
 10
1018.3562552277036
 20
296.2534393290473
 11
1036.3562552277035
 21
296.2534393290473
  0
LINE
  8
_0-0_
  6
CONTINUOUS
 62
    7
 10
1036.3562552277035
 20
386.2534393290473
 11
1018.3562552277036
 21
386.2534393290473
  0
LINE
  8
_0-0_
  6
CONTINUOUS
 62
    7
 10
1018.3562552277036
 20
386.2534393290473
 11
1018.3562552277036
 21
404.2534393290473
  0
LINE
  8
_0-0_
  6
CONTINUOUS
 62
    2
 10
1036.3562552277033
 20
314.2534393290473
 11
1036.3562552277033
 21
314.2534393290473
  0
LINE
  8
_0-0_
  6
CONTINUOUS
 62
    2
 10
1036.3562552277033
 20
314.2534393290473
 11
1035.811662121178
 21
308.70289471166149
  0
LINE
  8
_0-0_
  6
CONTINUOUS
 62
    2
 10
1035.811662121178
 20
308.70289471166149
 11
1035.757263586569
 21
303.04754013798356
  0
LINE
  8
_0-0_
  6
CONTINUOUS
 62
    2
 10
1035.757263586569
 20
303.04754013798356
 11
1036.1947124958233
 21
297.45921069498729
  0
LINE
  8
_0-0_
  6
CONTINUOUS
 62
    2
 10
1036.1947124958233
 20
297.45921069498729
 11
1036.3562552277033
 21
296.2534393290473
  0
LINE
  8
_0-0_
  6
CONTINUOUS
 62
    2
 10
1036.3562552277033
 20
404.2534393290473
 11
1036.3562552277033
 21
404.2534393290473
  0
LINE
  8
_0-0_
  6
CONTINUOUS
 62
    2
 10
1036.3562552277033
 20
404.2534393290473
 11
1035.811662121178
 21
398.70289471166149
  0
LINE
  8
_0-0_
  6
CONTINUOUS
 62
    2
 10
1035.811662121178
 20
398.70289471166149
 11
1035.757263586569
 21
393.04754013798356
  0
LINE
  8
_0-0_
  6
CONTINUOUS
 62
    2
 10
1035.757263586569
 20
393.04754013798356
 11
1036.1947124958233
 21
387.45921069498729
  0
LINE
  8
_0-0_
  6
CONTINUOUS
 62
    2
 10
1036.1947124958233
 20
387.45921069498729
 11
1036.3562552277033
 21
386.2534393290473
  0
LINE
  8
_0-0_
  6
CONTINUOUS
 62
    2
 10
1035.0566779053688
 20
386.2534393290473
 11
1036.2021973306601
 21
387.39895875433945
  0
LINE
  8
_0-0_
  6
CONTINUOUS
 62
    2
 10
1029.9655090808265
 20
386.2534393290473
 11
1035.7972503381116
 21
392.0851805863324
  0
LINE
  8
_0-0_
  6
CONTINUOUS
 62
    2
 10
1024.8743402562823
 20
386.2534393290473
 11
1035.746764894554
 21
397.12586396731899
  0
LINE
  8
_0-0_
  6
CONTINUOUS
 62
    2
 10
1019.7831714317382
 20
386.2534393290473
 11
1036.1424945928666
 21
402.61276249017578
  0
LINE
  8
_0-0_
  6
CONTINUOUS
 62
    2
 10
1018.3562552277036
 20
389.91769194955418
 11
1032.6920026071975
 21
404.2534393290473
  0
LINE
  8
_0-0_
  6
CONTINUOUS
 62
    2
 10
1018.3562552277036
 20
395.00886077409746
 11
1027.6008337826534
 21
404.25343932904912
  0
LINE
  8
_0-0_
  6
CONTINUOUS
 62
    2
 10
1018.3562552277036
 20
400.10002959864255
 11
1022.5096649581093
 21
404.25343932904912
  0
LINE
  8
_0-0_
  6
CONTINUOUS
 62
    2
 10
1031.6065479226017
 20
296.2534393290473
 11
1035.8918931893413
 21
300.53878459578777
  0
LINE
  8
_0-0_
  6
CONTINUOUS
 62
    2
 10
1026.5153790980576
 20
296.2534393290473
 11
1035.7200545026717
 21
305.45811473366234
  0
LINE
  8
_0-0_
  6
CONTINUOUS
 62
    2
 10
1021.4242102735171
 20
296.2534393290473
 11
1035.9573386463626
 21
310.78656770189377
  0
LINE
  8
_0-0_
  6
CONTINUOUS
 62
    2
 10
1018.3562552277036
 20
298.27665310777888
 11
1034.3330414489728
 21
314.2534393290473
  0
LINE
  8
_0-0_
  6
CONTINUOUS
 62
    2
 10
1018.3562552277036
 20
303.36782193232216
 11
1029.2418726244296
 21
314.2534393290473
  0
LINE
  8
_0-0_
  6
CONTINUOUS
 62
    2
 10
1018.3562552277036
 20
308.45899075686725
 11
1024.1507037998854
 21
314.2534393290473
  0
LINE
  8
_0-0_
  6
CONTINUOUS
 62
    2
 10
1018.3562552277036
 20
313.55015958140689
 11
1019.0595349753449
 21
314.2534393290473
  0
LINE
  8
_0-0_
  6
CONTINUOUS
 62
    2
 10
1035.0566779053688
 20
386.2534393290473
 11
1036.2021973306601
 21
387.39895875433945
  0
LINE
  8
_0-0_
  6
CONTINUOUS
 62
    2
 10
1029.9655090808265
 20
386.2534393290473
 11
1035.7972503381116
 21
392.0851805863324
  0
LINE
  8
_0-0_
  6
CONTINUOUS
 62
    2
 10
1024.8743402562823
 20
386.2534393290473
 11
1035.746764894554
 21
397.12586396731899
  0
LINE
  8
_0-0_
  6
CONTINUOUS
 62
    2
 10
1019.7831714317382
 20
386.2534393290473
 11
1036.1424945928666
 21
402.61276249017578
  0
LINE
  8
_0-0_
  6
CONTINUOUS
 62
    2
 10
1018.3562552277036
 20
389.91769194955418
 11
1032.6920026071975
 21
404.2534393290473
  0
LINE
  8
_0-0_
  6
CONTINUOUS
 62
    2
 10
1018.3562552277036
 20
395.00886077409746
 11
1027.6008337826534
 21
404.25343932904912
  0
LINE
  8
_0-0_
  6
CONTINUOUS
 62
    2
 10
1018.3562552277036
 20
400.10002959864255
 11
1022.5096649581093
 21
404.25343932904912
  0
LINE
  8
_0-0_
  6
CONTINUOUS
 62
    7
 10
1036.3562552277035
 20
217.90440223157498
 11
1036.3562552277035
 21
296.25343932904548
  0
LINE
  8
_0-0_
  6
CONTINUOUS
 62
    7
 10
1036.3562552277035
 20
404.25343932904912
 11
1036.3562552277035
 21
440.25343932904912
  0
LINE
  8
_0-0_
  6
CONTINUOUS
 62
    7
 10
1023.9254991561121
 20
1237.3279057056272
 11
1023.9254991561121
 21
1257.3279057056272
  0
LINE
  8
_0-0_
  6
CONTINUOUS
 62
    7
 10
1023.9254991561121
 20
982.9922480620146
 11
1023.9254991561121
 21
1177.3279057056272
  0
LINE
  8
_0-0_
  6
CONTINUOUS
 62
    7
 10
873.92549915611391
 20
1232.3991718858972
 11
913.14886520765515
 21
1271.6225379374384
  0
LINE
  8
_0-0_
  6
CONTINUOUS
 62
    7
 10
873.92549915611301
 20
1239.4702396977602
 11
906.3163925968903
 21
1271.8611331385375
  0
LINE
  8
_0-0_
  6
CONTINUOUS
 62
    7
 10
873.92549915611301
 20
1246.5413075096251
 11
899.48391998612453
 21
1272.0997283396366
  0
LINE
  8
_0-0_
  6
CONTINUOUS
 62
    4
 10
873.92549915611301
 20
1273.8182537588539
 11
873.92549915611301
 21
1272.9922480620146
  0
LINE
  8
_0-0_
  6
CONTINUOUS
 62
    7
 10
873.92549915611301
 20
1272.9922480620146
 11
873.92549915611301
 21
772.9922480620146
  0
LINE
  8
_0-0_
  6
CONTINUOUS
 62
    7
 10
873.92549915611301
 20
1272.9922480620146
 11
1013.5056235992271
 21
1268.1180027107068
  0
ARC
  8
_0-0_
  6
CONTINUOUS
 62
    4
 10
878.92549915611301
 20
1273.8182537588539
 40
5
 50
87.999999999996774
 51
180
  0
LINE
  8
_0-0_
  6
CONTINUOUS
 62
    4
 10
879.09999663962583
 20
1278.8152078939504
 11
1016.13770120329
 21
1274.0297458012058
  0
LINE
  8
_0-0_
  6
CONTINUOUS
 62
    7
 10
766.35625522770363
 20
468.44925557054671
 11
766.35625522770363
 21
217.90440223157498
  0
LINE
  8
_0-0_
  6
CONTINUOUS
 62
    7
 10
766.35625522770363
 20
468.44925557054671
 11
1017.6004792253117
 21
459.67561393819346
  0
LINE
  8
_0-0_
  6
CONTINUOUS
 62
    4
 10
776.70525019472836
 20
478.89444378125813
 11
1022.3382189126279
 21
470.31675150108754
  0
LINE
  8
_0-0_
  6
CONTINUOUS
 62
    4
 10
766.35625522770363
 20
468.90053551106689
 11
766.35625522770363
 21
468.44925557054671
  0
ARC
  8
_0-0_
  6
CONTINUOUS
 62
    4
 10
776.35625522770363
 20
468.90053551106689
 40
10
 50
88.000000000000426
 51
180.00000000000006
  0
LINE
  8
_0-0_
  6
CONTINUOUS
 62
    7
 10
1059.8339981631198
 20
480.60289814658194
 11
1026.9783672265078
 21
449.96452663362129
  0
POINT
  8
_0-0_
 62
    7
 10
1026.9783672265075
 20
449.96452663362129
  0
TEXT
  8
_0-0_
 62
    7
 10
1061.8614388257301
 20
483.05960208110014
 40
21.617968000000001
 41
1
 50
0
  1
面取り
  0
LINE
  8
_0-0_
  6
CONTINUOUS
 62
    7
 10
672.13606690525205
 20
1553.3565543671132
 11
1706.8525777203668
 21
1553.3565543671132
  0
LINE
  8
_0-0_
  6
CONTINUOUS
 62
    7
 10
672.13606690525205
 20
1633.3565543671132
 11
1706.8525777203668
 21
1633.3565543671132
  0
LINE
  8
_0-0_
  6
CONTINUOUS
 62
    7
 10
672.13606690525205
 20
1473.3565543671132
 11
1706.8525777203668
 21
1473.3565543671132
  0
LINE
  8
_0-0_
  6
CONTINUOUS
 62
    7
 10
1189.4943223128103
 20
1633.3565543671132
 11
1189.4943223128103
 21
1473.3565543671132
  0
TEXT
  8
_0-0_
 62
    7
 10
696.13606690525205
 20
1497.3565543671132
 40
20
 41
1
 50
0
  1
施工部位：パラペット(丸環)
  0
TEXT
  8
_0-0_
 62
    7
 10
1213.4943223128103
 20
1497.3565543671132
 40
20
 41
1
 50
0
  1
下地：コンクリートスラブ
  0
TEXT
  8
_0-0_
 62
    7
 10
1213.4943223128103
 20
1577.3565543671132
 40
20
 41
1
 50
0
  1
構造：ＲＣ造
  0
TEXT
  8
_0-0_
 62
    7
 10
696.13606690525216
 20
1577.3565543671134
 40
20
 41
1
 50
0
  1
図面番号：UPM-10CF-para-03
  0
ARC
  8
_0-0_
  6
CONTINUOUS
 62
    4
 10
1037.925499156112
 20
1227.3279057056272
 40
6
 50
0
 51
90
  0
LINE
  8
_0-0_
  6
CONTINUOUS
 62
    7
 10
1013.9254991561121
 20
1237.3279057056272
 11
1023.9254991561121
 21
1237.3279057056272
  0
ARC
  8
_0-0_
  6
CONTINUOUS
 62
    4
 10
1037.925499156112
 20
1187.3279057056272
 40
6
 50
270
 51
0
  0
LINE
  8
_0-0_
  6
CONTINUOUS
 62
    4
 10
1029.925499156112
 20
1233.3279057056272
 11
1037.925499156112
 21
1233.3279057056272
  0
LINE
  8
_0-0_
  6
CONTINUOUS
 62
    4
 10
1037.925499156112
 20
1181.3279057056272
 11
1029.925499156112
 21
1181.3279057056272
  0
LINE
  8
_0-0_
  6
CONTINUOUS
 62
    4
 10
1029.925499156112
 20
1259.7520630606389
 11
1029.925499156112
 21
1233.3279057056272
  0
LINE
  8
_0-0_
  6
CONTINUOUS
 62
    4
 10
1029.925499156112
 20
1181.3279057056272
 11
1029.925499156112
 21
991.9922480620146
  0
ARC
  8
_0-0_
  6
CONTINUOUS
 62
    4
 10
1061.5562552277036
 20
386.25343932904912
 40
10.800000000000001
 50
0
 51
90
  0
LINE
  8
_0-0_
  6
CONTINUOUS
 62
    7
 10
1018.3562552277036
 20
404.25343932904912
 11
1036.3562552277035
 21
404.25343932904912
  0
ARC
  8
_0-0_
  6
CONTINUOUS
 62
    4
 10
1061.5562552277036
 20
314.25343932904912
 40
10.800000000000001
 50
270
 51
0
  0
LINE
  8
_0-0_
  6
CONTINUOUS
 62
    4
 10
1047.1562552277037
 20
397.05343932904913
 11
1061.5562552277036
 21
397.05343932904913
  0
LINE
  8
_0-0_
  6
CONTINUOUS
 62
    4
 10
1047.1562552277037
 20
303.45343932904916
 11
1061.5562552277036
 21
303.45343932904916
  0
LINE
  8
_0-0_
  6
CONTINUOUS
 62
    4
 10
1047.1562552277046
 20
397.05343932904913
 11
1047.1562552277046
 21
444.61692256806896
  0
LINE
  8
_0-0_
  6
CONTINUOUS
 62
    4
 10
1047.1562552277046
 20
303.45343932904916
 11
1047.1562552277046
 21
217.90440223157498
  0
LINE
  8
_0-0_
  6
CONTINUOUS
 62
    7
 10
1028.0342576073126
 20
392.64314590171762
 11
1063.3285566697423
 21
427.9374449641474
  0
POINT
  8
_0-0_
 62
    7
 10
1028.0342576073126
 20
392.64314590171762
  0
LINE
  8
_0-0_
  6
CONTINUOUS
 62
    7
 10
1026.6511817375854
 20
305.11420157469638
 11
1063.3285566697423
 21
427.9374449641474
  0
POINT
  8
_0-0_
 62
    7
 10
1026.6511817375854
 20
305.11420157469638
  0
TEXT
  8
_0-0_
 62
    7
 10
1066.5627996925703
 20
425.63938450806648
 40
21.617968000000001
 41
1
 50
0
  1
ｼｰﾘﾝｸﾞ
  0
ENDSEC
  0
EOF
