  0
SECTION
  2
HEADER
  9
$ACADVER
  1
AC1009
  9
$INSBASE
 10
0
 20
0
 30
0
  9
$EXTMIN
 10
0
 20
0
  9
$EXTMAX
 10
2378
 20
1682
  9
$LIMMIN
 10
0
 20
0
  9
$LIMMAX
 10
2378
 20
1682
  9
$LTSCALE
 40
1
  0
ENDSEC
  0
SECTION
  2
TABLES
  0
TABLE
  2
LTYPE
 70
     9
  0
LTYPE
  2
CONTINUOUS
 70
    64
  3
実線
 72
    65
 73
     0
 40
0.0
  0
LTYPE
  2
DASHED1
 70
    64
  3
--  --  --  --  --  --  --  --  
 72
    65
 73
     2
 40
2.5
 49
1.25
 49
-1.25
  0
LTYPE
  2
DASHED2
 70
    64
  3
----    ----    ----    ----    
 72
    65
 73
     2
 40
5.0
 49
2.5
 49
-2.5
  0
LTYPE
  2
DASHED3
 70
    64
  3
------  ------  ------  ------  
 72
    65
 73
     2
 40
5.0
 49
3.75
 49
-1.25
  0
LTYPE
  2
CENTER1
 70
    64
  3
----- - ----- - ----- - ----- - 
 72
    65
 73
     4
 40
10.0
 49
6.25
 49
-1.25
 49
1.25
 49
-1.25
  0
LTYPE
  2
CENTER2
 70
    64
  3
----------  --  ----------  --  
 72
    65
 73
     4
 40
20.0
 49
12.5
 49
-2.5
 49
2.5
 49
-2.5
  0
LTYPE
  2
PHANTOM1
 70
    64
  3
--- - - --- - - --- - - --- - - 
 72
    65
 73
     6
 40
10.0
 49
3.25
 49
-1.25
 49
1.25
 49
-1.25
 49
1.25
 49
-1.25
  0
LTYPE
  2
PHANTOM2
 70
    64
  3
--------  -  -  --------  -  -  
 72
    65
 73
     6
 40
20.0
 49
10.0
 49
-2.5
 49
1.25
 49
-2.5
 49
1.25
 49
-2.5
  0
LTYPE
  2
DOT
 70
    64
  3
-   -   -   -   -   -   -   -   
 72
    65
 73
     2
 40
2.5
 49
0.625
 49
-1.875
  0
LTYPE
  2
DUMMY
 70
    64
  3
ダミー
 72
    65
 73
     0
 40
0.0
  0
LTYPE
  2
RAND1
 70
    64
  3
ランダム線1
 72
    65
 73
     4
 40
10.0
 49
1.0
 49
-2.0
 49
3.0
 49
-4.0
  0
LTYPE
  2
RAND2
 70
    64
  3
ランダム線2
 72
    65
 73
     4
 40
14.0
 49
2.0
 49
-3.0
 49
4.0
 49
-5.0
  0
LTYPE
  2
RAND3
 70
    64
  3
ランダム線3
 72
    65
 73
     4
 40
18.0
 49
3.0
 49
-4.0
 49
5.0
 49
-6.0
  0
LTYPE
  2
RAND4
 70
    64
  3
ランダム線4
 72
    65
 73
     4
 40
22.0
 49
4.0
 49
-5.0
 49
6.0
 49
-7.0
  0
LTYPE
  2
RAND5
 70
    64
  3
ランダム線5
 72
    65
 73
     4
 40
26.0
 49
5.0
 49
-6.0
 49
7.0
 49
-8.0
  0
LTYPE
  2
LONG1
 70
    64
  3
----------  --  ----------  --  
 72
    65
 73
     4
 40
40.0
 49
32.5
 49
-2.5
 49
2.5
 49
-2.5
  0
LTYPE
  2
LONG2
 70
    64
  3
--------  -  -  --------  -  -  
 72
    65
 73
     6
 40
40.0
 49
30.0
 49
-2.5
 49
1.25
 49
-2.5
 49
1.25
 49
-2.5
  0
LTYPE
  2
LONG3
 70
    64
  3
+++++++++++++++..+++++++++++++++
 72
    65
 73
     2
 40
40.0
 49
37.5
 49
-2.5
  0
LTYPE
  2
LONG4
 70
    64
  3
+++++++++++++++..+++++++++++++++
 72
    65
 73
     2
 40
80.0
 49
75.0
 49
-5.0
  0
LTYPE
  2
LONG5
 70
    64
  3
----------  --  ----------  --  
 72
    65
 73
     4
 40
60.0
 49
37.5
 49
-7.5
 49
7.5
 49
-7.5
  0
LTYPE
  2
dashed
 70
   64
  3
-------   -------------   ------
 72
   65
 73
    2
 40
7.5
 49
6
 49
-1.5
  0
LTYPE
  2
dashed_spaced
 70
   64
  3
----        --------        ----
 72
   65
 73
    2
 40
12
 49
6
 49
-6
  0
LTYPE
  2
long_dashed_dotted
 70
   64
  3
------------- --- --------------
 72
   65
 73
    4
 40
15.25
 49
12
 49
-1.5
 49
0.25
 49
-1.5
  0
LTYPE
  2
long_dashed_double-dotted
 70
   64
  3
----------- --- --- ------------
 72
   65
 73
    6
 40
17
 49
12
 49
-1.5
 49
0.25
 49
-1.5
 49
0.25
 49
-1.5
  0
LTYPE
  2
long_dashed_triplicate-dotted
 70
   64
  3
--------- --- --- --- ----------
 72
   65
 73
    8
 40
18.75
 49
12
 49
-1.5
 49
0.25
 49
-1.5
 49
0.25
 49
-1.5
 49
0.25
 49
-1.5
  0
LTYPE
  2
dotted
 70
   64
  3
   -       -       -       -    
 72
   65
 73
    2
 40
1.75
 49
0.25
 49
-1.5
  0
LTYPE
  2
chain
 70
   64
  3
-------------- -- --------------
 72
   65
 73
    4
 40
18.5
 49
12
 49
-1.5
 49
3.5
 49
-1.5
  0
LTYPE
  2
chain_double_dash
 70
   64
  3
------------ -- -- -------------
 72
   65
 73
    6
 40
23.5
 49
12
 49
-1.5
 49
3.5
 49
-1.5
 49
3.5
 49
-1.5
  0
LTYPE
  2
dashed_dotted
 70
   64
  3
-----------     -     ----------
 72
   65
 73
    4
 40
9.25
 49
6
 49
-1.5
 49
0.25
 49
-1.5
  0
LTYPE
  2
double-dashed_dotted
 70
   64
  3
------   -----------   -   -----
 72
   65
 73
    6
 40
16.75
 49
6
 49
-1.5
 49
6
 49
-1.5
 49
0.25
 49
-1.5
  0
LTYPE
  2
dashed_double-dotted
 70
   64
  3
---------    -    -    ---------
 72
   65
 73
    6
 40
11
 49
6
 49
-1.5
 49
0.25
 49
-1.5
 49
0.25
 49
-1.5
  0
LTYPE
  2
double-dashed_double-dotted
 70
   64
  3
-----   ---------   -   -   ----
 72
   65
 73
    8
 40
18.5
 49
6
 49
-1.5
 49
6
 49
-1.5
 49
0.25
 49
-1.5
 49
0.25
 49
-1.5
  0
LTYPE
  2
dashed_triplicate-dotted
 70
   64
  3
-------    -    -    -    ------
 72
   65
 73
    8
 40
12.75
 49
6
 49
-1.5
 49
0.25
 49
-1.5
 49
0.25
 49
-1.5
 49
0.25
 49
-1.5
  0
LTYPE
  2
double-dashed_triplicate-dotted
 70
   64
  3
-----  ---------  -  -  -  -----
 72
   65
 73
   10
 40
20.25
 49
6
 49
-1.5
 49
6
 49
-1.5
 49
0.25
 49
-1.5
 49
0.25
 49
-1.5
 49
0.25
 49
-1.5
  0
LTYPE
  2
undefined
 70
   64
  3
--------------------------------
 72
   65
 73
    0
 40
0
  0
ENDTAB
  0
TABLE
  2
STYLE
  5
3
100
AcDbSymbolTable
 70
     1
  0
STYLE
  5
10
100
AcDbSymbolTableRecord
100
AcDbTextStyleTableRecord
  2
STANDARD
 70
     0
 40
0.0
 41
1.0
 50
0.0
 71
     0
 42
0.2
  3
txt
  4
bigfont.shx
  0
STYLE
  5
26
100
AcDbSymbolTableRecord
100
AcDbTextStyleTableRecord
  2
TATEGAKI
 70
    68
 40
0.0
 41
1.0
 50
0.0
 71
     0
 42
1.0
  3
txt
  4
bigfont.shx
  0
ENDTAB
  0
TABLE
  2
LAYER
 70
    2
  0
LAYER
  2
_0-0_
 70
   64
 62
    7
  6
CONTINUOUS
  0
LAYER
  2
ADD_LINE
 70
   64
 62
    7
  6
CONTINUOUS
  0
ENDTAB
  0
ENDSEC
  0
SECTION
  2
BLOCKS
  0
ENDSEC
  0
SECTION
  2
ENTITIES
  0
LINE
  8
_0-0_
  6
CONTINUOUS
 62
    7
 10
1124.4670144048605
 20
439.41937688108135
 11
1084.8728068387254
 21
402.49718100199544
  0
LINE
  8
_0-0_
  6
CONTINUOUS
 62
    7
 10
1124.4670144048605
 20
439.41937688107987
 11
1084.8728068387254
 21
402.49718100199544
  0
POINT
  8
_0-0_
 62
    7
 10
1327.3514986262999
 20
1014.6267189669081
  0
LINE
  8
_0-0_
  6
CONTINUOUS
 62
    7
 10
1327.3514986262999
 20
1014.6267189669081
 11
1420.6894790472725
 21
1176.2928433319005
  0
TEXT
  8
_0-0_
 62
    7
 10
1425.1593990400179
 20
1164.1854385685758
 40
30
 41
1
 50
0
  1
防水層
  0
LINE
  8
_0-0_
  6
CONTINUOUS
 62
    4
 10
1020.1584142960602
 20
1019.2985738126747
 11
1514.1584142960601
 21
1019.2985738126747
  0
LINE
  8
_0-0_
  6
CONTINUOUS
 62
    6
 10
1020.1584142960602
 20
1020.2985738126747
 11
1514.1584142960601
 21
1020.2985738126747
  0
LINE
  8
_0-0_
  6
CONTINUOUS
 62
    7
 10
1511.6405987009093
 20
1055.2985738126747
 11
1020.1584142960602
 21
1055.2985738126747
  0
LINE
  8
_0-0_
  6
CONTINUOUS
 62
    6
 10
1480.7879793815955
 20
1055.2985738126747
 11
1514.1584142960601
 21
1021.928138898212
  0
LINE
  8
_0-0_
  6
CONTINUOUS
 62
    6
 10
1494.9301150053252
 20
1055.2985738126747
 11
1514.1584142960601
 21
1036.0702745219417
  0
LINE
  8
_0-0_
  6
CONTINUOUS
 62
    6
 10
1501.8019874419333
 20
1020.2985738126747
 11
1514.1584142960601
 21
1032.6550006667978
  0
LINE
  8
_0-0_
  6
CONTINUOUS
 62
    6
 10
1509.0722506290585
 20
1055.2985738126747
 11
1514.1584142960601
 21
1050.2124101456732
  0
LINE
  8
_0-0_
  6
CONTINUOUS
 62
    6
 10
1487.6598518182
 20
1020.2985738126747
 11
1514.1584142960601
 21
1046.7971362905294
  0
LINE
  8
_0-0_
  6
CONTINUOUS
 62
    6
 10
1020.1584142960602
 20
1055.2985738126747
 11
1020.1584142960602
 21
1020.2985738126747
  0
LINE
  8
_0-0_
  6
CONTINUOUS
 62
    6
 10
1020.1584142960602
 20
1020.953392067627
 11
1020.8132325510088
 21
1020.2985738126747
  0
LINE
  8
_0-0_
  6
CONTINUOUS
 62
    6
 10
1020.1584142960565
 20
1035.0955276913585
 11
1034.955368174742
 21
1020.2985738126729
  0
LINE
  8
_0-0_
  6
CONTINUOUS
 62
    6
 10
1020.1584142960602
 20
1049.2376633150882
 11
1049.0975037984717
 21
1020.2985738126747
  0
LINE
  8
_0-0_
  6
CONTINUOUS
 62
    6
 10
1028.2396394222051
 20
1055.2985738126729
 11
1063.2396394222051
 21
1020.2985738126729
  0
LINE
  8
_0-0_
  6
CONTINUOUS
 62
    6
 10
1042.3817750459348
 20
1055.2985738126729
 11
1077.3817750459348
 21
1020.2985738126729
  0
LINE
  8
_0-0_
  6
CONTINUOUS
 62
    6
 10
1056.5239106696681
 20
1055.2985738126747
 11
1091.5239106696681
 21
1020.2985738126747
  0
LINE
  8
_0-0_
  6
CONTINUOUS
 62
    6
 10
1070.6660462933978
 20
1055.2985738126729
 11
1105.6660462933942
 21
1020.2985738126747
  0
LINE
  8
_0-0_
  6
CONTINUOUS
 62
    6
 10
1084.8081819171275
 20
1055.2985738126729
 11
1119.8081819171275
 21
1020.2985738126729
  0
LINE
  8
_0-0_
  6
CONTINUOUS
 62
    6
 10
1098.9503175408572
 20
1055.2985738126747
 11
1133.9503175408572
 21
1020.2985738126747
  0
LINE
  8
_0-0_
  6
CONTINUOUS
 62
    6
 10
1113.0924531645906
 20
1055.2985738126729
 11
1148.0924531645906
 21
1020.2985738126729
  0
LINE
  8
_0-0_
  6
CONTINUOUS
 62
    6
 10
1127.2345887883203
 20
1055.2985738126729
 11
1162.2345887883203
 21
1020.2985738126729
  0
LINE
  8
_0-0_
  6
CONTINUOUS
 62
    6
 10
1141.3767244120536
 20
1055.2985738126747
 11
1176.3767244120536
 21
1020.2985738126747
  0
LINE
  8
_0-0_
  6
CONTINUOUS
 62
    6
 10
1155.5188600357833
 20
1055.2985738126729
 11
1190.5188600357797
 21
1020.2985738126747
  0
LINE
  8
_0-0_
  6
CONTINUOUS
 62
    6
 10
1169.660995659513
 20
1055.2985738126747
 11
1204.660995659513
 21
1020.2985738126747
  0
LINE
  8
_0-0_
  6
CONTINUOUS
 62
    6
 10
1183.8031312832427
 20
1055.2985738126747
 11
1218.8031312832427
 21
1020.2985738126747
  0
LINE
  8
_0-0_
  6
CONTINUOUS
 62
    6
 10
1197.945266906976
 20
1055.2985738126729
 11
1232.945266906976
 21
1020.2985738126747
  0
LINE
  8
_0-0_
  6
CONTINUOUS
 62
    6
 10
1212.0874025307057
 20
1055.2985738126747
 11
1247.0874025307057
 21
1020.2985738126747
  0
LINE
  8
_0-0_
  6
CONTINUOUS
 62
    6
 10
1226.2295381544391
 20
1055.2985738126747
 11
1261.2295381544391
 21
1020.2985738126747
  0
LINE
  8
_0-0_
  6
CONTINUOUS
 62
    6
 10
1240.3716737781688
 20
1055.2985738126747
 11
1275.3716737781651
 21
1020.2985738126747
  0
LINE
  8
_0-0_
  6
CONTINUOUS
 62
    6
 10
1254.5138094018985
 20
1055.2985738126747
 11
1289.5138094018985
 21
1020.2985738126747
  0
LINE
  8
_0-0_
  6
CONTINUOUS
 62
    6
 10
1268.6559450256282
 20
1055.2985738126747
 11
1303.6559450256318
 21
1020.2985738126747
  0
LINE
  8
_0-0_
  6
CONTINUOUS
 62
    6
 10
1282.7980806493615
 20
1055.2985738126747
 11
1317.7980806493615
 21
1020.2985738126747
  0
LINE
  8
_0-0_
  6
CONTINUOUS
 62
    6
 10
1296.9402162730912
 20
1055.2985738126747
 11
1331.9402162730912
 21
1020.2985738126747
  0
LINE
  8
_0-0_
  6
CONTINUOUS
 62
    6
 10
1311.0823518968245
 20
1055.2985738126747
 11
1346.0823518968245
 21
1020.2985738126747
  0
LINE
  8
_0-0_
  6
CONTINUOUS
 62
    6
 10
1325.2244875205506
 20
1055.2985738126747
 11
1360.2244875205542
 21
1020.2985738126747
  0
LINE
  8
_0-0_
  6
CONTINUOUS
 62
    6
 10
1339.3666231442839
 20
1055.2985738126747
 11
1374.3666231442839
 21
1020.2985738126747
  0
LINE
  8
_0-0_
  6
CONTINUOUS
 62
    6
 10
1353.5087587680173
 20
1055.2985738126747
 11
1388.5087587680173
 21
1020.2985738126747
  0
LINE
  8
_0-0_
  6
CONTINUOUS
 62
    6
 10
1367.650894391747
 20
1055.2985738126747
 11
1402.650894391747
 21
1020.2985738126747
  0
LINE
  8
_0-0_
  6
CONTINUOUS
 62
    6
 10
1381.7930300154767
 20
1055.2985738126747
 11
1416.7930300154803
 21
1020.2985738126747
  0
LINE
  8
_0-0_
  6
CONTINUOUS
 62
    6
 10
1395.93516563921
 20
1055.2985738126747
 11
1430.93516563921
 21
1020.2985738126747
  0
LINE
  8
_0-0_
  6
CONTINUOUS
 62
    6
 10
1410.0773012629397
 20
1055.2985738126729
 11
1445.0773012629397
 21
1020.2985738126747
  0
LINE
  8
_0-0_
  6
CONTINUOUS
 62
    6
 10
1424.2194368866731
 20
1055.2985738126747
 11
1459.2194368866731
 21
1020.2985738126747
  0
LINE
  8
_0-0_
  6
CONTINUOUS
 62
    6
 10
1438.3615725104028
 20
1055.2985738126747
 11
1473.3615725104028
 21
1020.2985738126747
  0
LINE
  8
_0-0_
  6
CONTINUOUS
 62
    6
 10
1452.5037081341325
 20
1055.2985738126747
 11
1487.5037081341325
 21
1020.2985738126747
  0
LINE
  8
_0-0_
  6
CONTINUOUS
 62
    6
 10
1466.6458437578658
 20
1055.2985738126747
 11
1501.6458437578658
 21
1020.2985738126747
  0
LINE
  8
_0-0_
  6
CONTINUOUS
 62
    6
 10
1473.5177161944739
 20
1020.2985738126729
 11
1508.5177161944739
 21
1055.2985738126729
  0
LINE
  8
_0-0_
  6
CONTINUOUS
 62
    6
 10
1459.3755805707406
 20
1020.2985738126747
 11
1494.3755805707406
 21
1055.2985738126747
  0
LINE
  8
_0-0_
  6
CONTINUOUS
 62
    6
 10
1445.2334449470109
 20
1020.2985738126747
 11
1480.2334449470109
 21
1055.2985738126747
  0
LINE
  8
_0-0_
  6
CONTINUOUS
 62
    6
 10
1431.0913093232775
 20
1020.2985738126729
 11
1466.0913093232775
 21
1055.2985738126729
  0
LINE
  8
_0-0_
  6
CONTINUOUS
 62
    6
 10
1416.9491736995478
 20
1020.2985738126747
 11
1451.9491736995478
 21
1055.2985738126747
  0
LINE
  8
_0-0_
  6
CONTINUOUS
 62
    6
 10
1402.8070380758145
 20
1020.2985738126747
 11
1437.8070380758145
 21
1055.2985738126747
  0
LINE
  8
_0-0_
  6
CONTINUOUS
 62
    6
 10
1388.6649024520884
 20
1020.2985738126747
 11
1423.6649024520884
 21
1055.2985738126747
  0
LINE
  8
_0-0_
  6
CONTINUOUS
 62
    6
 10
1374.5227668283551
 20
1020.2985738126747
 11
1409.5227668283551
 21
1055.2985738126747
  0
LINE
  8
_0-0_
  6
CONTINUOUS
 62
    6
 10
1360.3806312046254
 20
1020.2985738126747
 11
1395.3806312046254
 21
1055.2985738126747
  0
LINE
  8
_0-0_
  6
CONTINUOUS
 62
    6
 10
1346.238495580892
 20
1020.2985738126747
 11
1381.238495580892
 21
1055.2985738126747
  0
LINE
  8
_0-0_
  6
CONTINUOUS
 62
    6
 10
1332.0963599571623
 20
1020.2985738126747
 11
1367.0963599571623
 21
1055.2985738126747
  0
LINE
  8
_0-0_
  6
CONTINUOUS
 62
    6
 10
1317.954224333429
 20
1020.2985738126747
 11
1352.954224333429
 21
1055.2985738126747
  0
LINE
  8
_0-0_
  6
CONTINUOUS
 62
    6
 10
1303.8120887097029
 20
1020.2985738126747
 11
1338.8120887097029
 21
1055.2985738126747
  0
LINE
  8
_0-0_
  6
CONTINUOUS
 62
    6
 10
1289.6699530859696
 20
1020.2985738126747
 11
1324.6699530859696
 21
1055.2985738126747
  0
LINE
  8
_0-0_
  6
CONTINUOUS
 62
    6
 10
1275.5278174622363
 20
1020.2985738126747
 11
1310.5278174622363
 21
1055.2985738126729
  0
LINE
  8
_0-0_
  6
CONTINUOUS
 62
    6
 10
1261.3856818385066
 20
1020.2985738126747
 11
1296.3856818385066
 21
1055.2985738126747
  0
LINE
  8
_0-0_
  6
CONTINUOUS
 62
    6
 10
1247.2435462147769
 20
1020.2985738126747
 11
1282.2435462147769
 21
1055.2985738126747
  0
LINE
  8
_0-0_
  6
CONTINUOUS
 62
    6
 10
1233.1014105910435
 20
1020.2985738126729
 11
1268.1014105910435
 21
1055.2985738126729
  0
LINE
  8
_0-0_
  6
CONTINUOUS
 62
    6
 10
1218.9592749673175
 20
1020.2985738126747
 11
1253.9592749673175
 21
1055.2985738126747
  0
LINE
  8
_0-0_
  6
CONTINUOUS
 62
    6
 10
1204.8171393435841
 20
1020.2985738126747
 11
1239.8171393435841
 21
1055.2985738126747
  0
LINE
  8
_0-0_
  6
CONTINUOUS
 62
    6
 10
1190.6750037198508
 20
1020.2985738126747
 11
1225.6750037198508
 21
1055.2985738126747
  0
LINE
  8
_0-0_
  6
CONTINUOUS
 62
    6
 10
1176.5328680961211
 20
1020.2985738126747
 11
1211.5328680961211
 21
1055.2985738126747
  0
LINE
  8
_0-0_
  6
CONTINUOUS
 62
    6
 10
1162.3907324723914
 20
1020.2985738126747
 11
1197.3907324723914
 21
1055.2985738126747
  0
LINE
  8
_0-0_
  6
CONTINUOUS
 62
    6
 10
1148.2485968486581
 20
1020.2985738126747
 11
1183.2485968486581
 21
1055.2985738126729
  0
LINE
  8
_0-0_
  6
CONTINUOUS
 62
    6
 10
1134.106461224932
 20
1020.2985738126747
 11
1169.106461224932
 21
1055.2985738126747
  0
LINE
  8
_0-0_
  6
CONTINUOUS
 62
    6
 10
1119.9643256011987
 20
1020.2985738126747
 11
1154.9643256011987
 21
1055.2985738126747
  0
LINE
  8
_0-0_
  6
CONTINUOUS
 62
    6
 10
1105.8221899774653
 20
1020.2985738126729
 11
1140.8221899774653
 21
1055.2985738126747
  0
LINE
  8
_0-0_
  6
CONTINUOUS
 62
    6
 10
1091.6800543537356
 20
1020.2985738126747
 11
1126.6800543537356
 21
1055.2985738126747
  0
LINE
  8
_0-0_
  6
CONTINUOUS
 62
    6
 10
1077.5379187300059
 20
1020.2985738126747
 11
1112.5379187300059
 21
1055.2985738126747
  0
LINE
  8
_0-0_
  6
CONTINUOUS
 62
    6
 10
1063.3957831062726
 20
1020.2985738126747
 11
1098.3957831062726
 21
1055.2985738126729
  0
LINE
  8
_0-0_
  6
CONTINUOUS
 62
    6
 10
1049.2536474825465
 20
1020.2985738126747
 11
1084.2536474825465
 21
1055.2985738126747
  0
LINE
  8
_0-0_
  6
CONTINUOUS
 62
    6
 10
1035.1115118588132
 20
1020.2985738126747
 11
1070.1115118588132
 21
1055.2985738126747
  0
LINE
  8
_0-0_
  6
CONTINUOUS
 62
    6
 10
1020.9693762350799
 20
1020.2985738126729
 11
1055.9693762350798
 21
1055.2985738126729
  0
LINE
  8
_0-0_
  6
CONTINUOUS
 62
    6
 10
1020.1584142960565
 20
1033.629747497381
 11
1041.8272406113501
 21
1055.2985738126747
  0
LINE
  8
_0-0_
  6
CONTINUOUS
 62
    6
 10
1020.1584142960565
 20
1047.7718831211125
 11
1027.6851049876204
 21
1055.2985738126747
  0
LINE
  8
_0-0_
  6
CONTINUOUS
 62
    6
 10
1020.1584142960602
 20
1055.2985738126747
 11
1514.1584142960601
 21
1055.2985738126747
  0
LINE
  8
_0-0_
  6
CONTINUOUS
 62
    5
 10
1040.1584142960601
 20
1137.2985738126747
 11
1040.1584142960601
 21
1057.2985738126747
  0
LINE
  8
_0-0_
  6
CONTINUOUS
 62
    5
 10
1035.0979641863014
 20
1137.2985738126747
 11
1040.1584142960601
 21
1132.2381237029178
  0
LINE
  8
_0-0_
  6
CONTINUOUS
 62
    5
 10
1029.4411099368081
 20
1137.2985738126747
 11
1040.1584142960601
 21
1126.5812694534245
  0
LINE
  8
_0-0_
  6
CONTINUOUS
 62
    5
 10
1023.7842556873185
 20
1137.2985738126747
 11
1040.1584142960601
 21
1120.924415203933
  0
LINE
  8
_0-0_
  6
CONTINUOUS
 62
    5
 10
1020.1584142960602
 20
1135.2675609544415
 11
1040.1584142960601
 21
1115.2675609544415
  0
LINE
  8
_0-0_
  6
CONTINUOUS
 62
    5
 10
1020.1584142960602
 20
1129.61070670495
 11
1040.1584142960601
 21
1109.61070670495
  0
LINE
  8
_0-0_
  6
CONTINUOUS
 62
    5
 10
1020.1584142960602
 20
1123.9538524554584
 11
1040.1584142960601
 21
1103.9538524554584
  0
LINE
  8
_0-0_
  6
CONTINUOUS
 62
    5
 10
1020.1584142960602
 20
1118.2969982059651
 11
1040.1584142960601
 21
1098.2969982059633
  0
LINE
  8
_0-0_
  6
CONTINUOUS
 62
    5
 10
1020.1584142960602
 20
1112.64014395647
 11
1040.1584142960601
 21
1092.6401439564718
  0
LINE
  8
_0-0_
  6
CONTINUOUS
 62
    5
 10
1020.1584142960602
 20
1106.9832897069784
 11
1040.1584142960601
 21
1086.9832897069784
  0
LINE
  8
_0-0_
  6
CONTINUOUS
 62
    5
 10
1020.1584142960602
 20
1101.3264354574869
 11
1040.1584142960601
 21
1081.3264354574869
  0
LINE
  8
_0-0_
  6
CONTINUOUS
 62
    5
 10
1020.1584142960602
 20
1095.6695812079954
 11
1040.1584142960601
 21
1075.6695812079954
  0
LINE
  8
_0-0_
  6
CONTINUOUS
 62
    5
 10
1020.1584142960602
 20
1090.0127269585021
 11
1040.1584142960601
 21
1070.0127269585021
  0
LINE
  8
_0-0_
  6
CONTINUOUS
 62
    5
 10
1020.1584142960602
 20
1084.3558727090106
 11
1040.1584142960601
 21
1064.3558727090106
  0
LINE
  8
_0-0_
  6
CONTINUOUS
 62
    5
 10
1020.1584142960602
 20
1078.699018459519
 11
1040.1584142960601
 21
1058.699018459519
  0
LINE
  8
_0-0_
  6
CONTINUOUS
 62
    5
 10
1020.1584142960602
 20
1073.0421642100257
 11
1035.9020046934093
 21
1057.2985738126747
  0
LINE
  8
_0-0_
  6
CONTINUOUS
 62
    5
 10
1020.1584142960602
 20
1067.3853099605324
 11
1030.2451504439159
 21
1057.2985738126747
  0
LINE
  8
_0-0_
  6
CONTINUOUS
 62
    5
 10
1020.1584142960602
 20
1061.728455711039
 11
1024.5882961944226
 21
1057.2985738126729
  0
LINE
  8
_0-0_
  6
CONTINUOUS
 62
    5
 10
1040.1584142960601
 20
1137.2985738126747
 11
1020.1584142960602
 21
1137.2985738126747
  0
LINE
  8
_0-0_
  6
CONTINUOUS
 62
    7
 10
1040.1584142960601
 20
1062.386443898092
 11
1045.2462843814756
 21
1057.2985738126747
  0
LINE
  8
_0-0_
  6
CONTINUOUS
 62
    7
 10
1040.1584142960601
 20
1069.457511709955
 11
1052.3173521933386
 21
1057.2985738126747
  0
LINE
  8
_0-0_
  6
CONTINUOUS
 62
    7
 10
1040.1584142960601
 20
1076.5285795218217
 11
1059.3884200052053
 21
1057.2985738126729
  0
LINE
  8
_0-0_
  6
CONTINUOUS
 62
    5
 10
1200.1499268749867
 20
1133.7985738126747
 11
1200.1499268749867
 21
1057.2985738126747
  0
LINE
  8
_0-0_
  6
CONTINUOUS
 62
    5
 10
1180.1499268749867
 20
1133.7985738126747
 11
1200.1499268749867
 21
1133.7985738126747
  0
LINE
  8
_0-0_
  6
CONTINUOUS
 62
    5
 10
1180.1499268749867
 20
1057.2985738126747
 11
1180.1499268749867
 21
1133.7985738126747
  0
LINE
  8
_0-0_
  6
CONTINUOUS
 62
    5
 10
1179.1499268749867
 20
1135.2985738126747
 11
1201.1499268749867
 21
1135.2985738126747
  0
LINE
  8
_0-0_
  6
CONTINUOUS
 62
    5
 10
1179.1499268749867
 20
1134.2985738126747
 11
1179.1499268749867
 21
1135.2985738126747
  0
LINE
  8
_0-0_
  6
CONTINUOUS
 62
    5
 10
1181.1499268749867
 20
1134.2985738126747
 11
1179.1499268749867
 21
1134.2985738126747
  0
LINE
  8
_0-0_
  6
CONTINUOUS
 62
    5
 10
1181.1499268749867
 20
1133.7985738126747
 11
1181.1499268749867
 21
1134.2985738126747
  0
LINE
  8
_0-0_
  6
CONTINUOUS
 62
    5
 10
1179.1499268749867
 20
1133.7985738126747
 11
1181.1499268749867
 21
1133.7985738126747
  0
LINE
  8
_0-0_
  6
CONTINUOUS
 62
    5
 10
1179.1499268749867
 20
1122.2985738126747
 11
1179.1499268749867
 21
1133.7985738126747
  0
LINE
  8
_0-0_
  6
CONTINUOUS
 62
    5
 10
1179.6499268749867
 20
1122.2985738126747
 11
1179.1499268749867
 21
1122.2985738126747
  0
LINE
  8
_0-0_
  6
CONTINUOUS
 62
    5
 10
1179.1499268749867
 20
1121.2985738126747
 11
1179.6499268749867
 21
1122.2985738126747
  0
LINE
  8
_0-0_
  6
CONTINUOUS
 62
    5
 10
1179.1499268749867
 20
1108.2985738126747
 11
1179.1499268749867
 21
1121.2985738126747
  0
LINE
  8
_0-0_
  6
CONTINUOUS
 62
    5
 10
1179.6499268749867
 20
1108.2985738126747
 11
1179.1499268749867
 21
1108.2985738126747
  0
LINE
  8
_0-0_
  6
CONTINUOUS
 62
    5
 10
1179.1499268749867
 20
1107.2985738126747
 11
1179.6499268749867
 21
1108.2985738126747
  0
LINE
  8
_0-0_
  6
CONTINUOUS
 62
    5
 10
1178.1499268749867
 20
1107.2985738126747
 11
1179.1499268749867
 21
1107.2985738126747
  0
LINE
  8
_0-0_
  6
CONTINUOUS
 62
    5
 10
1178.1499268749867
 20
1133.7985738126747
 11
1178.1499268749867
 21
1107.2985738126747
  0
LINE
  8
_0-0_
  6
CONTINUOUS
 62
    5
 10
1177.6499268749867
 20
1133.7985738126747
 11
1178.1499268749867
 21
1133.7985738126747
  0
LINE
  8
_0-0_
  6
CONTINUOUS
 62
    5
 10
1177.6499268749867
 20
1135.7985738126747
 11
1177.6499268749867
 21
1133.7985738126747
  0
LINE
  8
_0-0_
  6
CONTINUOUS
 62
    5
 10
1202.6499268749867
 20
1135.7985738126747
 11
1177.6499268749867
 21
1135.7985738126747
  0
LINE
  8
_0-0_
  6
CONTINUOUS
 62
    5
 10
1202.6499268749867
 20
1133.7985738126747
 11
1202.6499268749867
 21
1135.7985738126747
  0
LINE
  8
_0-0_
  6
CONTINUOUS
 62
    5
 10
1202.1499268749867
 20
1133.7985738126747
 11
1202.6499268749867
 21
1133.7985738126747
  0
LINE
  8
_0-0_
  6
CONTINUOUS
 62
    5
 10
1202.1499268749867
 20
1107.2985738126747
 11
1202.1499268749867
 21
1133.7985738126747
  0
LINE
  8
_0-0_
  6
CONTINUOUS
 62
    5
 10
1201.1499268749867
 20
1107.2985738126747
 11
1202.1499268749867
 21
1107.2985738126747
  0
LINE
  8
_0-0_
  6
CONTINUOUS
 62
    5
 10
1200.6499268749867
 20
1108.2985738126747
 11
1201.1499268749867
 21
1107.2985738126747
  0
LINE
  8
_0-0_
  6
CONTINUOUS
 62
    5
 10
1201.1499268749867
 20
1108.2985738126747
 11
1200.6499268749867
 21
1108.2985738126747
  0
LINE
  8
_0-0_
  6
CONTINUOUS
 62
    5
 10
1201.1499268749867
 20
1121.2985738126747
 11
1201.1499268749867
 21
1108.2985738126747
  0
LINE
  8
_0-0_
  6
CONTINUOUS
 62
    5
 10
1200.6499268749867
 20
1122.2985738126747
 11
1201.1499268749867
 21
1121.2985738126747
  0
LINE
  8
_0-0_
  6
CONTINUOUS
 62
    5
 10
1201.1499268749867
 20
1122.2985738126747
 11
1200.6499268749867
 21
1122.2985738126747
  0
LINE
  8
_0-0_
  6
CONTINUOUS
 62
    5
 10
1201.1499268749867
 20
1133.7985738126747
 11
1201.1499268749867
 21
1122.2985738126747
  0
LINE
  8
_0-0_
  6
CONTINUOUS
 62
    5
 10
1199.1499268749867
 20
1133.7985738126747
 11
1201.1499268749867
 21
1133.7985738126747
  0
LINE
  8
_0-0_
  6
CONTINUOUS
 62
    5
 10
1199.1499268749867
 20
1134.2985738126747
 11
1199.1499268749867
 21
1133.7985738126747
  0
LINE
  8
_0-0_
  6
CONTINUOUS
 62
    5
 10
1201.1499268749867
 20
1134.2985738126747
 11
1199.1499268749867
 21
1134.2985738126747
  0
LINE
  8
_0-0_
  6
CONTINUOUS
 62
    5
 10
1201.1499268749867
 20
1135.2985738126747
 11
1201.1499268749867
 21
1134.2985738126747
  0
LINE
  8
_0-0_
  6
CONTINUOUS
 62
    5
 10
1190.1499268749867
 20
1136.7985738126747
 11
1202.6499268749867
 21
1136.7985738126747
  0
LINE
  8
_0-0_
  6
CONTINUOUS
 62
    5
 10
1177.6499268749867
 20
1136.7985738126747
 11
1190.1499268749867
 21
1136.7985738126747
  0
LINE
  8
_0-0_
  6
CONTINUOUS
 62
    5
 10
1177.1499268749867
 20
1137.2985738126747
 11
1177.6499268749867
 21
1136.7985738126747
  0
LINE
  8
_0-0_
  6
CONTINUOUS
 62
    5
 10
1176.1499268749867
 20
1137.2985738126747
 11
1177.1499268749867
 21
1137.2985738126747
  0
LINE
  8
_0-0_
  6
CONTINUOUS
 62
    5
 10
1176.1499268749867
 20
1134.2985738126747
 11
1176.1499268749867
 21
1137.2985738126747
  0
LINE
  8
_0-0_
  6
CONTINUOUS
 62
    5
 10
1176.6499268749867
 20
1134.2985738126747
 11
1176.1499268749867
 21
1134.2985738126747
  0
LINE
  8
_0-0_
  6
CONTINUOUS
 62
    5
 10
1176.6499268749867
 20
1119.2985738126747
 11
1176.6499268749867
 21
1134.2985738126747
  0
LINE
  8
_0-0_
  6
CONTINUOUS
 62
    5
 10
1176.1499268749794
 20
1119.2985738126747
 11
1176.6499268749867
 21
1119.2985738126747
  0
LINE
  8
_0-0_
  6
CONTINUOUS
 62
    5
 10
1176.1499268749867
 20
1117.2985738126747
 11
1176.1499268749794
 21
1119.2985738126747
  0
LINE
  8
_0-0_
  6
CONTINUOUS
 62
    5
 10
1177.6499268749867
 20
1117.2985738126747
 11
1176.1499268749867
 21
1117.2985738126747
  0
LINE
  8
_0-0_
  6
CONTINUOUS
 62
    5
 10
1177.6499268749867
 20
1135.7985738126747
 11
1177.6499268749867
 21
1117.2985738126747
  0
LINE
  8
_0-0_
  6
CONTINUOUS
 62
    5
 10
1202.6499268749867
 20
1135.7985738126747
 11
1177.6499268749867
 21
1135.7985738126747
  0
LINE
  8
_0-0_
  6
CONTINUOUS
 62
    5
 10
1202.6499268749867
 20
1117.2985738126747
 11
1202.6499268749867
 21
1135.7985738126747
  0
LINE
  8
_0-0_
  6
CONTINUOUS
 62
    5
 10
1204.1499268749867
 20
1117.2985738126747
 11
1202.6499268749867
 21
1117.2985738126747
  0
LINE
  8
_0-0_
  6
CONTINUOUS
 62
    5
 10
1204.1499268749903
 20
1119.2985738126747
 11
1204.1499268749867
 21
1117.2985738126747
  0
LINE
  8
_0-0_
  6
CONTINUOUS
 62
    5
 10
1203.6499268749867
 20
1119.2985738126747
 11
1204.1499268749903
 21
1119.2985738126747
  0
LINE
  8
_0-0_
  6
CONTINUOUS
 62
    5
 10
1203.6499268749867
 20
1134.2985738126747
 11
1203.6499268749867
 21
1119.2985738126747
  0
LINE
  8
_0-0_
  6
CONTINUOUS
 62
    5
 10
1204.1499268749867
 20
1134.2985738126747
 11
1203.6499268749867
 21
1134.2985738126747
  0
LINE
  8
_0-0_
  6
CONTINUOUS
 62
    5
 10
1204.1499268749867
 20
1137.2985738126747
 11
1204.1499268749867
 21
1134.2985738126747
  0
LINE
  8
_0-0_
  6
CONTINUOUS
 62
    5
 10
1203.1499268749867
 20
1137.2985738126747
 11
1204.1499268749867
 21
1137.2985738126747
  0
LINE
  8
_0-0_
  6
CONTINUOUS
 62
    5
 10
1202.6499268749867
 20
1136.7985738126747
 11
1203.1499268749867
 21
1137.2985738126747
  0
LINE
  8
_0-0_
  6
CONTINUOUS
 62
    5
 10
1183.3640119735937
 20
1057.2985738126747
 11
1183.3640119735937
 21
1133.7985738126747
  0
LINE
  8
_0-0_
  6
CONTINUOUS
 62
    5
 10
1187.1140119735937
 20
1057.2985738126747
 11
1187.1140119735937
 21
1133.7985738126747
  0
LINE
  8
_0-0_
  6
CONTINUOUS
 62
    5
 10
1190.8640119735937
 20
1057.2985738126747
 11
1190.8640119735937
 21
1133.7985738126747
  0
LINE
  8
_0-0_
  6
CONTINUOUS
 62
    5
 10
1194.6140119735937
 20
1057.2985738126747
 11
1194.6140119735937
 21
1133.7985738126747
  0
LINE
  8
_0-0_
  6
CONTINUOUS
 62
    5
 10
1198.3640119735937
 20
1057.2985738126747
 11
1198.3640119735937
 21
1133.7985738126747
  0
LINE
  8
_0-0_
  6
CONTINUOUS
 62
    7
 10
1204.1499268749867
 20
1137.2985738126747
 11
1511.6405987009093
 21
1137.2985738126747
  0
LINE
  8
_0-0_
  6
CONTINUOUS
 62
    7
 10
1488.5053024595218
 20
1137.2985738126747
 11
1511.6405987009093
 21
1114.1632775712835
  0
LINE
  8
_0-0_
  6
CONTINUOUS
 62
    7
 10
1481.4342346476551
 20
1137.2985738126747
 11
1511.6405987009093
 21
1107.0922097594187
  0
LINE
  8
_0-0_
  6
CONTINUOUS
 62
    7
 10
1474.3631668357884
 20
1137.2985738126747
 11
1511.6405987009093
 21
1100.0211419475538
  0
LINE
  8
_0-0_
  6
CONTINUOUS
 62
    7
 10
1176.1499268749867
 20
1137.2985738126747
 11
1020.1584142960602
 21
1137.2985738126747
  0
LINE
  8
_0-0_
  6
CONTINUOUS
 62
    7
 10
1233.9468612323617
 20
1137.2985738126747
 11
1313.9468612323653
 21
1057.2985738126747
  0
LINE
  8
_0-0_
  6
CONTINUOUS
 62
    7
 10
1226.875793420495
 20
1137.2985738126747
 11
1306.875793420495
 21
1057.2985738126747
  0
LINE
  8
_0-0_
  6
CONTINUOUS
 62
    7
 10
1219.804725608632
 20
1137.2985738126747
 11
1299.804725608632
 21
1057.2985738126729
  0
LINE
  8
_0-0_
  6
CONTINUOUS
 62
    7
 10
1020.1584142960602
 20
1057.2985738126729
 11
1514.1584142960601
 21
1057.2985738126729
  0
LINE
  8
_0-0_
  6
CONTINUOUS
 62
    5
 10
1020.1584142960602
 20
1056.2985738126729
 11
1514.1584142960601
 21
1056.2985738126729
  0
LINE
  8
_0-0_
  6
CONTINUOUS
 62
    7
 10
1248.9949058411621
 20
1039.5028687646802
 11
1348.6577306096515
 21
1212.1239448895369
  0
POINT
  8
_0-0_
 62
    7
 10
1248.9949058411621
 20
1039.5028687646802
  0
TEXT
  8
_0-0_
 62
    7
 10
1350.2851165968059
 20
1200.5543038661538
 40
30
 41
1
 50
0
  1
断熱材
  0
LINE
  8
_0-0_
  6
CONTINUOUS
 62
    7
 10
1187.2078772802179
 20
1125.5995479069763
 11
1264.8948937122659
 21
1260.1574074557223
  0
POINT
  8
_0-0_
 62
    7
 10
1187.2078772802179
 20
1125.5995479069763
  0
TEXT
  8
_0-0_
 62
    7
 10
1267.2271437771778
 20
1246.1348987061949
 40
30
 41
1
 50
0
  1
伸縮目地
  0
LINE
  8
_0-0_
  6
CONTINUOUS
 62
    7
 10
1028.182246393857
 20
1130.6640584447607
 11
1087.5386555960358
 21
1233.472374937782
  0
POINT
  8
_0-0_
 62
    7
 10
1028.182246393857
 20
1130.6640584447607
  0
TEXT
  8
_0-0_
 62
    7
 10
1087.9434707396867
 20
1222.8381502323948
 40
30
 41
1
 50
0
  1
成型緩衝材
  0
LINE
  8
_0-0_
  6
CONTINUOUS
 62
    7
 10
1706.8525777203668
 20
1633.3565543671132
 11
1706.8525777203668
 21
167.53106997205509
  0
LINE
  8
_0-0_
  6
CONTINUOUS
 62
    7
 10
672.13606690525205
 20
567.53106997205509
 11
1706.8525777203668
 21
567.53106997205509
  0
LINE
  8
_0-0_
  6
CONTINUOUS
 62
    7
 10
672.13606690525205
 20
167.53106997205509
 11
1706.8525777203668
 21
167.53106997205509
  0
LINE
  8
_0-0_
  6
CONTINUOUS
 62
    7
 10
672.13606690525205
 20
627.53106997205509
 11
1706.8525777203668
 21
627.53106997205509
  0
LINE
  8
_0-0_
  6
CONTINUOUS
 62
    7
 10
1189.4943223128084
 20
627.53106997205509
 11
1189.4943223128084
 21
167.53106997205509
  0
LINE
  8
_0-0_
  6
CONTINUOUS
 62
    7
 10
672.13606690525205
 20
1633.3565543671132
 11
672.13606690525205
 21
167.53106997205509
  0
TEXT
  8
_0-0_
 62
    7
 10
906.73245032900388
 20
575.67973412101242
 40
40
 41
1
 50
0
  1
Ａ
  0
TEXT
  8
_0-0_
 62
    7
 10
1429.6891920142079
 20
576.02721287347708
 40
40
 41
1
 50
0
  1
Ｂ
  0
CIRCLE
  8
_0-0_
  6
DASHED2
 62
    1
 10
940.25894667542173
 20
1284.7795231726661
 40
100
  0
TEXT
  8
_0-0_
 62
    7
 10
922.38363584586853
 20
1375.5189253265446
 40
24
 41
1
 50
0
  1
Ａ
  0
LINE
  8
_0-0_
  6
CONTINUOUS
 62
    4
 10
1020.1584142960602
 20
1287.058388811299
 11
1020.1584142960602
 21
1019.2985738126747
  0
LINE
  8
_0-0_
  6
CONTINUOUS
 62
    7
 10
1014.1584142960602
 20
1010.2985738126747
 11
1014.1584142960602
 21
1284.6342314562892
  0
LINE
  8
_0-0_
  6
CONTINUOUS
 62
    7
 10
1214.1584142960601
 20
830.2985738126747
 11
1514.1584142960601
 21
830.2985738126747
  0
LINE
  8
_0-0_
  6
CONTINUOUS
 62
    7
 10
1325.7060347672304
 20
830.2985738126747
 11
1505.7060347672304
 21
1010.2985738126747
  0
LINE
  8
_0-0_
  6
CONTINUOUS
 62
    7
 10
1332.7771025790935
 20
830.2985738126747
 11
1512.7771025790935
 21
1010.2985738126747
  0
LINE
  8
_0-0_
  6
CONTINUOUS
 62
    7
 10
1339.8481703909638
 20
830.2985738126747
 11
1514.1584142960601
 21
1004.6088177177764
  0
LINE
  8
_0-0_
  6
CONTINUOUS
 62
    7
 10
1014.1584142960602
 20
1010.2985738126747
 11
1514.1584142960601
 21
1010.2985738126747
  0
LINE
  8
_0-0_
  6
CONTINUOUS
 62
    7
 10
864.15841429606019
 20
1033.4313276568621
 11
1014.1584142960602
 21
1183.4313276568621
  0
LINE
  8
_0-0_
  6
CONTINUOUS
 62
    7
 10
864.15841429606019
 20
1040.5023954687269
 11
1014.1584142960602
 21
1190.5023954687269
  0
LINE
  8
_0-0_
  6
CONTINUOUS
 62
    7
 10
1003.7385387391734
 20
1295.4243284613688
 11
1014.1584142960602
 21
1284.6342314562892
  0
LINE
  8
_0-0_
  6
CONTINUOUS
 62
    4
 10
1006.3706163432399
 20
1301.3360715518641
 11
1020.1584142960602
 21
1287.058388811299
  0
LINE
  8
_0-0_
  6
CONTINUOUS
 62
    7
 10
1214.1584142960601
 20
830.2985738126747
 11
1214.1584142960601
 21
800.2985738126747
  0
LINE
  8
_0-0_
  6
CONTINUOUS
 62
    7
 10
864.15841429606019
 20
821.29929330089658
 11
1053.15769480784
 21
1010.2985738126747
  0
LINE
  8
_0-0_
  6
CONTINUOUS
 62
    7
 10
864.15841429606019
 20
814.22822548903173
 11
1060.228762619703
 21
1010.2985738126747
  0
LINE
  8
_0-0_
  6
CONTINUOUS
 62
    7
 10
864.15841429606019
 20
807.15715767716688
 11
1067.2998304315697
 21
1010.2985738126747
  0
LINE
  8
_0-0_
  6
CONTINUOUS
 62
    7
 10
1069.4318647875334
 20
800.2985738126747
 11
1279.4318647875334
 21
1010.2985738126747
  0
LINE
  8
_0-0_
  6
CONTINUOUS
 62
    7
 10
1076.5029325993964
 20
800.2985738126747
 11
1286.5029325993964
 21
1010.2985738126747
  0
LINE
  8
_0-0_
  6
CONTINUOUS
 62
    7
 10
1083.5740004112631
 20
800.2985738126747
 11
1293.5740004112631
 21
1010.2985738126747
  0
CIRCLE
  8
_0-0_
  6
DASHED2
 62
    1
 10
1020.1584142960602
 20
1060.6379725983909
 40
80
  0
TEXT
  8
_0-0_
 62
    7
 10
979.03429253389561
 20
1122.3680724611361
 40
24
 41
1
 50
0
  1
Ｂ
  0
LINE
  8
_0-0_
  6
CONTINUOUS
 62
    7
 10
1606.6366588333367
 20
503.9113507155846
 11
1255.6557555307518
 21
503.9113507155846
  0
LINE
  8
_0-0_
  6
CONTINUOUS
 62
    6
 10
1255.6557555307518
 20
319.4113507155846
 11
1255.6557555307518
 21
240.6613507155846
  0
LINE
  8
_0-0_
  6
CONTINUOUS
 62
    6
 10
1255.6557555307518
 20
242.13469178922719
 11
1257.1290966043871
 21
240.6613507155846
  0
LINE
  8
_0-0_
  6
CONTINUOUS
 62
    6
 10
1255.6557555307427
 20
273.95449694262356
 11
1288.9489017577853
 21
240.66135071558097
  0
LINE
  8
_0-0_
  6
CONTINUOUS
 62
    6
 10
1255.6557555307518
 20
305.77430209601448
 11
1320.768706911178
 21
240.6613507155846
  0
LINE
  8
_0-0_
  6
CONTINUOUS
 62
    6
 10
1273.838512064578
 20
319.41135071558097
 11
1352.588512064578
 21
240.66135071558097
  0
LINE
  8
_0-0_
  6
CONTINUOUS
 62
    6
 10
1305.6583172179689
 20
319.41135071558097
 11
1384.4083172179689
 21
240.66135071558097
  0
LINE
  8
_0-0_
  6
CONTINUOUS
 62
    6
 10
1337.4781223713708
 20
319.4113507155846
 11
1416.2281223713708
 21
240.6613507155846
  0
LINE
  8
_0-0_
  6
CONTINUOUS
 62
    6
 10
1369.2979275247617
 20
319.41135071558097
 11
1448.0479275247544
 21
240.6613507155846
  0
LINE
  8
_0-0_
  6
CONTINUOUS
 62
    6
 10
1401.1177326781526
 20
319.41135071558097
 11
1479.8677326781526
 21
240.66135071558097
  0
LINE
  8
_0-0_
  6
CONTINUOUS
 62
    6
 10
1432.9375378315453
 20
319.4113507155846
 11
1511.6875378315453
 21
240.6613507155846
  0
LINE
  8
_0-0_
  6
CONTINUOUS
 62
    6
 10
1464.7573429849454
 20
319.41135071558097
 11
1543.5073429849454
 21
240.66135071558097
  0
LINE
  8
_0-0_
  6
CONTINUOUS
 62
    6
 10
1496.5771481383363
 20
319.41135071558097
 11
1575.3271481383363
 21
240.66135071558097
  0
LINE
  8
_0-0_
  6
CONTINUOUS
 62
    6
 10
1512.0388611207145
 20
240.6613507155846
 11
1590.7888611207145
 21
319.4113507155846
  0
LINE
  8
_0-0_
  6
CONTINUOUS
 62
    6
 10
1480.2190559673127
 20
240.6613507155846
 11
1558.9690559673127
 21
319.4113507155846
  0
LINE
  8
_0-0_
  6
CONTINUOUS
 62
    6
 10
1448.3992508139145
 20
240.66135071558097
 11
1527.1492508139145
 21
319.4113507155846
  0
LINE
  8
_0-0_
  6
CONTINUOUS
 62
    6
 10
1416.5794456605217
 20
240.6613507155846
 11
1495.3294456605217
 21
319.4113507155846
  0
LINE
  8
_0-0_
  6
CONTINUOUS
 62
    6
 10
1384.759640507129
 20
240.6613507155846
 11
1463.509640507129
 21
319.4113507155846
  0
LINE
  8
_0-0_
  6
CONTINUOUS
 62
    6
 10
1352.9398353537308
 20
240.6613507155846
 11
1431.6898353537308
 21
319.41135071558097
  0
LINE
  8
_0-0_
  6
CONTINUOUS
 62
    6
 10
1321.1200302003472
 20
240.6613507155846
 11
1399.8700302003472
 21
319.4113507155846
  0
LINE
  8
_0-0_
  6
CONTINUOUS
 62
    6
 10
1289.3002250469453
 20
240.6613507155846
 11
1368.0502250469453
 21
319.4113507155846
  0
LINE
  8
_0-0_
  6
CONTINUOUS
 62
    6
 10
1257.4804198935472
 20
240.66135071558097
 11
1336.2304198935472
 21
319.41135071558097
  0
LINE
  8
_0-0_
  6
CONTINUOUS
 62
    6
 10
1255.6557555307427
 20
270.65649150617469
 11
1304.4106147401544
 21
319.4113507155846
  0
LINE
  8
_0-0_
  6
CONTINUOUS
 62
    6
 10
1255.6557555307427
 20
302.47629665956924
 11
1272.5908095867617
 21
319.4113507155846
  0
LINE
  8
_0-0_
  6
CONTINUOUS
 62
    5
 10
1300.6557555307518
 20
503.9113507155846
 11
1300.6557555307518
 21
323.9113507155846
  0
LINE
  8
_0-0_
  6
CONTINUOUS
 62
    5
 10
1289.2697427837938
 20
503.9113507155846
 11
1300.6557555307518
 21
492.52533796863213
  0
LINE
  8
_0-0_
  6
CONTINUOUS
 62
    5
 10
1276.5418207224338
 20
503.91135071558278
 11
1300.6557555307518
 21
479.79741590727212
  0
LINE
  8
_0-0_
  6
CONTINUOUS
 62
    5
 10
1263.8138986610829
 20
503.9113507155846
 11
1300.6557555307518
 21
467.06949384591394
  0
LINE
  8
_0-0_
  6
CONTINUOUS
 62
    5
 10
1255.6557555307518
 20
499.34157178456121
 11
1300.6557555307518
 21
454.34157178456121
  0
LINE
  8
_0-0_
  6
CONTINUOUS
 62
    5
 10
1255.6557555307518
 20
486.61364972320484
 11
1300.6557555307518
 21
441.61364972320484
  0
LINE
  8
_0-0_
  6
CONTINUOUS
 62
    5
 10
1255.6557555307518
 20
473.88572766184848
 11
1300.6557555307518
 21
428.88572766184848
  0
LINE
  8
_0-0_
  6
CONTINUOUS
 62
    5
 10
1255.6557555307518
 20
461.15780560048847
 11
1300.6557555307518
 21
416.15780560048483
  0
LINE
  8
_0-0_
  6
CONTINUOUS
 62
    5
 10
1255.6557555307518
 20
448.42988353912665
 11
1300.6557555307518
 21
403.42988353912847
  0
LINE
  8
_0-0_
  6
CONTINUOUS
 62
    5
 10
1255.6557555307518
 20
435.70196147776846
 11
1300.6557555307518
 21
390.70196147776846
  0
LINE
  8
_0-0_
  6
CONTINUOUS
 62
    5
 10
1255.6557555307518
 20
422.97403941641028
 11
1300.6557555307518
 21
377.9740394164121
  0
LINE
  8
_0-0_
  6
CONTINUOUS
 62
    5
 10
1255.6557555307518
 20
410.24611735505573
 11
1300.6557555307518
 21
365.24611735505755
  0
LINE
  8
_0-0_
  6
CONTINUOUS
 62
    5
 10
1255.6557555307518
 20
397.51819529369573
 11
1300.6557555307518
 21
352.51819529369754
  0
LINE
  8
_0-0_
  6
CONTINUOUS
 62
    5
 10
1255.6557555307518
 20
384.79027323234118
 11
1300.6557555307518
 21
339.79027323234118
  0
LINE
  8
_0-0_
  6
CONTINUOUS
 62
    5
 10
1255.6557555307518
 20
372.06235117098481
 11
1300.6557555307518
 21
327.06235117098481
  0
LINE
  8
_0-0_
  6
CONTINUOUS
 62
    5
 10
1255.6557555307518
 20
359.33442910962481
 11
1291.0788339247865
 21
323.9113507155846
  0
LINE
  8
_0-0_
  6
CONTINUOUS
 62
    5
 10
1255.6557555307518
 20
346.6065070482648
 11
1278.3509118634265
 21
323.9113507155846
  0
LINE
  8
_0-0_
  6
CONTINUOUS
 62
    5
 10
1255.6557555307518
 20
333.8785849869048
 11
1265.6229898020665
 21
323.91135071558097
  0
LINE
  8
_0-0_
  6
CONTINUOUS
 62
    5
 10
1300.6557555307518
 20
503.9113507155846
 11
1255.6557555307518
 21
503.9113507155846
  0
LINE
  8
_0-0_
  6
CONTINUOUS
 62
    7
 10
1242.1557555307518
 20
218.1613507155846
 11
1242.1557555307518
 21
523.9113507155846
  0
LINE
  8
_0-0_
  6
CONTINUOUS
 62
    4
 10
1255.6557555307518
 20
523.9113507155846
 11
1255.6557555307518
 21
238.4113507155846
  0
LINE
  8
_0-0_
  6
CONTINUOUS
 62
    7
 10
1202.1557555307518
 20
418.78091492700264
 11
1242.1557555307518
 21
458.78091492700264
  0
LINE
  8
_0-0_
  6
CONTINUOUS
 62
    7
 10
1202.1557555307518
 20
402.87101235030354
 11
1242.1557555307518
 21
442.87101235030354
  0
LINE
  8
_0-0_
  6
CONTINUOUS
 62
    7
 10
1202.1557555307518
 20
386.96110977360627
 11
1242.1557555307518
 21
426.96110977360627
  0
LINE
  8
_0-0_
  6
CONTINUOUS
 62
    7
 10
1470.6530737736466
 20
178.1613507155846
 11
1510.6530737736484
 21
218.16135071558642
  0
LINE
  8
_0-0_
  6
CONTINUOUS
 62
    7
 10
1486.5629763503457
 20
178.1613507155846
 11
1526.5629763503457
 21
218.1613507155846
  0
LINE
  8
_0-0_
  6
CONTINUOUS
 62
    7
 10
1502.4728789270448
 20
178.1613507155846
 11
1542.4728789270448
 21
218.1613507155846
  0
LINE
  8
_0-0_
  6
CONTINUOUS
 62
    7
 10
1300.6557555307518
 20
459.05144652509193
 11
1435.7958513402627
 21
323.91135071558097
  0
LINE
  8
_0-0_
  6
CONTINUOUS
 62
    7
 10
1300.6557555307481
 20
474.96134910179285
 11
1451.7057539169618
 21
323.91135071557915
  0
LINE
  8
_0-0_
  6
CONTINUOUS
 62
    7
 10
1300.6557555307518
 20
490.87125167848649
 11
1467.6156564936573
 21
323.91135071558097
  0
LINE
  8
_0-0_
  6
CONTINUOUS
 62
    7
 10
1242.1557555307518
 20
218.1613507155846
 11
1606.6366588333367
 21
218.1613507155846
  0
LINE
  8
_0-0_
  6
CONTINUOUS
 62
    6
 10
1560.216758445129
 20
319.41135071558097
 11
1606.6366588333367
 21
272.99145032737147
  0
LINE
  8
_0-0_
  6
CONTINUOUS
 62
    6
 10
1575.6784714274963
 20
240.6613507155846
 11
1606.6366588333367
 21
271.61953812142497
  0
LINE
  8
_0-0_
  6
CONTINUOUS
 62
    6
 10
1255.6557555307518
 20
240.6613507155846
 11
1606.6366588333367
 21
240.6613507155846
  0
LINE
  8
_0-0_
  6
CONTINUOUS
 62
    6
 10
1528.3969532917381
 20
319.4113507155846
 11
1606.6366588333367
 21
241.17164517398601
  0
LINE
  8
_0-0_
  6
CONTINUOUS
 62
    4
 10
1255.6557555307518
 20
238.4113507155846
 11
1606.6366588333367
 21
238.4113507155846
  0
LINE
  8
_0-0_
  6
CONTINUOUS
 62
    6
 10
1543.8586662740981
 20
240.6613507155846
 11
1606.6366588333367
 21
303.43934327481952
  0
LINE
  8
_0-0_
  6
CONTINUOUS
 62
    6
 10
1592.0365635985199
 20
319.4113507155846
 11
1606.6366588333367
 21
304.81125548076784
  0
LINE
  8
_0-0_
  6
CONTINUOUS
 62
    6
 10
1255.6557555307518
 20
319.4113507155846
 11
1606.6366588333367
 21
319.4113507155846
  0
LINE
  8
_0-0_
  6
CONTINUOUS
 62
    5
 10
1255.6557555307518
 20
321.66135071558097
 11
1606.6366588333367
 21
321.66135071558097
  0
LINE
  8
_0-0_
  6
CONTINUOUS
 62
    7
 10
1255.6557555307518
 20
323.91135071558097
 11
1606.6366588333367
 21
323.91135071558097
  0
LINE
  8
_0-0_
  6
CONTINUOUS
 62
    7
 10
1581.1389775790594
 20
218.1613507155846
 11
1623.9370875223321
 21
292.28985160525122
  0
POINT
  8
_0-0_
 62
    7
 10
1581.1389775790594
 20
218.1613507155846
  0
TEXT
  8
_0-0_
 62
    7
 10
1626.555697941496
 20
284.03694279665365
 40
21.617968000000001
 41
1
 50
0
  1
ﾌﾟﾗｲﾏｰ
  0
LINE
  8
_0-0_
  6
CONTINUOUS
 62
    7
 10
1517.9798441663279
 20
239.63462561513848
 11
1587.1819662747112
 21
359.49621709844473
  0
POINT
  8
_0-0_
 62
    7
 10
1517.9798441663279
 20
239.63462561513848
  0
TEXT
  8
_0-0_
 62
    7
 10
1591.2945805271938
 20
352.77465086338748
 40
21.617968000000001
 41
1
 50
0
  1
ｳﾚﾀﾝ防水
  0
LINE
  8
_0-0_
  6
CONTINUOUS
 62
    7
 10
1485.8736943599324
 20
321.66135071558097
 11
1531.6670461635076
 21
400.97776268825078
  0
POINT
  8
_0-0_
 62
    7
 10
1485.8736943599324
 20
321.66135071558097
  0
TEXT
  8
_0-0_
 62
    7
 10
1534.1063079873293
 20
391.92680710127502
 40
21.617968000000001
 41
1
 50
0
  1
絶縁ﾌｨﾙﾑ
  0
LINE
  8
_0-0_
  6
CONTINUOUS
 62
    7
 10
1464.7799352689672
 20
435.00458416301194
 11
1514.7725202286929
 21
521.59428131496065
  0
POINT
  8
_0-0_
 62
    7
 10
1464.7799352689672
 20
435.00458416301194
  0
TEXT
  8
_0-0_
 62
    7
 10
1518.6551699102038
 20
511.84303356936584
 40
21.617968000000001
 41
1
 50
0
  1
保護ｺﾝｸﾘｰﾄ
  0
TEXT
  8
_0-0_
 62
    7
 10
1366.7446722332752
 20
510.07663243358661
 40
21.617968000000001
 41
1
 50
0
  1
成型緩衝材
  0
LINE
  8
_0-0_
  6
CONTINUOUS
 62
    7
 10
1365.6580167574957
 20
519.74027176822824
 11
1292.5887521786372
 21
393.18059304595158
  0
POINT
  8
_0-0_
 62
    7
 10
1292.5887521786372
 20
393.18059304595158
  0
LINE
  8
_0-0_
  6
CONTINUOUS
 62
    7
 10
1255.6557555307518
 20
515.03163640665593
 11
1269.384295705262
 21
538.81016550265781
  0
TEXT
  8
_0-0_
 62
    7
 10
1269.0280706322792
 20
538.87824617764022
 40
21.617968000000001
 41
1
 50
0
  1
ﾄｯﾌﾟｺｰﾄ(露出部のみ)
  0
POINT
  8
_0-0_
 62
    7
 10
1255.6557555307518
 20
515.03163640665593
  0
LINE
  8
_0-0_
  6
CONTINUOUS
 62
    7
 10
672.13606690525205
 20
1633.3565543671132
 11
1706.8525777203668
 21
1633.3565543671132
  0
LINE
  8
_0-0_
  6
CONTINUOUS
 62
    7
 10
672.13606690525205
 20
1553.3565543671132
 11
1706.8525777203668
 21
1553.3565543671132
  0
LINE
  8
_0-0_
  6
CONTINUOUS
 62
    7
 10
672.13606690525205
 20
1473.3565543671132
 11
1706.8525777203668
 21
1473.3565543671132
  0
LINE
  8
_0-0_
  6
CONTINUOUS
 62
    7
 10
1189.4943223128084
 20
1633.3565543671132
 11
1189.4943223128084
 21
1473.3565543671132
  0
TEXT
  8
_0-0_
 62
    7
 10
1213.4943223128084
 20
1577.3565543671132
 40
20
 41
1
 50
0
  1
構造：ＲＣ造
  0
TEXT
  8
_0-0_
 62
    7
 10
1213.4943223128084
 20
1497.3565543671132
 40
20
 41
1
 50
0
  1
下地：コンクリートスラブ
  0
TEXT
  8
_0-0_
 62
    7
 10
696.13606690525205
 20
1577.3565543671134
 40
20
 41
1
 50
0
  1
図面番号：UPM-10CF-para-02
  0
LINE
  8
_0-0_
  6
CONTINUOUS
 62
    3
 10
914.9791910185487
 20
1305.3428813115836
 11
856.65841429606019
 21
1305.3428813115836
  0
LINE
  8
_0-0_
  6
CONTINUOUS
 62
    3
 10
914.9791910185487
 20
1297.8428813115836
 11
864.15841429606019
 21
1297.8428813115836
  0
LINE
  8
_0-0_
  6
CONTINUOUS
 62
    3
 10
864.15841429606019
 20
1297.8428813115836
 11
864.15841429606019
 21
1215.3428813115836
  0
LINE
  8
_0-0_
  6
CONTINUOUS
 62
    3
 10
856.65841429606019
 20
1305.3428813115836
 11
856.65841429606019
 21
1215.3428813115836
  0
LINE
  8
_0-0_
  6
CONTINUOUS
 62
    3
 10
864.15841429606019
 20
1215.3428813115836
 11
856.65841429606019
 21
1215.3428813115836
  0
LINE
  8
_0-0_
  6
CONTINUOUS
 62
    3
 10
864.15841429606019
 20
1207.8428813115836
 11
856.65841429606019
 21
1207.8428813115836
  0
LINE
  8
_0-0_
  6
CONTINUOUS
 62
    3
 10
860.40841429606019
 20
1215.3428813115836
 11
860.40841429606019
 21
1207.8428813115836
  0
LINE
  8
_0-0_
  6
CONTINUOUS
 62
    7
 10
864.15841429606019
 20
1273.847633260287
 11
888.15366234735677
 21
1297.8428813115836
  0
LINE
  8
_0-0_
  6
CONTINUOUS
 62
    7
 10
864.15841429606019
 20
1266.7765654484222
 11
895.22473015922162
 21
1297.8428813115836
  0
LINE
  8
_0-0_
  6
CONTINUOUS
 62
    7
 10
864.1584142960611
 20
1259.7054976365582
 11
902.29579797108647
 21
1297.8428813115836
  0
LINE
  8
_0-0_
  6
CONTINUOUS
 62
    7
 10
929.9791910185487
 20
1298.0000616409818
 11
929.9791910185487
 21
1283.0000616409818
  0
LINE
  8
_0-0_
  6
CONTINUOUS
 62
    7
 10
929.9791910185487
 20
1283.0000616409818
 11
914.9791910185487
 21
1283.0000616409818
  0
LINE
  8
_0-0_
  6
CONTINUOUS
 62
    7
 10
914.9791910185487
 20
1283.0000616409818
 11
914.9791910185487
 21
1298.0000616409818
  0
LINE
  8
_0-0_
  6
CONTINUOUS
 62
    3
 10
914.9791910185487
 20
1305.3428813115836
 11
914.9791910185487
 21
1297.8428813115836
  0
LINE
  8
_0-0_
  6
CONTINUOUS
 62
    4
 10
925.9791910185487
 20
1289.0000616409818
 11
914.9791910185487
 21
1289.0000616409818
  0
LINE
  8
_0-0_
  6
CONTINUOUS
 62
    4
 10
925.9791910185487
 20
1304.1434019847422
 11
925.9791910185487
 21
1289.0000616409818
  0
ARC
  8
_0-0_
  6
CONTINUOUS
 62
    2
 10
932.72365226215254
 20
1417.0327582056254
 40
113.0906472942477
 50
260.97271697893774
 51
266.5809851959296
  0
LINE
  8
_0-0_
  6
CONTINUOUS
 62
    2
 10
924.51706607769859
 20
1289.0000616409818
 11
925.9791910185487
 21
1290.4621865818319
  0
LINE
  8
_0-0_
  6
CONTINUOUS
 62
    2
 10
921.68863895295192
 20
1289.0000616409818
 11
925.9791910185487
 21
1293.2906137065786
  0
LINE
  8
_0-0_
  6
CONTINUOUS
 62
    2
 10
918.86021182820525
 20
1289.0000616409818
 11
925.9791910185487
 21
1296.1190408313253
  0
LINE
  8
_0-0_
  6
CONTINUOUS
 62
    2
 10
916.03178470345949
 20
1289.0000616409809
 11
925.9791910185487
 21
1298.9474679560701
  0
LINE
  8
_0-0_
  6
CONTINUOUS
 62
    2
 10
914.97919101854779
 20
1290.7758950808159
 11
925.9791910185487
 21
1301.7758950808168
  0
LINE
  8
_0-0_
  6
CONTINUOUS
 62
    2
 10
914.97919101854961
 20
1293.6043222055644
 11
925.54504631912926
 21
1304.170177506144
  0
LINE
  8
_0-0_
  6
CONTINUOUS
 62
    2
 10
914.9791910185487
 20
1296.4327493303092
 11
922.91474317420409
 21
1304.3683014859646
  0
LINE
  8
_0-0_
  6
CONTINUOUS
 62
    2
 10
914.9791910185487
 20
1299.261176455055
 11
920.34016896799142
 21
1304.6221544044977
  0
LINE
  8
_0-0_
  6
CONTINUOUS
 62
    2
 10
914.97919101854779
 20
1302.0896035798007
 11
917.81826878366712
 21
1304.9286813449201
  0
LINE
  8
_0-0_
  6
CONTINUOUS
 62
    2
 10
914.97919101854779
 20
1304.9180307045474
 11
915.34633140763901
 21
1305.2851710936386
  0
LINE
  8
_0-0_
  6
CONTINUOUS
 62
    3
 10
860.40841429606019
 20
802.8428813115836
 11
860.40841429606019
 21
795.3428813115836
  0
LINE
  8
_0-0_
  6
CONTINUOUS
 62
    3
 10
864.15841429606019
 20
1132.8428813115836
 11
856.65841429606019
 21
1132.8428813115836
  0
LINE
  8
_0-0_
  6
CONTINUOUS
 62
    3
 10
864.15841429606019
 20
1125.3428813115836
 11
856.65841429606019
 21
1125.3428813115836
  0
LINE
  8
_0-0_
  6
CONTINUOUS
 62
    3
 10
864.15841429606019
 20
1050.3428813115836
 11
856.65841429606019
 21
1050.3428813115836
  0
LINE
  8
_0-0_
  6
CONTINUOUS
 62
    3
 10
864.15841429606019
 20
1042.8428813115836
 11
856.65841429606019
 21
1042.8428813115836
  0
LINE
  8
_0-0_
  6
CONTINUOUS
 62
    3
 10
864.15841429606019
 20
967.8428813115836
 11
856.65841429606019
 21
967.8428813115836
  0
LINE
  8
_0-0_
  6
CONTINUOUS
 62
    3
 10
864.15841429606019
 20
960.3428813115836
 11
856.65841429606019
 21
960.3428813115836
  0
LINE
  8
_0-0_
  6
CONTINUOUS
 62
    3
 10
864.15841429606019
 20
885.3428813115836
 11
856.65841429606019
 21
885.3428813115836
  0
LINE
  8
_0-0_
  6
CONTINUOUS
 62
    3
 10
864.15841429606019
 20
877.8428813115836
 11
856.65841429606019
 21
877.8428813115836
  0
LINE
  8
_0-0_
  6
CONTINUOUS
 62
    3
 10
864.15841429606019
 20
802.8428813115836
 11
856.65841429606019
 21
802.8428813115836
  0
LINE
  8
_0-0_
  6
CONTINUOUS
 62
    3
 10
856.65841429606019
 20
1207.8428813115836
 11
856.65841429606019
 21
1132.8428813115836
  0
LINE
  8
_0-0_
  6
CONTINUOUS
 62
    3
 10
856.65841429606019
 20
1125.3428813115836
 11
856.65841429606019
 21
1050.3428813115836
  0
LINE
  8
_0-0_
  6
CONTINUOUS
 62
    3
 10
864.15841429606019
 20
1207.8428813115836
 11
864.15841429606019
 21
1132.8428813115836
  0
LINE
  8
_0-0_
  6
CONTINUOUS
 62
    3
 10
864.15841429606019
 20
1125.3428813115836
 11
864.15841429606019
 21
1050.3428813115836
  0
LINE
  8
_0-0_
  6
CONTINUOUS
 62
    3
 10
864.15841429606019
 20
1042.8428813115836
 11
864.15841429606019
 21
967.8428813115836
  0
LINE
  8
_0-0_
  6
CONTINUOUS
 62
    3
 10
864.15841429606019
 20
960.3428813115836
 11
864.15841429606019
 21
885.3428813115836
  0
LINE
  8
_0-0_
  6
CONTINUOUS
 62
    3
 10
864.15841429606019
 20
877.8428813115836
 11
864.15841429606019
 21
802.8428813115836
  0
LINE
  8
_0-0_
  6
CONTINUOUS
 62
    3
 10
856.65841429606019
 20
1042.8428813115836
 11
856.65841429606019
 21
967.8428813115836
  0
LINE
  8
_0-0_
  6
CONTINUOUS
 62
    3
 10
856.65841429606019
 20
960.3428813115836
 11
856.65841429606019
 21
885.3428813115836
  0
LINE
  8
_0-0_
  6
CONTINUOUS
 62
    3
 10
856.65841429606019
 20
877.8428813115836
 11
856.65841429606019
 21
802.8428813115836
  0
LINE
  8
_0-0_
  6
CONTINUOUS
 62
    3
 10
860.40841429606019
 20
1132.8428813115836
 11
860.40841429606019
 21
1125.3428813115836
  0
LINE
  8
_0-0_
  6
CONTINUOUS
 62
    3
 10
860.40841429606019
 20
1050.3428813115836
 11
860.40841429606019
 21
1042.8428813115836
  0
LINE
  8
_0-0_
  6
CONTINUOUS
 62
    3
 10
860.40841429606019
 20
967.8428813115836
 11
860.40841429606019
 21
960.3428813115836
  0
LINE
  8
_0-0_
  6
CONTINUOUS
 62
    3
 10
860.40841429606019
 20
885.3428813115836
 11
860.40841429606019
 21
877.8428813115836
  0
LINE
  8
_0-0_
  6
CONTINUOUS
 62
    7
 10
864.15841429606019
 20
1297.8428813115836
 11
864.15841429606019
 21
800.29857381267652
  0
LINE
  8
_0-0_
  6
CONTINUOUS
 62
    7
 10
864.15841429606019
 20
1047.5734632805918
 11
1014.1584142960602
 21
1197.5734632805918
  0
LINE
  8
_0-0_
  6
CONTINUOUS
 62
    7
 10
929.9791910185487
 20
1298.0000616409816
 11
1003.7385387391734
 21
1295.4243284613688
  0
LINE
  8
_0-0_
  6
CONTINUOUS
 62
    4
 10
925.9791910185487
 20
1304.143401984742
 11
1006.3706163432399
 21
1301.3360715518641
  0
TEXT
  8
_0-0_
 62
    7
 10
696.13606690525205
 20
1497.3565543671132
 40
20
 41
1
 50
0
  1
施工部位：パラペット（外壁タイル）
  0
LINE
  8
_0-0_
  6
CONTINUOUS
 62
    2
 10
873.44191446582158
 20
416.90498708782485
 11
891.29690681604575
 21
434.75997943804992
  0
LINE
  8
_0-0_
  6
CONTINUOUS
 62
    4
 10
1110.0951668402224
 20
395.81267592005184
 11
1110.0951668402224
 21
252.65735719276427
  0
LINE
  8
_0-0_
  6
CONTINUOUS
 62
    7
 10
1096.5951668402224
 20
252.65735719276427
 11
1096.5951668402224
 21
390.35832187127977
  0
LINE
  8
_0-0_
  6
CONTINUOUS
 62
    3
 10
873.44191446582158
 20
436.95278404569268
 11
742.22016684022242
 21
436.95278404569268
  0
LINE
  8
_0-0_
  6
CONTINUOUS
 62
    7
 10
1073.1504468372316
 20
414.63604013270793
 11
1096.5951668402224
 21
390.35832187127977
  0
LINE
  8
_0-0_
  6
CONTINUOUS
 62
    4
 10
1079.072621446375
 20
427.93746208632598
 11
1110.0951668402224
 21
395.81267592005184
  0
LINE
  8
_0-0_
  6
CONTINUOUS
 62
    3
 10
873.44191446582158
 20
420.07778404569268
 11
759.09516684022242
 21
420.07778404569268
  0
LINE
  8
_0-0_
  6
CONTINUOUS
 62
    7
 10
759.09516684022242
 20
366.088475930274
 11
813.08447495564019
 21
420.07778404569268
  0
LINE
  8
_0-0_
  6
CONTINUOUS
 62
    7
 10
759.09516684022242
 20
350.17857335357854
 11
828.99437753233565
 21
420.07778404569268
  0
LINE
  8
_0-0_
  6
CONTINUOUS
 62
    7
 10
759.09516684022424
 20
334.26867077688308
 11
844.90428010903111
 21
420.07778404569268
  0
LINE
  8
_0-0_
  6
CONTINUOUS
 62
    7
 10
907.19191446582158
 20
420.43143978683707
 11
907.19191446582158
 21
386.68143978683707
  0
LINE
  8
_0-0_
  6
CONTINUOUS
 62
    7
 10
907.19191446582158
 20
386.68143978683707
 11
873.44191446582158
 21
386.68143978683707
  0
LINE
  8
_0-0_
  6
CONTINUOUS
 62
    7
 10
873.44191446582158
 20
386.68143978683707
 11
873.44191446582158
 21
420.43143978683707
  0
LINE
  8
_0-0_
  6
CONTINUOUS
 62
    3
 10
873.44191446582158
 20
436.95278404569268
 11
873.44191446582158
 21
420.07778404569268
  0
LINE
  8
_0-0_
  6
CONTINUOUS
 62
    7
 10
1073.1504468372316
 20
414.63604013270793
 11
907.19191446582158
 21
420.43143978683707
  0
LINE
  8
_0-0_
  6
CONTINUOUS
 62
    4
 10
898.19191446582158
 20
434.25395556029849
 11
1079.072621446375
 21
427.93746208632598
  0
LINE
  8
_0-0_
  6
CONTINUOUS
 62
    4
 10
898.19191446582158
 20
400.18143978683707
 11
873.44191446582158
 21
400.18143978683707
  0
LINE
  8
_0-0_
  6
CONTINUOUS
 62
    4
 10
898.19191446582158
 20
434.25395556029849
 11
898.19191446582158
 21
400.18143978683707
  0
ARC
  8
_0-0_
  6
CONTINUOUS
 62
    2
 10
913.36695226393044
 20
688.25500705728564
 40
254.45395641205732
 50
260.97271697893774
 51
266.5809851959296
  0
LINE
  8
_0-0_
  6
CONTINUOUS
 62
    2
 10
894.90213334890927
 20
400.18143978683707
 11
898.19191446582158
 21
403.47122090375029
  0
LINE
  8
_0-0_
  6
CONTINUOUS
 62
    2
 10
888.53817231822927
 20
400.18143978683707
 11
898.19191446582158
 21
409.8351819344303
  0
LINE
  8
_0-0_
  6
CONTINUOUS
 62
    2
 10
882.17421128754927
 20
400.18143978683707
 11
898.19191446582158
 21
416.1991429651103
  0
LINE
  8
_0-0_
  6
CONTINUOUS
 62
    2
 10
875.81025025687109
 20
400.18143978683526
 11
898.19191446582158
 21
422.56310399578666
  0
LINE
  8
_0-0_
  6
CONTINUOUS
 62
    2
 10
873.44191446581976
 20
404.17706502646485
 11
898.19191446582158
 21
428.92706502646485
  0
LINE
  8
_0-0_
  6
CONTINUOUS
 62
    2
 10
873.4419144658234
 20
410.54102605714667
 11
897.21508889212805
 21
434.31420048345223
  0
LINE
  8
_0-0_
  6
CONTINUOUS
 62
    2
 10
873.44191446582158
 20
423.26894811850303
 11
885.50411485206791
 21
435.33114850474755
  0
LINE
  8
_0-0_
  6
CONTINUOUS
 62
    2
 10
873.44191446581976
 20
429.63290914918122
 11
879.82983943733802
 21
436.02083412069857
  0
LINE
  8
_0-0_
  6
CONTINUOUS
 62
    2
 10
873.44191446581976
 20
435.9968701798594
 11
874.26798034127501
 21
436.82293605531464
  0
LINE
  8
_0-0_
  6
CONTINUOUS
 62
    3
 10
742.22016684022242
 20
436.95278404569268
 11
742.22016684022242
 21
252.65735719276427
  0
LINE
  8
_0-0_
  6
CONTINUOUS
 62
    3
 10
759.09516684022242
 20
420.07778404569268
 11
759.09516684022242
 21
252.65735719276427
  0
POINT
  8
_0-0_
 62
    7
 10
884.24025387602364
 20
415.6703102254674
  0
POINT
  8
_0-0_
 62
    7
 10
1084.8728068387254
 20
402.49718100199544
  0
LINE
  8
_0-0_
  6
CONTINUOUS
 62
    7
 10
884.24025387602364
 20
415.6703102254674
 11
941.65834394223407
 21
515.12135949370759
  0
TEXT
  8
_0-0_
 62
    7
 10
1092.9196254285071
 20
441.38736954046828
 40
21.617968000000001
 41
1
 50
0
  1
面取り
  0
TEXT
  8
_0-0_
 62
    7
 10
914.19221231603001
 20
517.37707214603051
 40
21.617968000000001
 41
1
 50
0
  1
ｼｰﾘﾝｸﾞ
  0
ENDSEC
  0
EOF
