  0
SECTION
  2
HEADER
  9
$ACADVER
  1
AC1009
  9
$INSBASE
 10
0
 20
0
 30
0
  9
$EXTMIN
 10
0
 20
0
  9
$EXTMAX
 10
2378
 20
1682
  9
$LIMMIN
 10
0
 20
0
  9
$LIMMAX
 10
2378
 20
1682
  9
$LTSCALE
 40
1
  0
ENDSEC
  0
SECTION
  2
TABLES
  0
TABLE
  2
LTYPE
 70
     9
  0
LTYPE
  2
CONTINUOUS
 70
    64
  3
実線
 72
    65
 73
     0
 40
0.0
  0
LTYPE
  2
DASHED1
 70
    64
  3
--  --  --  --  --  --  --  --  
 72
    65
 73
     2
 40
2.5
 49
1.25
 49
-1.25
  0
LTYPE
  2
DASHED2
 70
    64
  3
----    ----    ----    ----    
 72
    65
 73
     2
 40
5.0
 49
2.5
 49
-2.5
  0
LTYPE
  2
DASHED3
 70
    64
  3
------  ------  ------  ------  
 72
    65
 73
     2
 40
5.0
 49
3.75
 49
-1.25
  0
LTYPE
  2
CENTER1
 70
    64
  3
----- - ----- - ----- - ----- - 
 72
    65
 73
     4
 40
10.0
 49
6.25
 49
-1.25
 49
1.25
 49
-1.25
  0
LTYPE
  2
CENTER2
 70
    64
  3
----------  --  ----------  --  
 72
    65
 73
     4
 40
20.0
 49
12.5
 49
-2.5
 49
2.5
 49
-2.5
  0
LTYPE
  2
PHANTOM1
 70
    64
  3
--- - - --- - - --- - - --- - - 
 72
    65
 73
     6
 40
10.0
 49
3.25
 49
-1.25
 49
1.25
 49
-1.25
 49
1.25
 49
-1.25
  0
LTYPE
  2
PHANTOM2
 70
    64
  3
--------  -  -  --------  -  -  
 72
    65
 73
     6
 40
20.0
 49
10.0
 49
-2.5
 49
1.25
 49
-2.5
 49
1.25
 49
-2.5
  0
LTYPE
  2
DOT
 70
    64
  3
-   -   -   -   -   -   -   -   
 72
    65
 73
     2
 40
2.5
 49
0.625
 49
-1.875
  0
LTYPE
  2
DUMMY
 70
    64
  3
ダミー
 72
    65
 73
     0
 40
0.0
  0
LTYPE
  2
RAND1
 70
    64
  3
ランダム線1
 72
    65
 73
     4
 40
10.0
 49
1.0
 49
-2.0
 49
3.0
 49
-4.0
  0
LTYPE
  2
RAND2
 70
    64
  3
ランダム線2
 72
    65
 73
     4
 40
14.0
 49
2.0
 49
-3.0
 49
4.0
 49
-5.0
  0
LTYPE
  2
RAND3
 70
    64
  3
ランダム線3
 72
    65
 73
     4
 40
18.0
 49
3.0
 49
-4.0
 49
5.0
 49
-6.0
  0
LTYPE
  2
RAND4
 70
    64
  3
ランダム線4
 72
    65
 73
     4
 40
22.0
 49
4.0
 49
-5.0
 49
6.0
 49
-7.0
  0
LTYPE
  2
RAND5
 70
    64
  3
ランダム線5
 72
    65
 73
     4
 40
26.0
 49
5.0
 49
-6.0
 49
7.0
 49
-8.0
  0
LTYPE
  2
LONG1
 70
    64
  3
----------  --  ----------  --  
 72
    65
 73
     4
 40
40.0
 49
32.5
 49
-2.5
 49
2.5
 49
-2.5
  0
LTYPE
  2
LONG2
 70
    64
  3
--------  -  -  --------  -  -  
 72
    65
 73
     6
 40
40.0
 49
30.0
 49
-2.5
 49
1.25
 49
-2.5
 49
1.25
 49
-2.5
  0
LTYPE
  2
LONG3
 70
    64
  3
+++++++++++++++..+++++++++++++++
 72
    65
 73
     2
 40
40.0
 49
37.5
 49
-2.5
  0
LTYPE
  2
LONG4
 70
    64
  3
+++++++++++++++..+++++++++++++++
 72
    65
 73
     2
 40
80.0
 49
75.0
 49
-5.0
  0
LTYPE
  2
LONG5
 70
    64
  3
----------  --  ----------  --  
 72
    65
 73
     4
 40
60.0
 49
37.5
 49
-7.5
 49
7.5
 49
-7.5
  0
LTYPE
  2
dashed
 70
   64
  3
-------   -------------   ------
 72
   65
 73
    2
 40
7.5
 49
6
 49
-1.5
  0
LTYPE
  2
dashed_spaced
 70
   64
  3
----        --------        ----
 72
   65
 73
    2
 40
12
 49
6
 49
-6
  0
LTYPE
  2
long_dashed_dotted
 70
   64
  3
------------- --- --------------
 72
   65
 73
    4
 40
15.25
 49
12
 49
-1.5
 49
0.25
 49
-1.5
  0
LTYPE
  2
long_dashed_double-dotted
 70
   64
  3
----------- --- --- ------------
 72
   65
 73
    6
 40
17
 49
12
 49
-1.5
 49
0.25
 49
-1.5
 49
0.25
 49
-1.5
  0
LTYPE
  2
long_dashed_triplicate-dotted
 70
   64
  3
--------- --- --- --- ----------
 72
   65
 73
    8
 40
18.75
 49
12
 49
-1.5
 49
0.25
 49
-1.5
 49
0.25
 49
-1.5
 49
0.25
 49
-1.5
  0
LTYPE
  2
dotted
 70
   64
  3
   -       -       -       -    
 72
   65
 73
    2
 40
1.75
 49
0.25
 49
-1.5
  0
LTYPE
  2
chain
 70
   64
  3
-------------- -- --------------
 72
   65
 73
    4
 40
18.5
 49
12
 49
-1.5
 49
3.5
 49
-1.5
  0
LTYPE
  2
chain_double_dash
 70
   64
  3
------------ -- -- -------------
 72
   65
 73
    6
 40
23.5
 49
12
 49
-1.5
 49
3.5
 49
-1.5
 49
3.5
 49
-1.5
  0
LTYPE
  2
dashed_dotted
 70
   64
  3
-----------     -     ----------
 72
   65
 73
    4
 40
9.25
 49
6
 49
-1.5
 49
0.25
 49
-1.5
  0
LTYPE
  2
double-dashed_dotted
 70
   64
  3
------   -----------   -   -----
 72
   65
 73
    6
 40
16.75
 49
6
 49
-1.5
 49
6
 49
-1.5
 49
0.25
 49
-1.5
  0
LTYPE
  2
dashed_double-dotted
 70
   64
  3
---------    -    -    ---------
 72
   65
 73
    6
 40
11
 49
6
 49
-1.5
 49
0.25
 49
-1.5
 49
0.25
 49
-1.5
  0
LTYPE
  2
double-dashed_double-dotted
 70
   64
  3
-----   ---------   -   -   ----
 72
   65
 73
    8
 40
18.5
 49
6
 49
-1.5
 49
6
 49
-1.5
 49
0.25
 49
-1.5
 49
0.25
 49
-1.5
  0
LTYPE
  2
dashed_triplicate-dotted
 70
   64
  3
-------    -    -    -    ------
 72
   65
 73
    8
 40
12.75
 49
6
 49
-1.5
 49
0.25
 49
-1.5
 49
0.25
 49
-1.5
 49
0.25
 49
-1.5
  0
LTYPE
  2
double-dashed_triplicate-dotted
 70
   64
  3
-----  ---------  -  -  -  -----
 72
   65
 73
   10
 40
20.25
 49
6
 49
-1.5
 49
6
 49
-1.5
 49
0.25
 49
-1.5
 49
0.25
 49
-1.5
 49
0.25
 49
-1.5
  0
LTYPE
  2
undefined
 70
   64
  3
--------------------------------
 72
   65
 73
    0
 40
0
  0
ENDTAB
  0
TABLE
  2
STYLE
  5
3
100
AcDbSymbolTable
 70
     1
  0
STYLE
  5
10
100
AcDbSymbolTableRecord
100
AcDbTextStyleTableRecord
  2
STANDARD
 70
     0
 40
0.0
 41
1.0
 50
0.0
 71
     0
 42
0.2
  3
txt
  4
bigfont.shx
  0
STYLE
  5
26
100
AcDbSymbolTableRecord
100
AcDbTextStyleTableRecord
  2
TATEGAKI
 70
    68
 40
0.0
 41
1.0
 50
0.0
 71
     0
 42
1.0
  3
txt
  4
bigfont.shx
  0
ENDTAB
  0
TABLE
  2
LAYER
 70
    2
  0
LAYER
  2
_0-0_
 70
   64
 62
    7
  6
CONTINUOUS
  0
LAYER
  2
ADD_LINE
 70
   64
 62
    7
  6
CONTINUOUS
  0
ENDTAB
  0
ENDSEC
  0
SECTION
  2
BLOCKS
  0
ENDSEC
  0
SECTION
  2
ENTITIES
  0
LINE
  8
_0-0_
  6
CONTINUOUS
 62
    7
 10
672.13606690525205
 20
167.53106997205509
 11
1706.8525777203668
 21
167.53106997205509
  0
LINE
  8
_0-0_
  6
CONTINUOUS
 62
    7
 10
672.13606690525205
 20
1633.3565543671132
 11
672.13606690525205
 21
167.53106997205509
  0
LINE
  8
_0-0_
  6
CONTINUOUS
 62
    7
 10
1706.8525777203668
 20
1633.3565543671132
 11
1706.8525777203668
 21
167.53106997205509
  0
LINE
  8
_0-0_
  6
CONTINUOUS
 62
    7
 10
1213.2947397710591
 20
854.31747187773249
 11
1293.2947397710591
 21
774.31747187773249
  0
LINE
  8
_0-0_
  6
CONTINUOUS
 62
    7
 10
1547.1200268862226
 20
854.31747187773431
 11
844.38003188622258
 21
854.31747187773431
  0
LINE
  8
_0-0_
  6
CONTINUOUS
 62
    7
 10
972.87843416763224
 20
854.31747187773431
 11
1052.8784341676323
 21
774.31747187773431
  0
LINE
  8
_0-0_
  6
CONTINUOUS
 62
    7
 10
965.80736635576557
 20
854.31747187773431
 11
1045.8073663557657
 21
774.31747187773431
  0
LINE
  8
_0-0_
  6
CONTINUOUS
 62
    7
 10
958.73629854390072
 20
854.31747187773249
 11
1038.7362985439008
 21
774.31747187773249
  0
LINE
  8
_0-0_
  6
CONTINUOUS
 62
    7
 10
943.08149981025542
 20
854.31747187773431
 11
1253.0899872313271
 21
854.31747187773431
  0
LINE
  8
_0-0_
  6
CONTINUOUS
 62
    5
 10
939.08149981025542
 20
850.81747187773431
 11
939.08149981025542
 21
774.31747187773431
  0
LINE
  8
_0-0_
  6
CONTINUOUS
 62
    5
 10
919.08149981025542
 20
850.81747187773431
 11
939.08149981025542
 21
850.81747187773431
  0
LINE
  8
_0-0_
  6
CONTINUOUS
 62
    5
 10
919.08149981025542
 20
774.31747187773431
 11
919.08149981025542
 21
850.81747187773431
  0
LINE
  8
_0-0_
  6
CONTINUOUS
 62
    5
 10
918.08149981025542
 20
852.31747187773431
 11
940.08149981025542
 21
852.31747187773431
  0
LINE
  8
_0-0_
  6
CONTINUOUS
 62
    5
 10
918.08149981025542
 20
851.31747187773431
 11
918.08149981025542
 21
852.31747187773431
  0
LINE
  8
_0-0_
  6
CONTINUOUS
 62
    5
 10
920.08149981025542
 20
851.31747187773431
 11
918.08149981025542
 21
851.31747187773431
  0
LINE
  8
_0-0_
  6
CONTINUOUS
 62
    5
 10
920.08149981025542
 20
850.81747187773431
 11
920.08149981025542
 21
851.31747187773431
  0
LINE
  8
_0-0_
  6
CONTINUOUS
 62
    5
 10
918.08149981025542
 20
850.81747187773431
 11
920.08149981025542
 21
850.81747187773431
  0
LINE
  8
_0-0_
  6
CONTINUOUS
 62
    5
 10
918.08149981025542
 20
839.31747187773431
 11
918.08149981025542
 21
850.81747187773431
  0
LINE
  8
_0-0_
  6
CONTINUOUS
 62
    5
 10
918.58149981025542
 20
839.31747187773431
 11
918.08149981025542
 21
839.31747187773431
  0
LINE
  8
_0-0_
  6
CONTINUOUS
 62
    5
 10
918.08149981025542
 20
838.31747187773431
 11
918.58149981025542
 21
839.31747187773431
  0
LINE
  8
_0-0_
  6
CONTINUOUS
 62
    5
 10
918.08149981025542
 20
825.31747187773431
 11
918.08149981025542
 21
838.31747187773431
  0
LINE
  8
_0-0_
  6
CONTINUOUS
 62
    5
 10
918.58149981025542
 20
825.31747187773431
 11
918.08149981025542
 21
825.31747187773431
  0
LINE
  8
_0-0_
  6
CONTINUOUS
 62
    5
 10
918.08149981025542
 20
824.31747187773431
 11
918.58149981025542
 21
825.31747187773431
  0
LINE
  8
_0-0_
  6
CONTINUOUS
 62
    5
 10
917.08149981025542
 20
824.31747187773431
 11
918.08149981025542
 21
824.31747187773431
  0
LINE
  8
_0-0_
  6
CONTINUOUS
 62
    5
 10
917.08149981025542
 20
850.81747187773431
 11
917.08149981025542
 21
824.31747187773431
  0
LINE
  8
_0-0_
  6
CONTINUOUS
 62
    5
 10
916.58149981025542
 20
850.81747187773431
 11
917.08149981025542
 21
850.81747187773431
  0
LINE
  8
_0-0_
  6
CONTINUOUS
 62
    5
 10
916.58149981025542
 20
852.81747187773431
 11
916.58149981025542
 21
850.81747187773431
  0
LINE
  8
_0-0_
  6
CONTINUOUS
 62
    5
 10
941.58149981025542
 20
852.81747187773431
 11
916.58149981025542
 21
852.81747187773431
  0
LINE
  8
_0-0_
  6
CONTINUOUS
 62
    5
 10
941.58149981025542
 20
850.81747187773431
 11
941.58149981025542
 21
852.81747187773431
  0
LINE
  8
_0-0_
  6
CONTINUOUS
 62
    5
 10
941.08149981025542
 20
850.81747187773431
 11
941.58149981025542
 21
850.81747187773431
  0
LINE
  8
_0-0_
  6
CONTINUOUS
 62
    5
 10
941.08149981025542
 20
824.31747187773431
 11
941.08149981025542
 21
850.81747187773431
  0
LINE
  8
_0-0_
  6
CONTINUOUS
 62
    5
 10
940.08149981025542
 20
824.31747187773431
 11
941.08149981025542
 21
824.31747187773431
  0
LINE
  8
_0-0_
  6
CONTINUOUS
 62
    5
 10
939.58149981025542
 20
825.31747187773431
 11
940.08149981025542
 21
824.31747187773431
  0
LINE
  8
_0-0_
  6
CONTINUOUS
 62
    5
 10
940.08149981025542
 20
825.31747187773431
 11
939.58149981025542
 21
825.31747187773431
  0
LINE
  8
_0-0_
  6
CONTINUOUS
 62
    5
 10
940.08149981025542
 20
838.31747187773431
 11
940.08149981025542
 21
825.31747187773431
  0
LINE
  8
_0-0_
  6
CONTINUOUS
 62
    5
 10
939.58149981025542
 20
839.31747187773431
 11
940.08149981025542
 21
838.31747187773431
  0
LINE
  8
_0-0_
  6
CONTINUOUS
 62
    5
 10
940.08149981025542
 20
839.31747187773431
 11
939.58149981025542
 21
839.31747187773431
  0
LINE
  8
_0-0_
  6
CONTINUOUS
 62
    5
 10
940.08149981025542
 20
850.81747187773431
 11
940.08149981025542
 21
839.31747187773431
  0
LINE
  8
_0-0_
  6
CONTINUOUS
 62
    5
 10
938.08149981025542
 20
850.81747187773431
 11
940.08149981025542
 21
850.81747187773431
  0
LINE
  8
_0-0_
  6
CONTINUOUS
 62
    5
 10
938.08149981025542
 20
851.31747187773431
 11
938.08149981025542
 21
850.81747187773431
  0
LINE
  8
_0-0_
  6
CONTINUOUS
 62
    5
 10
940.08149981025542
 20
851.31747187773431
 11
938.08149981025542
 21
851.31747187773431
  0
LINE
  8
_0-0_
  6
CONTINUOUS
 62
    5
 10
940.08149981025542
 20
852.31747187773431
 11
940.08149981025542
 21
851.31747187773431
  0
LINE
  8
_0-0_
  6
CONTINUOUS
 62
    5
 10
929.08149981025542
 20
853.81747187773431
 11
941.58149981025542
 21
853.81747187773431
  0
LINE
  8
_0-0_
  6
CONTINUOUS
 62
    5
 10
916.58149981025542
 20
853.81747187773431
 11
929.08149981025542
 21
853.81747187773431
  0
LINE
  8
_0-0_
  6
CONTINUOUS
 62
    5
 10
916.08149981025542
 20
854.31747187773431
 11
916.58149981025542
 21
853.81747187773431
  0
LINE
  8
_0-0_
  6
CONTINUOUS
 62
    5
 10
915.08149981025542
 20
854.31747187773431
 11
916.08149981025542
 21
854.31747187773431
  0
LINE
  8
_0-0_
  6
CONTINUOUS
 62
    5
 10
915.08149981025542
 20
851.31747187773431
 11
915.08149981025542
 21
854.31747187773431
  0
LINE
  8
_0-0_
  6
CONTINUOUS
 62
    5
 10
915.58149981025542
 20
851.31747187773431
 11
915.08149981025542
 21
851.31747187773431
  0
LINE
  8
_0-0_
  6
CONTINUOUS
 62
    5
 10
915.58149981025542
 20
836.31747187773431
 11
915.58149981025542
 21
851.31747187773431
  0
LINE
  8
_0-0_
  6
CONTINUOUS
 62
    5
 10
915.08149981024815
 20
836.31747187773431
 11
915.58149981025542
 21
836.31747187773431
  0
LINE
  8
_0-0_
  6
CONTINUOUS
 62
    5
 10
915.08149981025542
 20
834.31747187773431
 11
915.08149981024815
 21
836.31747187773431
  0
LINE
  8
_0-0_
  6
CONTINUOUS
 62
    5
 10
916.58149981025542
 20
834.31747187773431
 11
915.08149981025542
 21
834.31747187773431
  0
LINE
  8
_0-0_
  6
CONTINUOUS
 62
    5
 10
916.58149981025542
 20
852.81747187773431
 11
916.58149981025542
 21
834.31747187773431
  0
LINE
  8
_0-0_
  6
CONTINUOUS
 62
    5
 10
941.58149981025542
 20
852.81747187773431
 11
916.58149981025542
 21
852.81747187773431
  0
LINE
  8
_0-0_
  6
CONTINUOUS
 62
    5
 10
941.58149981025542
 20
834.31747187773431
 11
941.58149981025542
 21
852.81747187773431
  0
LINE
  8
_0-0_
  6
CONTINUOUS
 62
    5
 10
943.08149981025542
 20
834.31747187773431
 11
941.58149981025542
 21
834.31747187773431
  0
LINE
  8
_0-0_
  6
CONTINUOUS
 62
    5
 10
943.08149981026088
 20
836.31747187773431
 11
943.08149981025542
 21
834.31747187773431
  0
LINE
  8
_0-0_
  6
CONTINUOUS
 62
    5
 10
942.58149981025542
 20
836.31747187773431
 11
943.08149981026088
 21
836.31747187773431
  0
LINE
  8
_0-0_
  6
CONTINUOUS
 62
    5
 10
942.58149981025542
 20
851.31747187773431
 11
942.58149981025542
 21
836.31747187773431
  0
LINE
  8
_0-0_
  6
CONTINUOUS
 62
    5
 10
943.08149981025542
 20
851.31747187773431
 11
942.58149981025542
 21
851.31747187773431
  0
LINE
  8
_0-0_
  6
CONTINUOUS
 62
    5
 10
943.08149981025542
 20
854.31747187773431
 11
943.08149981025542
 21
851.31747187773431
  0
LINE
  8
_0-0_
  6
CONTINUOUS
 62
    5
 10
942.08149981025542
 20
854.31747187773431
 11
943.08149981025542
 21
854.31747187773431
  0
LINE
  8
_0-0_
  6
CONTINUOUS
 62
    5
 10
941.58149981025542
 20
853.81747187773431
 11
942.08149981025542
 21
854.31747187773431
  0
LINE
  8
_0-0_
  6
CONTINUOUS
 62
    5
 10
922.29558490886245
 20
774.31747187773431
 11
922.29558490886245
 21
850.81747187773431
  0
LINE
  8
_0-0_
  6
CONTINUOUS
 62
    5
 10
926.04558490886245
 20
774.31747187773431
 11
926.04558490886245
 21
850.81747187773431
  0
LINE
  8
_0-0_
  6
CONTINUOUS
 62
    5
 10
929.79558490886245
 20
774.31747187773431
 11
929.79558490886245
 21
850.81747187773431
  0
LINE
  8
_0-0_
  6
CONTINUOUS
 62
    5
 10
933.54558490886245
 20
774.31747187773431
 11
933.54558490886245
 21
850.81747187773431
  0
LINE
  8
_0-0_
  6
CONTINUOUS
 62
    5
 10
937.29558490886245
 20
774.31747187773431
 11
937.29558490886245
 21
850.81747187773431
  0
LINE
  8
_0-0_
  6
CONTINUOUS
 62
    7
 10
1227.4368753947906
 20
854.31747187773431
 11
1307.4368753947906
 21
774.31747187773431
  0
LINE
  8
_0-0_
  6
CONTINUOUS
 62
    7
 10
1220.3658075829239
 20
854.31747187773431
 11
1300.3658075829239
 21
774.31747187773431
  0
LINE
  8
_0-0_
  6
CONTINUOUS
 62
    7
 10
1481.995316621947
 20
854.31747187773431
 11
1547.1200268862226
 21
789.1927616134551
  0
LINE
  8
_0-0_
  6
CONTINUOUS
 62
    7
 10
1474.9242488100822
 20
854.31747187773249
 11
1547.1200268862226
 21
782.12169380159207
  0
LINE
  8
_0-0_
  6
CONTINUOUS
 62
    7
 10
1467.8531809982173
 20
854.31747187773249
 11
1547.1200268862226
 21
775.05062598972722
  0
LINE
  8
_0-0_
  6
CONTINUOUS
 62
    7
 10
1182.1822088862241
 20
1083.9191438777332
 11
1182.1822088862241
 21
1017.7832388777322
  0
LINE
  8
_0-0_
  6
CONTINUOUS
 62
    7
 10
1216.217391886224
 20
1017.7832388777322
 11
1216.217391886224
 21
1083.9191438777332
  0
LINE
  8
_0-0_
  6
CONTINUOUS
 62
    7
 10
1075.3914088862234
 20
1017.7793018777327
 11
1332.6728488862223
 21
1017.7793018777327
  0
LINE
  8
_0-0_
  6
CONTINUOUS
 62
    7
 10
1075.3914088862234
 20
1017.7793018777327
 11
1075.3914088862234
 21
854.31747187773431
  0
LINE
  8
_0-0_
  6
CONTINUOUS
 62
    7
 10
1332.6728488862223
 20
1017.7793018777327
 11
1332.6728488862223
 21
854.31747187773431
  0
LINE
  8
_0-0_
  6
CONTINUOUS
 62
    7
 10
1271.8235340185179
 20
854.31747187773067
 11
1332.6728488862241
 21
915.16678674543687
  0
LINE
  8
_0-0_
  6
CONTINUOUS
 62
    7
 10
1264.752466206653
 20
854.31747187773249
 11
1332.6728488862223
 21
922.23785455730172
  0
LINE
  8
_0-0_
  6
CONTINUOUS
 62
    7
 10
1257.68139839479
 20
854.31747187773431
 11
1332.6728488862204
 21
929.30892236916475
  0
LINE
  8
_0-0_
  6
CONTINUOUS
 62
    7
 10
1075.3914088862216
 20
884.15951672512961
 11
1209.0111940388229
 21
1017.7793018777327
  0
LINE
  8
_0-0_
  6
CONTINUOUS
 62
    7
 10
1075.3914088862216
 20
891.23058453699628
 11
1201.9401262269598
 21
1017.7793018777327
  0
LINE
  8
_0-0_
  6
CONTINUOUS
 62
    7
 10
1075.3914088862252
 20
898.30165234886294
 11
1194.8690584150931
 21
1017.7793018777309
  0
CIRCLE
  8
_0-0_
  6
CONTINUOUS
 62
    7
 10
1199.1998003862241
 20
1102.7827505083412
 40
7.3062537407017327
  0
LINE
  8
_0-0_
  6
CONTINUOUS
 62
    7
 10
1171.1998003862241
 20
1083.9191438777332
 11
1227.1998003862241
 21
1083.9191438777332
  0
LINE
  8
_0-0_
  6
CONTINUOUS
 62
    7
 10
1171.1998003862241
 20
1083.9191438777332
 11
1171.1998003862241
 21
1202.8873338777328
  0
LINE
  8
_0-0_
  6
CONTINUOUS
 62
    7
 10
1227.1998003862241
 20
1202.8874738777365
 11
1226.0217703862249
 21
1201.1383068777347
  0
LINE
  8
_0-0_
  6
CONTINUOUS
 62
    7
 10
1224.6241853862243
 20
1199.5548998777365
 11
1223.0327283862239
 21
1198.1667298777345
  0
LINE
  8
_0-0_
  6
CONTINUOUS
 62
    7
 10
1221.2744823862245
 20
1196.9974848777335
 11
1219.3788963862239
 21
1196.0667508777358
  0
LINE
  8
_0-0_
  6
CONTINUOUS
 62
    7
 10
1217.378359386224
 20
1195.390459877736
 11
1215.3070943862253
 21
1194.980098877734
  0
LINE
  8
_0-0_
  6
CONTINUOUS
 62
    7
 10
1213.1998003862241
 20
1194.8425138777336
 11
1211.0925133862252
 21
1194.980098877734
  0
LINE
  8
_0-0_
  6
CONTINUOUS
 62
    7
 10
1209.0212483862247
 20
1195.390459877736
 11
1207.020711386223
 21
1196.0667508777358
  0
LINE
  8
_0-0_
  6
CONTINUOUS
 62
    7
 10
1205.1251253862242
 20
1196.9974848777335
 11
1203.366879386223
 21
1198.1667298777345
  0
LINE
  8
_0-0_
  6
CONTINUOUS
 62
    7
 10
1201.7754223862244
 20
1199.5548998777365
 11
1200.3778373862256
 21
1201.1383068777347
  0
LINE
  8
_0-0_
  6
CONTINUOUS
 62
    7
 10
1199.1998003862241
 20
1202.8874738777365
 11
1198.0217703862249
 21
1204.6364938777358
  0
LINE
  8
_0-0_
  6
CONTINUOUS
 62
    7
 10
1196.6241853862243
 20
1206.2199008777341
 11
1195.0327283862239
 21
1207.6080708777361
  0
LINE
  8
_0-0_
  6
CONTINUOUS
 62
    7
 10
1193.2744823862245
 20
1208.777315877737
 11
1191.3788963862239
 21
1209.7080498777348
  0
LINE
  8
_0-0_
  6
CONTINUOUS
 62
    7
 10
1189.378359386224
 20
1210.3843408777345
 11
1187.3070943862253
 21
1210.7947018777329
  0
LINE
  8
_0-0_
  6
CONTINUOUS
 62
    7
 10
1185.1998003862241
 20
1210.9322938777357
 11
1183.0925133862252
 21
1210.7947018777329
  0
LINE
  8
_0-0_
  6
CONTINUOUS
 62
    7
 10
1181.0212483862247
 20
1210.3843408777345
 11
1179.020711386223
 21
1209.7080498777348
  0
LINE
  8
_0-0_
  6
CONTINUOUS
 62
    7
 10
1177.1251253862242
 20
1208.777315877737
 11
1175.366879386223
 21
1207.6080708777361
  0
LINE
  8
_0-0_
  6
CONTINUOUS
 62
    7
 10
1173.7754223862244
 20
1206.2199008777341
 11
1172.3778373862256
 21
1204.6364938777358
  0
LINE
  8
_0-0_
  6
CONTINUOUS
 62
    7
 10
1171.1998003862241
 20
1202.8873338777328
 11
1172.3778373862256
 21
1204.6364938777358
  0
LINE
  8
_0-0_
  6
CONTINUOUS
 62
    7
 10
1173.7754223862244
 20
1206.2199008777341
 11
1175.366879386223
 21
1207.6080708777361
  0
LINE
  8
_0-0_
  6
CONTINUOUS
 62
    7
 10
1177.1251253862242
 20
1208.777315877737
 11
1179.020711386223
 21
1209.7080498777348
  0
LINE
  8
_0-0_
  6
CONTINUOUS
 62
    7
 10
1181.0212483862247
 20
1210.3843408777345
 11
1183.0925133862252
 21
1210.7947018777329
  0
LINE
  8
_0-0_
  6
CONTINUOUS
 62
    7
 10
1185.1998003862241
 20
1210.9322938777357
 11
1187.3070943862253
 21
1210.7947018777329
  0
LINE
  8
_0-0_
  6
CONTINUOUS
 62
    7
 10
1189.378359386224
 20
1210.3843408777345
 11
1191.3788963862239
 21
1209.7080498777348
  0
LINE
  8
_0-0_
  6
CONTINUOUS
 62
    7
 10
1193.2744823862245
 20
1208.777315877737
 11
1195.0327283862239
 21
1207.6080708777361
  0
LINE
  8
_0-0_
  6
CONTINUOUS
 62
    7
 10
1196.6241853862243
 20
1206.2199008777341
 11
1198.0217703862249
 21
1204.6364938777358
  0
LINE
  8
_0-0_
  6
CONTINUOUS
 62
    7
 10
1199.1998003862241
 20
1202.8874738777365
 11
1200.3778373862256
 21
1201.1383068777347
  0
LINE
  8
_0-0_
  6
CONTINUOUS
 62
    7
 10
1199.1998003862241
 20
1202.8874738777365
 11
1200.3778373862256
 21
1204.6364938777358
  0
LINE
  8
_0-0_
  6
CONTINUOUS
 62
    7
 10
1201.7754223862244
 20
1206.2199008777341
 11
1203.366879386223
 21
1207.6080708777361
  0
LINE
  8
_0-0_
  6
CONTINUOUS
 62
    7
 10
1205.1251253862242
 20
1208.777315877737
 11
1207.020711386223
 21
1209.7080498777348
  0
LINE
  8
_0-0_
  6
CONTINUOUS
 62
    7
 10
1201.7754223862244
 20
1199.5548998777365
 11
1203.366879386223
 21
1198.1667298777345
  0
LINE
  8
_0-0_
  6
CONTINUOUS
 62
    7
 10
1205.1251253862242
 20
1196.9974848777335
 11
1207.020711386223
 21
1196.0667508777358
  0
LINE
  8
_0-0_
  6
CONTINUOUS
 62
    7
 10
1209.0212483862247
 20
1195.390459877736
 11
1211.0925133862252
 21
1194.980098877734
  0
LINE
  8
_0-0_
  6
CONTINUOUS
 62
    7
 10
1213.1998003862241
 20
1194.8425138777336
 11
1215.3070943862253
 21
1194.980098877734
  0
LINE
  8
_0-0_
  6
CONTINUOUS
 62
    7
 10
1217.378359386224
 20
1195.390459877736
 11
1219.3788963862239
 21
1196.0667508777358
  0
LINE
  8
_0-0_
  6
CONTINUOUS
 62
    7
 10
1221.2744823862245
 20
1196.9974848777335
 11
1223.0327283862239
 21
1198.1667298777345
  0
LINE
  8
_0-0_
  6
CONTINUOUS
 62
    7
 10
1224.6241853862243
 20
1199.5548998777365
 11
1226.0217703862249
 21
1201.1383068777347
  0
LINE
  8
_0-0_
  6
CONTINUOUS
 62
    7
 10
1226.0217703862249
 20
1204.6364938777358
 11
1224.6241853862243
 21
1206.2199008777341
  0
LINE
  8
_0-0_
  6
CONTINUOUS
 62
    7
 10
1223.0327283862239
 20
1207.6080708777361
 11
1221.2744823862245
 21
1208.777315877737
  0
LINE
  8
_0-0_
  6
CONTINUOUS
 62
    7
 10
1219.3788963862239
 20
1209.7080498777348
 11
1217.378359386224
 21
1210.3843408777345
  0
LINE
  8
_0-0_
  6
CONTINUOUS
 62
    7
 10
1215.3070943862253
 20
1210.7947018777329
 11
1213.1998003862241
 21
1210.9322938777357
  0
LINE
  8
_0-0_
  6
CONTINUOUS
 62
    7
 10
1211.0925133862252
 20
1210.7947018777329
 11
1209.0212483862247
 21
1210.3843408777345
  0
LINE
  8
_0-0_
  6
CONTINUOUS
 62
    7
 10
1227.1998003862241
 20
1202.8873338777328
 11
1226.0217703862249
 21
1204.6364938777358
  0
LINE
  8
_0-0_
  6
CONTINUOUS
 62
    7
 10
1200.3778373862256
 20
1204.6364938777358
 11
1201.7754223862244
 21
1206.2199008777341
  0
LINE
  8
_0-0_
  6
CONTINUOUS
 62
    7
 10
1203.366879386223
 20
1207.6080708777361
 11
1205.1251253862242
 21
1208.777315877737
  0
LINE
  8
_0-0_
  6
CONTINUOUS
 62
    7
 10
1207.020711386223
 20
1209.7080498777348
 11
1209.0212483862247
 21
1210.3843408777345
  0
LINE
  8
_0-0_
  6
CONTINUOUS
 62
    7
 10
1211.0925133862252
 20
1210.7947018777329
 11
1213.1998003862241
 21
1210.9322938777357
  0
LINE
  8
_0-0_
  6
CONTINUOUS
 62
    7
 10
1215.3070943862253
 20
1210.7947018777329
 11
1217.378359386224
 21
1210.3843408777345
  0
LINE
  8
_0-0_
  6
CONTINUOUS
 62
    7
 10
1219.3788963862239
 20
1209.7080498777348
 11
1221.2744823862245
 21
1208.777315877737
  0
LINE
  8
_0-0_
  6
CONTINUOUS
 62
    7
 10
1223.0327283862239
 20
1207.6080708777361
 11
1224.6241853862243
 21
1206.2199008777341
  0
LINE
  8
_0-0_
  6
CONTINUOUS
 62
    7
 10
1227.1998003862241
 20
1083.9191438777332
 11
1227.1998003862241
 21
1202.8874738777365
  0
LINE
  8
_0-0_
  6
CONTINUOUS
 62
    7
 10
1326.43281981071
 20
768.00046249659022
 11
1438.3085752809143
 21
961.77495510613585
  0
TEXT
  8
_0-0_
 62
    7
 10
1440.6482955951192
 20
951.64186772045537
 40
30
 41
1
 50
0
  1
防水層
  0
LINE
  8
_0-0_
  6
CONTINUOUS
 62
    7
 10
931.83920933220122
 20
848.69434289607011
 11
896.75672797444656
 21
909.45898306328922
  0
POINT
  8
_0-0_
 62
    7
 10
931.83920933220122
 20
848.69434289607011
  0
TEXT
  8
_0-0_
 62
    7
 10
777.02155501340474
 20
900.66493356845854
 40
30
 41
1
 50
0
  1
伸縮目地
  0
LINE
  8
_0-0_
  6
CONTINUOUS
 62
    6
 10
844.38003188621894
 20
764.79078118617213
 11
851.90672257778294
 21
772.31747187773431
  0
LINE
  8
_0-0_
  6
CONTINUOUS
 62
    6
 10
844.38003188621894
 20
750.64864556244061
 11
866.04885820151264
 21
772.31747187773431
  0
LINE
  8
_0-0_
  6
CONTINUOUS
 62
    6
 10
845.19099382524234
 20
737.31747187773249
 11
880.19099382524234
 21
772.31747187773249
  0
LINE
  8
_0-0_
  6
CONTINUOUS
 62
    6
 10
859.33312944897568
 20
737.31747187773431
 11
894.33312944897568
 21
772.31747187773431
  0
LINE
  8
_0-0_
  6
CONTINUOUS
 62
    6
 10
873.47526507270902
 20
737.31747187773431
 11
908.47526507270902
 21
772.31747187773431
  0
LINE
  8
_0-0_
  6
CONTINUOUS
 62
    6
 10
887.61740069643508
 20
737.31747187773431
 11
922.61740069643508
 21
772.31747187773249
  0
LINE
  8
_0-0_
  6
CONTINUOUS
 62
    6
 10
901.75953632016842
 20
737.31747187773431
 11
936.75953632016842
 21
772.31747187773431
  0
LINE
  8
_0-0_
  6
CONTINUOUS
 62
    6
 10
915.90167194389812
 20
737.31747187773431
 11
950.90167194389812
 21
772.31747187773431
  0
LINE
  8
_0-0_
  6
CONTINUOUS
 62
    6
 10
930.04380756762782
 20
737.31747187773249
 11
965.04380756762782
 21
772.31747187773431
  0
LINE
  8
_0-0_
  6
CONTINUOUS
 62
    6
 10
944.18594319136116
 20
737.31747187773431
 11
979.18594319136116
 21
772.31747187773431
  0
LINE
  8
_0-0_
  6
CONTINUOUS
 62
    6
 10
958.3280788150945
 20
737.31747187773431
 11
993.3280788150945
 21
772.31747187773431
  0
LINE
  8
_0-0_
  6
CONTINUOUS
 62
    6
 10
972.47021443882056
 20
737.31747187773431
 11
1007.4702144388206
 21
772.31747187773249
  0
LINE
  8
_0-0_
  6
CONTINUOUS
 62
    6
 10
986.6123500625539
 20
737.31747187773431
 11
1021.6123500625539
 21
772.31747187773431
  0
LINE
  8
_0-0_
  6
CONTINUOUS
 62
    6
 10
1000.7544856862836
 20
737.31747187773431
 11
1035.7544856862837
 21
772.31747187773431
  0
LINE
  8
_0-0_
  6
CONTINUOUS
 62
    6
 10
1014.8966213100133
 20
737.31747187773431
 11
1049.8966213100134
 21
772.31747187773431
  0
LINE
  8
_0-0_
  6
CONTINUOUS
 62
    6
 10
1029.0387569337468
 20
737.31747187773431
 11
1064.0387569337468
 21
772.31747187773431
  0
LINE
  8
_0-0_
  6
CONTINUOUS
 62
    6
 10
1043.1808925574801
 20
737.31747187773431
 11
1078.1808925574801
 21
772.31747187773431
  0
LINE
  8
_0-0_
  6
CONTINUOUS
 62
    6
 10
1057.3230281812062
 20
737.31747187773249
 11
1092.3230281812062
 21
772.31747187773249
  0
LINE
  8
_0-0_
  6
CONTINUOUS
 62
    6
 10
1071.4651638049395
 20
737.31747187773431
 11
1106.4651638049395
 21
772.31747187773431
  0
LINE
  8
_0-0_
  6
CONTINUOUS
 62
    6
 10
1085.6072994286692
 20
737.31747187773431
 11
1120.6072994286692
 21
772.31747187773431
  0
LINE
  8
_0-0_
  6
CONTINUOUS
 62
    6
 10
1099.7494350523989
 20
737.31747187773431
 11
1134.7494350523989
 21
772.31747187773249
  0
LINE
  8
_0-0_
  6
CONTINUOUS
 62
    6
 10
1113.8915706761322
 20
737.31747187773431
 11
1148.8915706761322
 21
772.31747187773431
  0
LINE
  8
_0-0_
  6
CONTINUOUS
 62
    6
 10
1128.0337062998656
 20
737.31747187773431
 11
1163.0337062998656
 21
772.31747187773431
  0
LINE
  8
_0-0_
  6
CONTINUOUS
 62
    6
 10
1142.1758419235916
 20
737.31747187773431
 11
1177.1758419235916
 21
772.31747187773431
  0
LINE
  8
_0-0_
  6
CONTINUOUS
 62
    6
 10
1156.317977547325
 20
737.31747187773431
 11
1191.317977547325
 21
772.31747187773431
  0
LINE
  8
_0-0_
  6
CONTINUOUS
 62
    6
 10
1170.4601131710547
 20
737.31747187773431
 11
1205.4601131710547
 21
772.31747187773431
  0
LINE
  8
_0-0_
  6
CONTINUOUS
 62
    6
 10
1184.602248794788
 20
737.31747187773431
 11
1219.602248794788
 21
772.31747187773431
  0
LINE
  8
_0-0_
  6
CONTINUOUS
 62
    6
 10
1198.7443844185177
 20
737.31747187773431
 11
1233.7443844185177
 21
772.31747187773431
  0
LINE
  8
_0-0_
  6
CONTINUOUS
 62
    6
 10
1212.886520042251
 20
737.31747187773431
 11
1247.886520042251
 21
772.31747187773431
  0
LINE
  8
_0-0_
  6
CONTINUOUS
 62
    6
 10
1227.0286556659771
 20
737.31747187773431
 11
1262.0286556659771
 21
772.31747187773431
  0
LINE
  8
_0-0_
  6
CONTINUOUS
 62
    6
 10
1241.1707912897105
 20
737.31747187773431
 11
1276.1707912897105
 21
772.31747187773431
  0
LINE
  8
_0-0_
  6
CONTINUOUS
 62
    6
 10
1255.3129269134402
 20
737.31747187773249
 11
1290.3129269134402
 21
772.31747187773249
  0
LINE
  8
_0-0_
  6
CONTINUOUS
 62
    6
 10
1269.4550625371735
 20
737.31747187773431
 11
1304.4550625371735
 21
772.31747187773431
  0
LINE
  8
_0-0_
  6
CONTINUOUS
 62
    6
 10
1283.5971981609032
 20
737.31747187773431
 11
1318.5971981609032
 21
772.31747187773431
  0
LINE
  8
_0-0_
  6
CONTINUOUS
 62
    6
 10
1297.7393337846365
 20
737.31747187773249
 11
1332.7393337846365
 21
772.31747187773249
  0
LINE
  8
_0-0_
  6
CONTINUOUS
 62
    6
 10
1290.8674613480284
 20
772.31747187773431
 11
1325.8674613480284
 21
737.31747187773431
  0
LINE
  8
_0-0_
  6
CONTINUOUS
 62
    6
 10
1276.7253257242951
 20
772.31747187773431
 11
1311.7253257242951
 21
737.31747187773431
  0
LINE
  8
_0-0_
  6
CONTINUOUS
 62
    6
 10
1262.5831901005654
 20
772.31747187773431
 11
1297.5831901005654
 21
737.31747187773431
  0
LINE
  8
_0-0_
  6
CONTINUOUS
 62
    6
 10
1248.4410544768357
 20
772.31747187773431
 11
1283.4410544768357
 21
737.31747187773431
  0
LINE
  8
_0-0_
  6
CONTINUOUS
 62
    6
 10
1234.2989188531024
 20
772.31747187773249
 11
1269.2989188531024
 21
737.31747187773431
  0
LINE
  8
_0-0_
  6
CONTINUOUS
 62
    6
 10
1220.1567832293726
 20
772.31747187773431
 11
1255.1567832293726
 21
737.31747187773431
  0
LINE
  8
_0-0_
  6
CONTINUOUS
 62
    6
 10
1206.0146476056393
 20
772.31747187773431
 11
1241.0146476056429
 21
737.31747187773431
  0
LINE
  8
_0-0_
  6
CONTINUOUS
 62
    6
 10
1191.8725119819096
 20
772.31747187773431
 11
1226.8725119819096
 21
737.31747187773431
  0
LINE
  8
_0-0_
  6
CONTINUOUS
 62
    6
 10
1177.7303763581799
 20
772.31747187773431
 11
1212.7303763581799
 21
737.31747187773431
  0
LINE
  8
_0-0_
  6
CONTINUOUS
 62
    6
 10
1163.5882407344466
 20
772.31747187773431
 11
1198.5882407344466
 21
737.31747187773431
  0
LINE
  8
_0-0_
  6
CONTINUOUS
 62
    6
 10
1149.4461051107132
 20
772.31747187773431
 11
1184.4461051107169
 21
737.31747187773431
  0
LINE
  8
_0-0_
  6
CONTINUOUS
 62
    6
 10
1135.3039694869872
 20
772.31747187773431
 11
1170.3039694869872
 21
737.31747187773431
  0
LINE
  8
_0-0_
  6
CONTINUOUS
 62
    6
 10
1121.1618338632538
 20
772.31747187773431
 11
1156.1618338632538
 21
737.31747187773431
  0
LINE
  8
_0-0_
  6
CONTINUOUS
 62
    6
 10
1107.0196982395241
 20
772.31747187773431
 11
1142.0196982395241
 21
737.31747187773431
  0
LINE
  8
_0-0_
  6
CONTINUOUS
 62
    6
 10
1092.8775626157908
 20
772.31747187773431
 11
1127.8775626157944
 21
737.31747187773431
  0
LINE
  8
_0-0_
  6
CONTINUOUS
 62
    6
 10
1078.7354269920611
 20
772.31747187773431
 11
1113.7354269920611
 21
737.31747187773431
  0
LINE
  8
_0-0_
  6
CONTINUOUS
 62
    6
 10
1064.5932913683314
 20
772.31747187773431
 11
1099.5932913683278
 21
737.31747187773431
  0
LINE
  8
_0-0_
  6
CONTINUOUS
 62
    6
 10
1050.4511557446017
 20
772.31747187773431
 11
1085.4511557446017
 21
737.31747187773431
  0
LINE
  8
_0-0_
  6
CONTINUOUS
 62
    6
 10
1036.3090201208684
 20
772.31747187773431
 11
1071.3090201208684
 21
737.31747187773431
  0
LINE
  8
_0-0_
  6
CONTINUOUS
 62
    6
 10
1022.1668844971385
 20
772.31747187773249
 11
1057.1668844971387
 21
737.31747187773431
  0
LINE
  8
_0-0_
  6
CONTINUOUS
 62
    6
 10
1008.0247488734052
 20
772.31747187773431
 11
1043.0247488734053
 21
737.31747187773431
  0
LINE
  8
_0-0_
  6
CONTINUOUS
 62
    6
 10
993.8826132496755
 20
772.31747187773431
 11
1028.8826132496756
 21
737.31747187773431
  0
LINE
  8
_0-0_
  6
CONTINUOUS
 62
    6
 10
979.7404776259458
 20
772.31747187773249
 11
1014.7404776259422
 21
737.31747187773431
  0
LINE
  8
_0-0_
  6
CONTINUOUS
 62
    6
 10
965.5983420022161
 20
772.31747187773431
 11
1000.5983420022161
 21
737.31747187773431
  0
LINE
  8
_0-0_
  6
CONTINUOUS
 62
    6
 10
951.45620637848276
 20
772.31747187773249
 11
986.45620637848276
 21
737.31747187773249
  0
LINE
  8
_0-0_
  6
CONTINUOUS
 62
    6
 10
937.31407075475306
 20
772.31747187773249
 11
972.31407075475306
 21
737.31747187773249
  0
LINE
  8
_0-0_
  6
CONTINUOUS
 62
    6
 10
923.17193513101972
 20
772.31747187773431
 11
958.17193513101972
 21
737.31747187773431
  0
LINE
  8
_0-0_
  6
CONTINUOUS
 62
    6
 10
909.02979950729002
 20
772.31747187773249
 11
944.02979950729002
 21
737.31747187773249
  0
LINE
  8
_0-0_
  6
CONTINUOUS
 62
    6
 10
894.88766388356032
 20
772.31747187773249
 11
929.88766388355668
 21
737.31747187773431
  0
LINE
  8
_0-0_
  6
CONTINUOUS
 62
    6
 10
880.74552825983062
 20
772.31747187773431
 11
915.74552825983062
 21
737.31747187773431
  0
LINE
  8
_0-0_
  6
CONTINUOUS
 62
    6
 10
866.60339263609728
 20
772.31747187773249
 11
901.60339263609728
 21
737.31747187773249
  0
LINE
  8
_0-0_
  6
CONTINUOUS
 62
    6
 10
852.46125701236758
 20
772.31747187773249
 11
887.46125701236758
 21
737.31747187773249
  0
LINE
  8
_0-0_
  6
CONTINUOUS
 62
    6
 10
844.38003188622258
 20
766.25656138014779
 11
873.31912138863424
 21
737.31747187773431
  0
LINE
  8
_0-0_
  6
CONTINUOUS
 62
    6
 10
844.38003188621894
 20
752.11442575641809
 11
859.17698576490454
 21
737.31747187773249
  0
LINE
  8
_0-0_
  6
CONTINUOUS
 62
    6
 10
844.38003188622258
 20
737.97229013268657
 11
845.0348501411712
 21
737.31747187773431
  0
LINE
  8
_0-0_
  6
CONTINUOUS
 62
    6
 10
844.38003188622258
 20
772.31747187773431
 11
844.38003188622258
 21
737.31747187773431
  0
LINE
  8
_0-0_
  6
CONTINUOUS
 62
    7
 10
844.38003188622258
 20
774.31747187773249
 11
1547.1200268862226
 21
774.31747187773249
  0
LINE
  8
_0-0_
  6
CONTINUOUS
 62
    7
 10
844.38003188622258
 20
661.53479834886343
 11
910.16270541509346
 21
727.31747187773431
  0
LINE
  8
_0-0_
  6
CONTINUOUS
 62
    7
 10
844.38003188622258
 20
654.46373053699858
 11
917.23377322695831
 21
727.31747187773431
  0
LINE
  8
_0-0_
  6
CONTINUOUS
 62
    7
 10
844.38003188622258
 20
647.39266272513373
 11
924.30484103882316
 21
727.31747187773431
  0
LINE
  8
_0-0_
  6
CONTINUOUS
 62
    7
 10
844.38003188622258
 20
727.31747187773431
 11
1547.1200268862226
 21
727.31747187773431
  0
LINE
  8
_0-0_
  6
CONTINUOUS
 62
    7
 10
844.38003188622258
 20
547.31747187773431
 11
1547.1200268862226
 21
547.31747187773431
  0
LINE
  8
_0-0_
  6
CONTINUOUS
 62
    7
 10
956.43687539478867
 20
547.31747187773431
 11
1136.4368753947888
 21
727.31747187773431
  0
LINE
  8
_0-0_
  6
CONTINUOUS
 62
    7
 10
963.50794320665352
 20
547.31747187773431
 11
1143.5079432066536
 21
727.31747187773431
  0
LINE
  8
_0-0_
  6
CONTINUOUS
 62
    7
 10
970.57901101851655
 20
547.31747187773431
 11
1150.5790110185185
 21
727.31747187773431
  0
LINE
  8
_0-0_
  6
CONTINUOUS
 62
    7
 10
1182.711045374484
 20
547.31747187773431
 11
1362.711045374484
 21
727.31747187773249
  0
LINE
  8
_0-0_
  6
CONTINUOUS
 62
    7
 10
1189.7821131863489
 20
547.31747187773431
 11
1369.7821131863489
 21
727.31747187773431
  0
LINE
  8
_0-0_
  6
CONTINUOUS
 62
    7
 10
1196.8531809982155
 20
547.31747187773431
 11
1376.8531809982137
 21
727.31747187773431
  0
LINE
  8
_0-0_
  6
CONTINUOUS
 62
    7
 10
1408.9852153541847
 20
547.31747187773431
 11
1547.1200268862226
 21
685.45228340977951
  0
LINE
  8
_0-0_
  6
CONTINUOUS
 62
    7
 10
1416.0562831660441
 20
547.31747187773431
 11
1547.1200268862226
 21
678.38121559791284
  0
LINE
  8
_0-0_
  6
CONTINUOUS
 62
    7
 10
1423.1273509779126
 20
547.31747187773431
 11
1547.1200268862226
 21
671.31014778604799
  0
LINE
  8
_0-0_
  6
CONTINUOUS
 62
    4
 10
844.38003188622258
 20
736.31747187773431
 11
1547.1200268862226
 21
736.31747187773431
  0
LINE
  8
_0-0_
  6
CONTINUOUS
 62
    6
 10
844.38003188622258
 20
737.31747187773431
 11
1547.1200268862226
 21
737.31747187773431
  0
LINE
  8
_0-0_
  6
CONTINUOUS
 62
    5
 10
844.38003188622258
 20
773.31747187773249
 11
1547.1200268862226
 21
773.31747187773249
  0
LINE
  8
_0-0_
  6
CONTINUOUS
 62
    6
 10
1547.1200268862226
 20
772.31747187773431
 11
844.38003188622258
 21
772.31747187773431
  0
LINE
  8
_0-0_
  6
CONTINUOUS
 62
    6
 10
1305.0095969717581
 20
772.31747187773431
 11
1340.0095969717618
 21
737.31747187773431
  0
LINE
  8
_0-0_
  6
CONTINUOUS
 62
    6
 10
1319.1517325954878
 20
772.31747187773431
 11
1354.1517325954915
 21
737.31747187773431
  0
LINE
  8
_0-0_
  6
CONTINUOUS
 62
    6
 10
1333.2938682192212
 20
772.31747187773431
 11
1368.2938682192212
 21
737.31747187773431
  0
LINE
  8
_0-0_
  6
CONTINUOUS
 62
    6
 10
1347.4360038429509
 20
772.31747187773431
 11
1382.4360038429509
 21
737.31747187773431
  0
LINE
  8
_0-0_
  6
CONTINUOUS
 62
    6
 10
1311.8814694083626
 20
737.31747187773431
 11
1346.8814694083717
 21
772.31747187773431
  0
LINE
  8
_0-0_
  6
CONTINUOUS
 62
    6
 10
1361.5781394666806
 20
772.31747187773431
 11
1396.5781394666806
 21
737.31747187773431
  0
LINE
  8
_0-0_
  6
CONTINUOUS
 62
    6
 10
1326.0236050320959
 20
737.31747187773431
 11
1361.0236050321068
 21
772.31747187773431
  0
LINE
  8
_0-0_
  6
CONTINUOUS
 62
    6
 10
1375.7202750904103
 20
772.31747187773431
 11
1410.7202750904103
 21
737.31747187773431
  0
LINE
  8
_0-0_
  6
CONTINUOUS
 62
    6
 10
1340.1657406558293
 20
737.31747187773431
 11
1375.1657406558402
 21
772.31747187773431
  0
LINE
  8
_0-0_
  6
CONTINUOUS
 62
    6
 10
1389.86241071414
 20
772.31747187773431
 11
1424.86241071414
 21
737.31747187773431
  0
LINE
  8
_0-0_
  6
CONTINUOUS
 62
    6
 10
1404.0045463378697
 20
772.31747187773431
 11
1439.0045463378697
 21
737.31747187773431
  0
LINE
  8
_0-0_
  6
CONTINUOUS
 62
    6
 10
1368.4500119032959
 20
737.31747187773431
 11
1403.450011903305
 21
772.31747187773431
  0
LINE
  8
_0-0_
  6
CONTINUOUS
 62
    6
 10
1418.1466819615994
 20
772.31747187773431
 11
1453.1466819615994
 21
737.31747187773431
  0
LINE
  8
_0-0_
  6
CONTINUOUS
 62
    6
 10
1382.5921475270311
 20
737.31747187773431
 11
1417.592147527042
 21
772.31747187773431
  0
LINE
  8
_0-0_
  6
CONTINUOUS
 62
    6
 10
1354.3078762795626
 20
737.31747187773431
 11
1389.3078762795735
 21
772.31747187773431
  0
LINE
  8
_0-0_
  6
CONTINUOUS
 62
    6
 10
1396.7342831507644
 20
737.31747187773431
 11
1431.7342831507754
 21
772.31747187773431
  0
LINE
  8
_0-0_
  6
CONTINUOUS
 62
    6
 10
1432.2888175853291
 20
772.31747187773431
 11
1467.2888175853291
 21
737.31747187773431
  0
LINE
  8
_0-0_
  6
CONTINUOUS
 62
    6
 10
1446.4309532090588
 20
772.31747187773431
 11
1481.4309532090588
 21
737.31747187773431
  0
LINE
  8
_0-0_
  6
CONTINUOUS
 62
    6
 10
1410.7983469324531
 20
737.23940003569146
 11
1445.8764187745087
 21
772.31747187773431
  0
LINE
  8
_0-0_
  6
CONTINUOUS
 62
    6
 10
1460.5730888327885
 20
772.31747187773431
 11
1495.5730888327885
 21
737.31747187773431
  0
LINE
  8
_0-0_
  6
CONTINUOUS
 62
    6
 10
1425.0185543982293
 20
737.31747187773431
 11
1460.0185543982402
 21
772.31747187773431
  0
LINE
  8
_0-0_
  6
CONTINUOUS
 62
    6
 10
1474.7152244565182
 20
772.31747187773431
 11
1509.7152244565182
 21
737.31747187773431
  0
LINE
  8
_0-0_
  6
CONTINUOUS
 62
    6
 10
1439.1606900219645
 20
737.31747187773431
 11
1474.1606900219736
 21
772.31747187773431
  0
LINE
  8
_0-0_
  6
CONTINUOUS
 62
    6
 10
1488.8573600802479
 20
772.31747187773431
 11
1523.8573600802479
 21
737.31747187773431
  0
LINE
  8
_0-0_
  6
CONTINUOUS
 62
    6
 10
1453.3028256456978
 20
737.31747187773431
 11
1488.3028256457087
 21
772.31747187773431
  0
LINE
  8
_0-0_
  6
CONTINUOUS
 62
    6
 10
1502.9994957039776
 20
772.31747187773431
 11
1537.9994957039776
 21
737.31747187773431
  0
LINE
  8
_0-0_
  6
CONTINUOUS
 62
    6
 10
1467.4449612694311
 20
737.31747187773431
 11
1502.444961269442
 21
772.31747187773431
  0
LINE
  8
_0-0_
  6
CONTINUOUS
 62
    6
 10
1481.5870968931663
 20
737.31747187773431
 11
1516.5870968931772
 21
772.31747187773431
  0
LINE
  8
_0-0_
  6
CONTINUOUS
 62
    6
 10
1495.7292325168978
 20
737.31747187773431
 11
1530.7292325169087
 21
772.31747187773431
  0
LINE
  8
_0-0_
  6
CONTINUOUS
 62
    6
 10
1509.871368140633
 20
737.31747187773431
 11
1544.8713681406439
 21
772.31747187773431
  0
LINE
  8
_0-0_
  6
CONTINUOUS
 62
    6
 10
1547.1200268862226
 20
772.31747187773431
 11
1547.1200268862226
 21
737.31747187773431
  0
LINE
  8
_0-0_
  6
CONTINUOUS
 62
    6
 10
1517.1416313277073
 20
772.31747187773431
 11
1547.1200268862226
 21
742.33907631921898
  0
LINE
  8
_0-0_
  6
CONTINUOUS
 62
    6
 10
1531.283766951437
 20
772.31747187773431
 11
1547.1200268862226
 21
756.48121194294868
  0
LINE
  8
_0-0_
  6
CONTINUOUS
 62
    6
 10
1538.1556393880996
 20
737.31747187773431
 11
1547.1200268862226
 21
746.28185937585545
  0
LINE
  8
_0-0_
  6
CONTINUOUS
 62
    6
 10
1545.4259025751667
 20
772.31747187773431
 11
1547.1200268862226
 21
770.62334756667838
  0
LINE
  8
_0-0_
  6
CONTINUOUS
 62
    6
 10
1524.0135037643663
 20
737.31747187773431
 11
1547.1200268862226
 21
760.42399499958515
  0
LINE
  8
_0-0_
  6
CONTINUOUS
 62
    7
 10
672.13606690525205
 20
1553.3565543671132
 11
1706.8525777203668
 21
1553.3565543671132
  0
LINE
  8
_0-0_
  6
CONTINUOUS
 62
    7
 10
672.13606690525205
 20
1473.3565543671132
 11
1706.8525777203668
 21
1473.3565543671132
  0
TEXT
  8
_0-0_
 62
    7
 10
1213.4943223128084
 20
1577.3565543671132
 40
20
 41
1
 50
0
  1
構造：ＲＣ造
  0
TEXT
  8
_0-0_
 62
    7
 10
1213.4943223128084
 20
1497.3565543671132
 40
20
 41
1
 50
0
  1
下地：コンクリートスラブ
  0
LINE
  8
_0-0_
  6
CONTINUOUS
 62
    7
 10
672.13606690525205
 20
1633.3565543671132
 11
1706.8525777203668
 21
1633.3565543671132
  0
LINE
  8
_0-0_
  6
CONTINUOUS
 62
    7
 10
1189.4943223128084
 20
1633.3565543671132
 11
1189.4943223128084
 21
1473.3565543671132
  0
TEXT
  8
_0-0_
 62
    7
 10
696.13606690525216
 20
1577.3565543671132
 40
20
 41
1
 50
0
  1
図面番号：UPM-10CF-kiso-01
  0
TEXT
  8
_0-0_
 62
    7
 10
696.13606690525194
 20
1497.3565543671132
 40
20
 41
1
 50
0
  1
施工部位：基礎・架台(置き基礎)
  0
ENDSEC
  0
EOF
