  0
SECTION
  2
HEADER
  9
$ACADVER
  1
AC1009
  9
$INSBASE
 10
0
 20
0
 30
0
  9
$EXTMIN
 10
0
 20
0
  9
$EXTMAX
 10
2378
 20
1682
  9
$LIMMIN
 10
0
 20
0
  9
$LIMMAX
 10
2378
 20
1682
  9
$LTSCALE
 40
1
  0
ENDSEC
  0
SECTION
  2
TABLES
  0
TABLE
  2
LTYPE
 70
     9
  0
LTYPE
  2
CONTINUOUS
 70
    64
  3
実線
 72
    65
 73
     0
 40
0.0
  0
LTYPE
  2
DASHED1
 70
    64
  3
--  --  --  --  --  --  --  --  
 72
    65
 73
     2
 40
2.5
 49
1.25
 49
-1.25
  0
LTYPE
  2
DASHED2
 70
    64
  3
----    ----    ----    ----    
 72
    65
 73
     2
 40
5.0
 49
2.5
 49
-2.5
  0
LTYPE
  2
DASHED3
 70
    64
  3
------  ------  ------  ------  
 72
    65
 73
     2
 40
5.0
 49
3.75
 49
-1.25
  0
LTYPE
  2
CENTER1
 70
    64
  3
----- - ----- - ----- - ----- - 
 72
    65
 73
     4
 40
10.0
 49
6.25
 49
-1.25
 49
1.25
 49
-1.25
  0
LTYPE
  2
CENTER2
 70
    64
  3
----------  --  ----------  --  
 72
    65
 73
     4
 40
20.0
 49
12.5
 49
-2.5
 49
2.5
 49
-2.5
  0
LTYPE
  2
PHANTOM1
 70
    64
  3
--- - - --- - - --- - - --- - - 
 72
    65
 73
     6
 40
10.0
 49
3.25
 49
-1.25
 49
1.25
 49
-1.25
 49
1.25
 49
-1.25
  0
LTYPE
  2
PHANTOM2
 70
    64
  3
--------  -  -  --------  -  -  
 72
    65
 73
     6
 40
20.0
 49
10.0
 49
-2.5
 49
1.25
 49
-2.5
 49
1.25
 49
-2.5
  0
LTYPE
  2
DOT
 70
    64
  3
-   -   -   -   -   -   -   -   
 72
    65
 73
     2
 40
2.5
 49
0.625
 49
-1.875
  0
LTYPE
  2
DUMMY
 70
    64
  3
ダミー
 72
    65
 73
     0
 40
0.0
  0
LTYPE
  2
RAND1
 70
    64
  3
ランダム線1
 72
    65
 73
     4
 40
10.0
 49
1.0
 49
-2.0
 49
3.0
 49
-4.0
  0
LTYPE
  2
RAND2
 70
    64
  3
ランダム線2
 72
    65
 73
     4
 40
14.0
 49
2.0
 49
-3.0
 49
4.0
 49
-5.0
  0
LTYPE
  2
RAND3
 70
    64
  3
ランダム線3
 72
    65
 73
     4
 40
18.0
 49
3.0
 49
-4.0
 49
5.0
 49
-6.0
  0
LTYPE
  2
RAND4
 70
    64
  3
ランダム線4
 72
    65
 73
     4
 40
22.0
 49
4.0
 49
-5.0
 49
6.0
 49
-7.0
  0
LTYPE
  2
RAND5
 70
    64
  3
ランダム線5
 72
    65
 73
     4
 40
26.0
 49
5.0
 49
-6.0
 49
7.0
 49
-8.0
  0
LTYPE
  2
LONG1
 70
    64
  3
----------  --  ----------  --  
 72
    65
 73
     4
 40
40.0
 49
32.5
 49
-2.5
 49
2.5
 49
-2.5
  0
LTYPE
  2
LONG2
 70
    64
  3
--------  -  -  --------  -  -  
 72
    65
 73
     6
 40
40.0
 49
30.0
 49
-2.5
 49
1.25
 49
-2.5
 49
1.25
 49
-2.5
  0
LTYPE
  2
LONG3
 70
    64
  3
+++++++++++++++..+++++++++++++++
 72
    65
 73
     2
 40
40.0
 49
37.5
 49
-2.5
  0
LTYPE
  2
LONG4
 70
    64
  3
+++++++++++++++..+++++++++++++++
 72
    65
 73
     2
 40
80.0
 49
75.0
 49
-5.0
  0
LTYPE
  2
LONG5
 70
    64
  3
----------  --  ----------  --  
 72
    65
 73
     4
 40
60.0
 49
37.5
 49
-7.5
 49
7.5
 49
-7.5
  0
LTYPE
  2
dashed
 70
   64
  3
-------   -------------   ------
 72
   65
 73
    2
 40
7.5
 49
6
 49
-1.5
  0
LTYPE
  2
dashed_spaced
 70
   64
  3
----        --------        ----
 72
   65
 73
    2
 40
12
 49
6
 49
-6
  0
LTYPE
  2
long_dashed_dotted
 70
   64
  3
------------- --- --------------
 72
   65
 73
    4
 40
15.25
 49
12
 49
-1.5
 49
0.25
 49
-1.5
  0
LTYPE
  2
long_dashed_double-dotted
 70
   64
  3
----------- --- --- ------------
 72
   65
 73
    6
 40
17
 49
12
 49
-1.5
 49
0.25
 49
-1.5
 49
0.25
 49
-1.5
  0
LTYPE
  2
long_dashed_triplicate-dotted
 70
   64
  3
--------- --- --- --- ----------
 72
   65
 73
    8
 40
18.75
 49
12
 49
-1.5
 49
0.25
 49
-1.5
 49
0.25
 49
-1.5
 49
0.25
 49
-1.5
  0
LTYPE
  2
dotted
 70
   64
  3
   -       -       -       -    
 72
   65
 73
    2
 40
1.75
 49
0.25
 49
-1.5
  0
LTYPE
  2
chain
 70
   64
  3
-------------- -- --------------
 72
   65
 73
    4
 40
18.5
 49
12
 49
-1.5
 49
3.5
 49
-1.5
  0
LTYPE
  2
chain_double_dash
 70
   64
  3
------------ -- -- -------------
 72
   65
 73
    6
 40
23.5
 49
12
 49
-1.5
 49
3.5
 49
-1.5
 49
3.5
 49
-1.5
  0
LTYPE
  2
dashed_dotted
 70
   64
  3
-----------     -     ----------
 72
   65
 73
    4
 40
9.25
 49
6
 49
-1.5
 49
0.25
 49
-1.5
  0
LTYPE
  2
double-dashed_dotted
 70
   64
  3
------   -----------   -   -----
 72
   65
 73
    6
 40
16.75
 49
6
 49
-1.5
 49
6
 49
-1.5
 49
0.25
 49
-1.5
  0
LTYPE
  2
dashed_double-dotted
 70
   64
  3
---------    -    -    ---------
 72
   65
 73
    6
 40
11
 49
6
 49
-1.5
 49
0.25
 49
-1.5
 49
0.25
 49
-1.5
  0
LTYPE
  2
double-dashed_double-dotted
 70
   64
  3
-----   ---------   -   -   ----
 72
   65
 73
    8
 40
18.5
 49
6
 49
-1.5
 49
6
 49
-1.5
 49
0.25
 49
-1.5
 49
0.25
 49
-1.5
  0
LTYPE
  2
dashed_triplicate-dotted
 70
   64
  3
-------    -    -    -    ------
 72
   65
 73
    8
 40
12.75
 49
6
 49
-1.5
 49
0.25
 49
-1.5
 49
0.25
 49
-1.5
 49
0.25
 49
-1.5
  0
LTYPE
  2
double-dashed_triplicate-dotted
 70
   64
  3
-----  ---------  -  -  -  -----
 72
   65
 73
   10
 40
20.25
 49
6
 49
-1.5
 49
6
 49
-1.5
 49
0.25
 49
-1.5
 49
0.25
 49
-1.5
 49
0.25
 49
-1.5
  0
LTYPE
  2
undefined
 70
   64
  3
--------------------------------
 72
   65
 73
    0
 40
0
  0
ENDTAB
  0
TABLE
  2
STYLE
  5
3
100
AcDbSymbolTable
 70
     1
  0
STYLE
  5
10
100
AcDbSymbolTableRecord
100
AcDbTextStyleTableRecord
  2
STANDARD
 70
     0
 40
0.0
 41
1.0
 50
0.0
 71
     0
 42
0.2
  3
txt
  4
bigfont.shx
  0
STYLE
  5
26
100
AcDbSymbolTableRecord
100
AcDbTextStyleTableRecord
  2
TATEGAKI
 70
    68
 40
0.0
 41
1.0
 50
0.0
 71
     0
 42
1.0
  3
txt
  4
bigfont.shx
  0
ENDTAB
  0
TABLE
  2
LAYER
 70
    2
  0
LAYER
  2
_0-0_
 70
   64
 62
    7
  6
CONTINUOUS
  0
LAYER
  2
ADD_LINE
 70
   64
 62
    7
  6
CONTINUOUS
  0
ENDTAB
  0
ENDSEC
  0
SECTION
  2
BLOCKS
  0
ENDSEC
  0
SECTION
  2
ENTITIES
  0
LINE
  8
_0-0_
  6
CONTINUOUS
 62
    7
 10
827.09285971498332
 20
1027.1006918825417
 11
983.08437229390995
 21
1027.1006918825417
  0
LINE
  8
_0-0_
  6
CONTINUOUS
 62
    5
 10
963.08437229390995
 20
1027.1006918825417
 11
963.08437229390995
 21
947.1006918825417
  0
LINE
  8
_0-0_
  6
CONTINUOUS
 62
    2
 10
1376.3499830577457
 20
1118.3004325817594
 11
1377.8877539518162
 21
1119.8382034758299
  0
LINE
  8
_0-0_
  6
CONTINUOUS
 62
    2
 10
1374.7884859574333
 20
1118.7188344687722
 11
1377.0359802294479
 21
1120.9663287407868
  0
LINE
  8
_0-0_
  6
CONTINUOUS
 62
    2
 10
1373.2269888571227
 20
1119.1372363557832
 11
1376.2756400259295
 21
1122.1858875245882
  0
LINE
  8
_0-0_
  6
CONTINUOUS
 62
    7
 10
1150.7843722939106
 20
1106.2217461596567
 11
1150.7843722939106
 21
700.86334575368278
  0
LINE
  8
_0-0_
  6
CONTINUOUS
 62
    7
 10
672.13606690525205
 20
567.53106997205509
 11
1706.8525777203686
 21
567.53106997205509
  0
LINE
  8
_0-0_
  6
CONTINUOUS
 62
    7
 10
672.13606690525205
 20
167.53106997205509
 11
1706.8525777203686
 21
167.53106997205509
  0
LINE
  8
_0-0_
  6
CONTINUOUS
 62
    7
 10
672.13606690525205
 20
627.53106997205509
 11
1706.8525777203686
 21
627.53106997205509
  0
LINE
  8
_0-0_
  6
CONTINUOUS
 62
    7
 10
1189.4943223128103
 20
627.53106997205509
 11
1189.4943223128103
 21
167.53106997205509
  0
LINE
  8
_0-0_
  6
CONTINUOUS
 62
    7
 10
672.13606690525205
 20
1633.3565543671114
 11
672.13606690525205
 21
167.53106997205509
  0
LINE
  8
_0-0_
  6
CONTINUOUS
 62
    7
 10
1706.8525777203686
 20
1633.3565543671114
 11
1706.8525777203686
 21
167.53106997205509
  0
LINE
  8
_0-0_
  6
CONTINUOUS
 62
    7
 10
1364.2843722939106
 20
1246.2217461596567
 11
1374.7843722939106
 21
1246.2217461596567
  0
LINE
  8
_0-0_
  6
CONTINUOUS
 62
    7
 10
1497.895766268437
 20
1351.4764552103745
 11
1505.1896791582585
 21
1343.9233873068181
  0
LINE
  8
_0-0_
  6
CONTINUOUS
 62
    7
 10
1463.1896791582549
 20
1246.2217461596567
 11
1459.6896791582585
 21
1256.7217461596567
  0
LINE
  8
_0-0_
  6
CONTINUOUS
 62
    7
 10
1459.6896791582585
 20
1256.7217461596567
 11
1449.1896791582585
 21
1256.7217461596567
  0
LINE
  8
_0-0_
  6
CONTINUOUS
 62
    7
 10
1449.1896791582585
 20
1256.7217461596567
 11
1449.1896791582585
 21
1246.2217461596567
  0
LINE
  8
_0-0_
  6
CONTINUOUS
 62
    7
 10
1505.1896791582585
 20
1343.9233873068181
 11
1497.895766268437
 21
1351.4764552103745
  0
LINE
  8
_0-0_
  6
CONTINUOUS
 62
    7
 10
1087.7843722939106
 20
1246.2217461596567
 11
1449.1896791582585
 21
1246.2217461596567
  0
LINE
  8
_0-0_
  6
CONTINUOUS
 62
    7
 10
996.63744019746457
 20
1368.9807816709174
 11
1497.895766268437
 21
1351.4764552103745
  0
LINE
  8
_0-0_
  6
CONTINUOUS
 62
    7
 10
996.63744019746457
 20
1368.9807816709174
 11
989.08437229390995
 21
1361.6868687810977
  0
LINE
  8
_0-0_
  6
CONTINUOUS
 62
    7
 10
1505.1896791582585
 20
1253.6463673621158
 11
1505.1896791582585
 21
1343.9233873068181
  0
LINE
  8
_0-0_
  6
CONTINUOUS
 62
    7
 10
1497.7650579557994
 20
1246.2217461596567
 11
1463.1896791582549
 21
1246.2217461596567
  0
LINE
  8
_0-0_
  6
CONTINUOUS
 62
    7
 10
1505.1896791582585
 20
1253.6463673621158
 11
1497.7650579557994
 21
1246.2217461596567
  0
LINE
  8
_0-0_
  6
CONTINUOUS
 62
  136
 10
1322.2843722939106
 20
1212.6217461596582
 11
1326.4843722939113
 21
1212.6217461596582
  0
LINE
  8
_0-0_
  6
CONTINUOUS
 62
  136
 10
1322.2843722939106
 20
1198.6217461596582
 11
1322.2843722939106
 21
1212.6217461596582
  0
LINE
  8
_0-0_
  6
CONTINUOUS
 62
  136
 10
1326.4843722939113
 20
1198.6217461596582
 11
1326.4843722939113
 21
1212.6217461596582
  0
LINE
  8
_0-0_
  6
CONTINUOUS
 62
  136
 10
1269.7843722939106
 20
1198.6217461596582
 11
1322.2843722939106
 21
1198.6217461596582
  0
LINE
  8
_0-0_
  6
CONTINUOUS
 62
  136
 10
1269.7843722939106
 20
1125.8217461596553
 11
1322.2843722939106
 21
1125.8217461596553
  0
LINE
  8
_0-0_
  6
CONTINUOUS
 62
  136
 10
1322.2843722939106
 20
1125.8217461596553
 11
1322.2843722939106
 21
1111.8217461596553
  0
LINE
  8
_0-0_
  6
CONTINUOUS
 62
  136
 10
1322.2843722939106
 20
1111.8217461596553
 11
1326.4843722939113
 21
1111.8217461596553
  0
LINE
  8
_0-0_
  6
CONTINUOUS
 62
  136
 10
1326.4843722939113
 20
1125.8217461596553
 11
1326.4843722939113
 21
1111.8217461596553
  0
LINE
  8
_0-0_
  6
CONTINUOUS
 62
    7
 10
1357.9843722939113
 20
1194.4217461596575
 11
1368.4843722939113
 21
1190.2217461596567
  0
LINE
  8
_0-0_
  6
CONTINUOUS
 62
    7
 10
1368.4843722939113
 20
1194.4217461596575
 11
1357.9843722939113
 21
1190.2217461596567
  0
LINE
  8
_0-0_
  6
CONTINUOUS
 62
    7
 10
1357.9843722939113
 20
1134.2217461596567
 11
1368.4843722939113
 21
1130.021746159656
  0
LINE
  8
_0-0_
  6
CONTINUOUS
 62
    7
 10
1368.4843722939113
 20
1134.2217461596567
 11
1357.9843722939113
 21
1130.021746159656
  0
LINE
  8
_0-0_
  6
CONTINUOUS
 62
    7
 10
1357.9843722939113
 20
1134.2217461596567
 11
1357.9843722939113
 21
1130.021746159656
  0
LINE
  8
_0-0_
  6
CONTINUOUS
 62
    7
 10
1368.4843722939113
 20
1134.2217461596567
 11
1368.4843722939113
 21
1130.021746159656
  0
LINE
  8
_0-0_
  6
CONTINUOUS
 62
    7
 10
1368.4843722939113
 20
1194.4217461596575
 11
1368.4843722939113
 21
1190.2217461596567
  0
LINE
  8
_0-0_
  6
CONTINUOUS
 62
    7
 10
1357.9843722939113
 20
1194.4217461596575
 11
1357.9843722939113
 21
1190.2217461596567
  0
LINE
  8
_0-0_
  6
CONTINUOUS
 62
    2
 10
1370.2522057497408
 20
1130.0217461596596
 11
1374.4522057497416
 21
1134.2217461596567
  0
LINE
  8
_0-0_
  6
CONTINUOUS
 62
    2
 10
1368.4843722939113
 20
1130.2338116911499
 11
1372.4723067624182
 21
1134.2217461596567
  0
LINE
  8
_0-0_
  6
CONTINUOUS
 62
    2
 10
1368.4843722939113
 20
1132.2137106784733
 11
1370.4924077750948
 21
1134.2217461596567
  0
LINE
  8
_0-0_
  6
CONTINUOUS
 62
    2
 10
1368.4843722939113
 20
1134.1936096657948
 11
1368.512508787775
 21
1134.2217461596567
  0
LINE
  8
_0-0_
  6
CONTINUOUS
 62
    2
 10
1369.075337142749
 20
1190.2217461596586
 11
1373.2753371427498
 21
1194.4217461596575
  0
LINE
  8
_0-0_
  6
CONTINUOUS
 62
    2
 10
1368.4843722939113
 20
1191.6106802981424
 11
1371.2954381554264
 21
1194.4217461596556
  0
LINE
  8
_0-0_
  6
CONTINUOUS
 62
    2
 10
1368.4843722939113
 20
1193.5905792854658
 11
1369.315539168103
 21
1194.4217461596556
  0
LINE
  8
_0-0_
  6
CONTINUOUS
 62
    7
 10
1364.2843722939106
 20
1115.3217461596553
 11
1364.2843722939106
 21
1125.8217461596553
  0
LINE
  8
_0-0_
  6
CONTINUOUS
 62
    7
 10
1364.2843722939106
 20
1115.3217461596553
 11
1374.7843722939106
 21
1112.50827963913
  0
LINE
  8
_0-0_
  6
CONTINUOUS
 62
  136
 10
1269.7843722939106
 20
1198.6217461596582
 11
1269.7843722939106
 21
1194.4217461596575
  0
LINE
  8
_0-0_
  6
CONTINUOUS
 62
  136
 10
1269.7843722939106
 20
1130.021746159656
 11
1269.7843722939106
 21
1125.8217461596553
  0
LINE
  8
_0-0_
  6
CONTINUOUS
 62
    2
 10
1364.2843722939106
 20
1122.0740137165042
 11
1368.0321047370635
 21
1125.8217461596553
  0
LINE
  8
_0-0_
  6
CONTINUOUS
 62
    2
 10
1364.2843722939142
 20
1124.0539127038294
 11
1366.0522057497437
 21
1125.8217461596589
  0
LINE
  8
_0-0_
  6
CONTINUOUS
 62
    7
 10
1364.2843722939106
 20
1235.7217461596567
 11
1364.2843722939106
 21
1246.2217461596567
  0
LINE
  8
_0-0_
  6
CONTINUOUS
 62
    7
 10
1364.2843722939106
 20
1235.7217461596567
 11
1374.7843722939106
 21
1232.9082796391278
  0
LINE
  8
_0-0_
  6
CONTINUOUS
 62
  136
 10
1374.7843722939106
 20
1130.021746159656
 11
1374.7843722939106
 21
1125.8217461596553
  0
LINE
  8
_0-0_
  6
CONTINUOUS
 62
  136
 10
1374.7843722939106
 20
1198.6217461596582
 11
1374.7843722939106
 21
1194.4217461596575
  0
LINE
  8
_0-0_
  6
CONTINUOUS
 62
  136
 10
1326.4843722939113
 20
1198.6217461596582
 11
1374.7843722939106
 21
1198.6217461596582
  0
LINE
  8
_0-0_
  6
CONTINUOUS
 62
  136
 10
1269.7843722939106
 20
1194.4217461596575
 11
1374.7843722939106
 21
1194.4217461596575
  0
LINE
  8
_0-0_
  6
CONTINUOUS
 62
  136
 10
1269.7843722939106
 20
1130.021746159656
 11
1374.7843722939106
 21
1130.021746159656
  0
LINE
  8
_0-0_
  6
CONTINUOUS
 62
  136
 10
1326.4843722939113
 20
1125.8217461596553
 11
1374.7843722939106
 21
1125.8217461596553
  0
ARC
  8
_0-0_
  6
CONTINUOUS
 62
    2
 10
1387.1289294274357
 20
1132.1217461596564
 40
12.521904440733111
 50
170.34552531892481
 51
189.65447468107519
  0
LINE
  8
_0-0_
  6
CONTINUOUS
 62
    2
 10
1372.2321047370642
 20
1130.021746159656
 11
1374.6101114688609
 21
1132.3997528914545
  0
LINE
  8
_0-0_
  6
CONTINUOUS
 62
    2
 10
1374.212003724384
 20
1130.021746159656
 11
1374.7099334296327
 21
1130.519675864901
  0
ARC
  8
_0-0_
  6
CONTINUOUS
 62
    2
 10
1384.7671180513389
 20
1192.3217461596571
 40
10.201235849513667
 50
168.12030433418508
 51
191.87969566581492
  0
LINE
  8
_0-0_
  6
CONTINUOUS
 62
    2
 10
1373.0351351173922
 20
1190.2217461596549
 11
1374.5809466415012
 21
1191.7675576837621
  0
LINE
  8
_0-0_
  6
CONTINUOUS
 62
    2
 10
1371.0552361300688
 20
1190.2217461596549
 11
1374.6805631171774
 21
1193.8470731467653
  0
LINE
  8
_0-0_
  6
CONTINUOUS
 62
    7
 10
1364.2843722939106
 20
1209.1217461596582
 11
1364.2843722939106
 21
1198.6217461596582
  0
LINE
  8
_0-0_
  6
CONTINUOUS
 62
    7
 10
1364.2843722939106
 20
1209.1217461596582
 11
1374.7843722939106
 21
1211.9352126801834
  0
LINE
  8
_0-0_
  6
CONTINUOUS
 62
    2
 10
1364.2843722939106
 20
1242.8478519431676
 11
1367.6582665103997
 21
1246.2217461596567
  0
LINE
  8
_0-0_
  6
CONTINUOUS
 62
    2
 10
1364.2843722939106
 20
1244.827750930491
 11
1365.6783675230799
 21
1246.2217461596567
  0
LINE
  8
_0-0_
  6
CONTINUOUS
 62
    7
 10
1374.7843722939106
 20
1232.9082796391278
 11
1374.7843722939106
 21
1211.9352126801834
  0
CIRCLE
  8
_0-0_
  6
DASHED2
 62
    1
 10
1350.9106371874441
 20
1161.6510549350435
 40
67.350194333739935
  0
TEXT
  8
_0-0_
 62
    7
 10
1329.720462786765
 20
1218.0037741454519
 40
24
 41
1
 50
0
  1
Ａ
  0
LINE
  8
_0-0_
  6
CONTINUOUS
 62
  136
 10
1269.7843722939106
 20
1198.6217461596582
 11
1269.7843722939106
 21
1194.4217461596575
  0
LINE
  8
_0-0_
  6
CONTINUOUS
 62
  136
 10
1269.7843722939106
 20
1130.021746159656
 11
1269.7843722939106
 21
1125.8217461596553
  0
LINE
  8
_0-0_
  6
CONTINUOUS
 62
    7
 10
1087.7843722939106
 20
732.17009188254201
 11
1087.7843722939106
 21
1246.2217461596567
  0
LINE
  8
_0-0_
  6
CONTINUOUS
 62
    7
 10
1269.7843722939106
 20
1194.4217461596575
 11
1269.7843722939106
 21
1246.2217461596567
  0
LINE
  8
_0-0_
  6
CONTINUOUS
 62
    7
 10
1269.7843722939106
 20
734.1006918825417
 11
1269.7843722939106
 21
1130.021746159656
  0
LINE
  8
_0-0_
  6
CONTINUOUS
 62
    7
 10
1440.3785802167149
 20
732.17009188254019
 11
1584.7843722939106
 21
876.57588395973767
  0
LINE
  8
_0-0_
  6
CONTINUOUS
 62
    7
 10
1433.3075124048482
 20
732.17009188254201
 11
1584.7843722939106
 21
883.64695177160434
  0
LINE
  8
_0-0_
  6
CONTINUOUS
 62
    7
 10
1426.2364445929816
 20
732.17009188254201
 11
1584.7843722939106
 21
890.71801958346737
  0
LINE
  8
_0-0_
  6
CONTINUOUS
 62
    7
 10
987.83024025732277
 20
732.17009188254201
 11
1087.7843722939106
 21
832.1242239191281
  0
LINE
  8
_0-0_
  6
CONTINUOUS
 62
    7
 10
1269.7843722939106
 20
1014.1242239191281
 11
1369.5665415484109
 21
1113.9063931736284
  0
LINE
  8
_0-0_
  6
CONTINUOUS
 62
    7
 10
980.75917244545792
 20
732.17009188254201
 11
1087.7843722939087
 21
839.19529173099295
  0
LINE
  8
_0-0_
  6
CONTINUOUS
 62
    7
 10
1269.7843722939106
 20
1021.1952917309948
 11
1364.2843722939106
 21
1115.6952917309948
  0
LINE
  8
_0-0_
  6
CONTINUOUS
 62
    7
 10
1494.8108267225725
 20
1246.2217461596567
 11
1505.1896791582585
 21
1256.6005985953427
  0
LINE
  8
_0-0_
  6
CONTINUOUS
 62
    7
 10
973.68810463359125
 20
732.17009188254019
 11
1087.7843722939106
 21
846.2663595428578
  0
LINE
  8
_0-0_
  6
CONTINUOUS
 62
    7
 10
1269.7843722939106
 20
1028.2663595428596
 11
1364.2843722939106
 21
1122.7663595428614
  0
LINE
  8
_0-0_
  6
CONTINUOUS
 62
    7
 10
1487.7397589107059
 20
1246.2217461596549
 11
1505.1896791582585
 21
1263.6716664072057
  0
LINE
  8
_0-0_
  6
CONTINUOUS
 62
    7
 10
989.08437229390813
 20
959.69839389882077
 11
1087.7843722939106
 21
1058.3983938988215
  0
LINE
  8
_0-0_
  6
CONTINUOUS
 62
    7
 10
1269.7843722939106
 20
1240.3983938988251
 11
1384.8114257923517
 21
1355.4254473972626
  0
LINE
  8
_0-0_
  6
CONTINUOUS
 62
    7
 10
989.08437229390813
 20
966.76946171068744
 11
1087.7843722939087
 21
1065.4694617106882
  0
LINE
  8
_0-0_
  6
CONTINUOUS
 62
    7
 10
1268.5366567428773
 20
1246.2217461596567
 11
1377.9789531815841
 21
1355.6640425983653
  0
LINE
  8
_0-0_
  6
CONTINUOUS
 62
    7
 10
989.08437229390995
 20
973.84052952255411
 11
1087.7843722939106
 21
1072.540529522553
  0
LINE
  8
_0-0_
  6
CONTINUOUS
 62
    7
 10
1261.4655889310125
 20
1246.2217461596567
 11
1371.1464805708201
 21
1355.9026377994644
  0
LINE
  8
_0-0_
  6
CONTINUOUS
 62
    7
 10
989.08437229390995
 20
1185.9725638785178
 11
1166.1723022478327
 21
1363.0604938324407
  0
LINE
  8
_0-0_
  6
CONTINUOUS
 62
    7
 10
989.08437229390995
 20
1193.0436316903827
 11
1159.3398296370651
 21
1363.2990890335398
  0
LINE
  8
_0-0_
  6
CONTINUOUS
 62
    7
 10
989.08437229390995
 20
1200.1146995022475
 11
1152.5073570263012
 21
1363.5376842346407
  0
LINE
  8
_0-0_
  6
CONTINUOUS
 62
    7
 10
1206.7843722939106
 20
1106.2217461596567
 11
1206.7843722939106
 21
700.86341575368101
  0
LINE
  8
_0-0_
  6
CONTINUOUS
 62
    7
 10
1143.7843722939106
 20
1106.2217461596567
 11
1213.7843722939106
 21
1106.2217461596567
  0
LINE
  8
_0-0_
  6
CONTINUOUS
 62
    7
 10
1234.7843722939106
 20
1197.2217461596567
 11
1234.7843722939106
 21
1127.2217461596567
  0
LINE
  8
_0-0_
  6
CONTINUOUS
 62
    7
 10
1206.7843722939106
 20
700.86341575368101
 11
1205.6039132939113
 21
699.11111975368226
  0
LINE
  8
_0-0_
  6
CONTINUOUS
 62
    7
 10
1204.2059432939095
 20
697.52805575368188
 11
1202.6141502939099
 21
696.14027075368108
  0
LINE
  8
_0-0_
  6
CONTINUOUS
 62
    7
 10
1200.8556172939097
 20
694.97145975368153
 11
1198.9598002939092
 21
694.04118775368192
  0
LINE
  8
_0-0_
  6
CONTINUOUS
 62
    7
 10
1196.9591022939094
 20
693.36537975368196
 11
1194.8877392939103
 21
692.95552275368141
  0
LINE
  8
_0-0_
  6
CONTINUOUS
 62
    7
 10
1192.7883272939107
 20
692.81845575368175
 11
1190.6809982939121
 21
692.95552275368141
  0
LINE
  8
_0-0_
  6
CONTINUOUS
 62
    7
 10
1188.6096352939094
 20
693.36537975368196
 11
1186.6089372939095
 21
694.04118775368192
  0
LINE
  8
_0-0_
  6
CONTINUOUS
 62
    7
 10
1184.7131202939127
 20
694.97145975368153
 11
1182.9545872939125
 21
696.14027075368108
  0
LINE
  8
_0-0_
  6
CONTINUOUS
 62
    7
 10
1181.3627942939092
 20
697.52805575368188
 11
1179.9648242939111
 21
699.11111975368226
  0
LINE
  8
_0-0_
  6
CONTINUOUS
 62
    7
 10
1178.7843722939106
 20
700.86341575368101
 11
1177.6039132939113
 21
702.6156347536828
  0
LINE
  8
_0-0_
  6
CONTINUOUS
 62
    7
 10
1176.2059432939095
 20
704.19869875368136
 11
1174.6141502939099
 21
705.58648375368216
  0
LINE
  8
_0-0_
  6
CONTINUOUS
 62
    7
 10
1172.8556172939097
 20
706.75529475368171
 11
1170.9598002939092
 21
707.68556675368131
  0
LINE
  8
_0-0_
  6
CONTINUOUS
 62
    7
 10
1168.9591022939094
 20
708.36137475368128
 11
1166.8877392939103
 21
708.77123175368183
  0
LINE
  8
_0-0_
  6
CONTINUOUS
 62
    7
 10
1164.7804102939117
 20
708.90829875368331
 11
1162.6809982939085
 21
708.77123175368183
  0
LINE
  8
_0-0_
  6
CONTINUOUS
 62
    7
 10
1160.6096352939094
 20
708.36137475368128
 11
1158.6089372939095
 21
707.68556675368131
  0
LINE
  8
_0-0_
  6
CONTINUOUS
 62
    7
 10
1156.7131202939127
 20
706.75529475368171
 11
1154.9545872939125
 21
705.58648375368216
  0
LINE
  8
_0-0_
  6
CONTINUOUS
 62
    7
 10
1153.3627942939092
 20
704.19869875368136
 11
1151.9648242939111
 21
702.6156347536828
  0
LINE
  8
_0-0_
  6
CONTINUOUS
 62
    7
 10
1178.7843722939106
 20
700.86341575368101
 11
1179.9648242939111
 21
699.11111975368226
  0
LINE
  8
_0-0_
  6
CONTINUOUS
 62
    7
 10
1181.3627942939092
 20
697.52805575368188
 11
1182.9545872939125
 21
696.14027075368108
  0
LINE
  8
_0-0_
  6
CONTINUOUS
 62
    7
 10
1184.7131202939127
 20
694.97145975368153
 11
1186.6089372939095
 21
694.04118775368192
  0
LINE
  8
_0-0_
  6
CONTINUOUS
 62
    7
 10
1188.6096352939094
 20
693.36537975368196
 11
1190.6809982939121
 21
692.95552275368141
  0
LINE
  8
_0-0_
  6
CONTINUOUS
 62
    7
 10
1192.7883272939107
 20
692.81845575368175
 11
1194.8877392939103
 21
692.95552275368141
  0
LINE
  8
_0-0_
  6
CONTINUOUS
 62
    7
 10
1196.9591022939094
 20
693.36537975368196
 11
1198.9598002939092
 21
694.04118775368192
  0
LINE
  8
_0-0_
  6
CONTINUOUS
 62
    7
 10
1200.8556172939097
 20
694.97145975368153
 11
1202.6141502939099
 21
696.14027075368108
  0
LINE
  8
_0-0_
  6
CONTINUOUS
 62
    7
 10
1204.2059432939095
 20
697.52805575368188
 11
1205.6039132939113
 21
699.11111975368226
  0
LINE
  8
_0-0_
  6
CONTINUOUS
 62
    7
 10
1150.7843722939106
 20
700.86334575368278
 11
1151.9648242939111
 21
702.6156347536828
  0
LINE
  8
_0-0_
  6
CONTINUOUS
 62
    7
 10
1153.3627942939092
 20
704.19869875368136
 11
1154.9545872939125
 21
705.58648375368216
  0
LINE
  8
_0-0_
  6
CONTINUOUS
 62
    7
 10
1156.7131202939127
 20
706.75529475368171
 11
1158.6089372939095
 21
707.68556675368131
  0
LINE
  8
_0-0_
  6
CONTINUOUS
 62
    7
 10
1160.6096352939094
 20
708.36137475368128
 11
1162.6809982939085
 21
708.77123175368183
  0
LINE
  8
_0-0_
  6
CONTINUOUS
 62
    7
 10
1164.7804102939117
 20
708.90829875368331
 11
1166.8877392939103
 21
708.77123175368183
  0
LINE
  8
_0-0_
  6
CONTINUOUS
 62
    7
 10
1168.9591022939094
 20
708.36137475368128
 11
1170.9598002939092
 21
707.68556675368131
  0
LINE
  8
_0-0_
  6
CONTINUOUS
 62
    7
 10
1172.8556172939097
 20
706.75529475368171
 11
1174.6141502939099
 21
705.58648375368216
  0
LINE
  8
_0-0_
  6
CONTINUOUS
 62
    7
 10
1176.2059432939095
 20
704.19869875368136
 11
1177.6039132939113
 21
702.6156347536828
  0
LINE
  8
_0-0_
  6
CONTINUOUS
 62
    7
 10
1178.7843722939106
 20
700.86341575368101
 11
1177.6039132939113
 21
699.11111975368226
  0
LINE
  8
_0-0_
  6
CONTINUOUS
 62
    7
 10
1176.2059432939095
 20
697.52805575368188
 11
1174.6141502939099
 21
696.14027075368108
  0
LINE
  8
_0-0_
  6
CONTINUOUS
 62
    7
 10
1172.8556172939097
 20
694.97145975368153
 11
1170.9598002939092
 21
694.04118775368192
  0
LINE
  8
_0-0_
  6
CONTINUOUS
 62
    7
 10
1168.9591022939094
 20
693.36537975368196
 11
1166.8877392939103
 21
692.95552275368141
  0
LINE
  8
_0-0_
  6
CONTINUOUS
 62
    7
 10
1164.7883272939107
 20
692.81845575368175
 11
1162.6809982939085
 21
692.95552275368141
  0
LINE
  8
_0-0_
  6
CONTINUOUS
 62
    7
 10
1160.6096352939094
 20
693.36537975368196
 11
1158.6089372939095
 21
694.04118775368192
  0
LINE
  8
_0-0_
  6
CONTINUOUS
 62
    7
 10
1156.7131202939127
 20
694.97145975368153
 11
1154.9545872939125
 21
696.14027075368108
  0
LINE
  8
_0-0_
  6
CONTINUOUS
 62
    7
 10
1153.3627942939092
 20
697.52805575368188
 11
1151.9648242939111
 21
699.11111975368226
  0
LINE
  8
_0-0_
  6
CONTINUOUS
 62
    7
 10
1150.7843722939106
 20
700.86341575368101
 11
1150.7841570239761
 21
700.86341901643868
  0
LINE
  8
_0-0_
  6
CONTINUOUS
 62
    7
 10
1150.7843722939106
 20
700.86341575368101
 11
1151.9648242939111
 21
699.11111975368226
  0
LINE
  8
_0-0_
  6
CONTINUOUS
 62
    7
 10
1177.6039132939113
 20
699.11111975368226
 11
1176.2059432939095
 21
697.52805575368188
  0
LINE
  8
_0-0_
  6
CONTINUOUS
 62
    7
 10
1174.6141502939099
 20
696.14027075368108
 11
1172.8556172939097
 21
694.97145975368153
  0
LINE
  8
_0-0_
  6
CONTINUOUS
 62
    7
 10
1170.9598002939092
 20
694.04118775368192
 11
1168.9591022939094
 21
693.36537975368196
  0
LINE
  8
_0-0_
  6
CONTINUOUS
 62
    7
 10
1166.8877392939103
 20
692.95552275368141
 11
1164.7883272939107
 21
692.81845575368175
  0
LINE
  8
_0-0_
  6
CONTINUOUS
 62
    7
 10
1162.6809982939085
 20
692.95552275368141
 11
1160.6096352939094
 21
693.36537975368196
  0
LINE
  8
_0-0_
  6
CONTINUOUS
 62
    7
 10
1158.6089372939095
 20
694.04118775368192
 11
1156.7131202939127
 21
694.97145975368153
  0
LINE
  8
_0-0_
  6
CONTINUOUS
 62
    7
 10
1154.9545872939125
 20
696.14027075368108
 11
1153.3627942939092
 21
697.52805575368188
  0
LINE
  8
_0-0_
  6
CONTINUOUS
 62
    7
 10
1234.7843722939106
 20
1197.2217461596567
 11
1206.7843722939106
 21
1197.2217461596567
  0
LINE
  8
_0-0_
  6
CONTINUOUS
 62
    7
 10
1143.7843722939106
 20
1134.2217461596567
 11
1143.7843722939106
 21
1106.2217461596567
  0
ARC
  8
_0-0_
  6
CONTINUOUS
 62
    7
 10
1206.7843722939106
 20
1134.2217461596567
 40
63
 50
90
 51
180
  0
ARC
  8
_0-0_
  6
CONTINUOUS
 62
    7
 10
1234.5966946156714
 20
1106.2217461596567
 40
21.000838623990937
 50
89.487959400031784
 51
180
  0
LINE
  8
_0-0_
  6
CONTINUOUS
 62
    7
 10
1234.7843722939106
 20
1190.2217461596567
 11
1441.3392857260842
 21
1190.2217461596567
  0
LINE
  8
_0-0_
  6
CONTINUOUS
 62
    7
 10
1449.1896791582585
 20
1256.7217461596567
 11
1459.6896791582585
 21
1256.7217461596567
  0
LINE
  8
_0-0_
  6
CONTINUOUS
 62
    7
 10
1459.6896791582585
 20
1256.7217461596567
 11
1463.1896791582549
 21
1246.2217461596567
  0
LINE
  8
_0-0_
  6
CONTINUOUS
 62
    7
 10
1441.3394257260843
 20
1134.2217461596567
 11
1439.5902587260862
 21
1135.3997761596559
  0
LINE
  8
_0-0_
  6
CONTINUOUS
 62
    7
 10
1438.0068517260843
 20
1136.7973611596565
 11
1436.6186817260859
 21
1138.3888181596569
  0
LINE
  8
_0-0_
  6
CONTINUOUS
 62
    7
 10
1435.449436726085
 20
1140.1470641596563
 11
1434.5187027260836
 21
1142.0426501596569
  0
LINE
  8
_0-0_
  6
CONTINUOUS
 62
    7
 10
1433.8424117260838
 20
1144.0431871596568
 11
1433.4320507260854
 21
1146.1144521596555
  0
LINE
  8
_0-0_
  6
CONTINUOUS
 62
    7
 10
1433.294465726085
 20
1148.2217461596567
 11
1433.4320507260854
 21
1150.3290331596556
  0
LINE
  8
_0-0_
  6
CONTINUOUS
 62
    7
 10
1433.8424117260838
 20
1152.4002981596561
 11
1434.5187027260836
 21
1154.4008351596578
  0
LINE
  8
_0-0_
  6
CONTINUOUS
 62
    7
 10
1435.449436726085
 20
1156.2964211596566
 11
1436.6186817260859
 21
1158.0546671596578
  0
LINE
  8
_0-0_
  6
CONTINUOUS
 62
    7
 10
1438.0068517260843
 20
1159.6461241596564
 11
1439.5902587260862
 21
1161.0437091596552
  0
LINE
  8
_0-0_
  6
CONTINUOUS
 62
    7
 10
1441.3394257260843
 20
1162.2217461596567
 11
1443.0884457260836
 21
1163.3997761596559
  0
LINE
  8
_0-0_
  6
CONTINUOUS
 62
    7
 10
1444.6718527260855
 20
1164.7973611596565
 11
1446.0600227260838
 21
1166.3888181596569
  0
LINE
  8
_0-0_
  6
CONTINUOUS
 62
    7
 10
1447.2292677260848
 20
1168.1470641596563
 11
1448.1600017260826
 21
1170.0426501596569
  0
LINE
  8
_0-0_
  6
CONTINUOUS
 62
    7
 10
1448.836292726086
 20
1172.0431871596568
 11
1449.2466537260843
 21
1174.1144521596555
  0
LINE
  8
_0-0_
  6
CONTINUOUS
 62
    7
 10
1449.3842457260835
 20
1176.2217461596567
 11
1449.2466537260843
 21
1178.3290331596556
  0
LINE
  8
_0-0_
  6
CONTINUOUS
 62
    7
 10
1448.836292726086
 20
1180.4002981596561
 11
1448.1600017260826
 21
1182.4008351596578
  0
LINE
  8
_0-0_
  6
CONTINUOUS
 62
    7
 10
1447.2292677260848
 20
1184.2964211596566
 11
1446.0600227260838
 21
1186.0546671596578
  0
LINE
  8
_0-0_
  6
CONTINUOUS
 62
    7
 10
1444.6718527260855
 20
1187.6461241596564
 11
1443.0884457260836
 21
1189.0437091596552
  0
LINE
  8
_0-0_
  6
CONTINUOUS
 62
    7
 10
1441.3392857260842
 20
1190.2217461596567
 11
1443.0884457260836
 21
1189.0437091596552
  0
LINE
  8
_0-0_
  6
CONTINUOUS
 62
    7
 10
1444.6718527260855
 20
1187.6461241596564
 11
1446.0600227260838
 21
1186.0546671596578
  0
LINE
  8
_0-0_
  6
CONTINUOUS
 62
    7
 10
1447.2292677260848
 20
1184.2964211596566
 11
1448.1600017260826
 21
1182.4008351596578
  0
LINE
  8
_0-0_
  6
CONTINUOUS
 62
    7
 10
1448.836292726086
 20
1180.4002981596561
 11
1449.2466537260843
 21
1178.3290331596556
  0
LINE
  8
_0-0_
  6
CONTINUOUS
 62
    7
 10
1449.3842457260835
 20
1176.2217461596567
 11
1449.2466537260843
 21
1174.1144521596555
  0
LINE
  8
_0-0_
  6
CONTINUOUS
 62
    7
 10
1448.836292726086
 20
1172.0431871596568
 11
1448.1600017260826
 21
1170.0426501596569
  0
LINE
  8
_0-0_
  6
CONTINUOUS
 62
    7
 10
1447.2292677260848
 20
1168.1470641596563
 11
1446.0600227260838
 21
1166.3888181596569
  0
LINE
  8
_0-0_
  6
CONTINUOUS
 62
    7
 10
1444.6718527260855
 20
1164.7973611596565
 11
1443.0884457260836
 21
1163.3997761596559
  0
LINE
  8
_0-0_
  6
CONTINUOUS
 62
    7
 10
1441.3394257260843
 20
1162.2217461596567
 11
1439.5902587260862
 21
1161.0437091596552
  0
LINE
  8
_0-0_
  6
CONTINUOUS
 62
    7
 10
1441.3394257260843
 20
1162.2217461596567
 11
1443.0884457260836
 21
1161.0437091596552
  0
LINE
  8
_0-0_
  6
CONTINUOUS
 62
    7
 10
1444.6718527260855
 20
1159.6461241596564
 11
1446.0600227260838
 21
1158.0546671596578
  0
LINE
  8
_0-0_
  6
CONTINUOUS
 62
    7
 10
1447.2292677260848
 20
1156.2964211596566
 11
1448.1600017260826
 21
1154.4008351596578
  0
LINE
  8
_0-0_
  6
CONTINUOUS
 62
    7
 10
1438.0068517260843
 20
1159.6461241596564
 11
1436.6186817260859
 21
1158.0546671596578
  0
LINE
  8
_0-0_
  6
CONTINUOUS
 62
    7
 10
1435.449436726085
 20
1156.2964211596566
 11
1434.5187027260836
 21
1154.4008351596578
  0
LINE
  8
_0-0_
  6
CONTINUOUS
 62
    7
 10
1433.8424117260838
 20
1152.4002981596561
 11
1433.4320507260854
 21
1150.3290331596556
  0
LINE
  8
_0-0_
  6
CONTINUOUS
 62
    7
 10
1433.294465726085
 20
1148.2217461596567
 11
1433.4320507260854
 21
1146.1144521596555
  0
LINE
  8
_0-0_
  6
CONTINUOUS
 62
    7
 10
1433.8424117260838
 20
1144.0431871596568
 11
1434.5187027260836
 21
1142.0426501596569
  0
LINE
  8
_0-0_
  6
CONTINUOUS
 62
    7
 10
1435.449436726085
 20
1140.1470641596563
 11
1436.6186817260859
 21
1138.3888181596569
  0
LINE
  8
_0-0_
  6
CONTINUOUS
 62
    7
 10
1438.0068517260843
 20
1136.7973611596565
 11
1439.5902587260862
 21
1135.3997761596559
  0
LINE
  8
_0-0_
  6
CONTINUOUS
 62
    7
 10
1443.0884457260836
 20
1135.3997761596559
 11
1444.6718527260855
 21
1136.7973611596565
  0
LINE
  8
_0-0_
  6
CONTINUOUS
 62
    7
 10
1446.0600227260838
 20
1138.3888181596569
 11
1447.2292677260848
 21
1140.1470641596563
  0
LINE
  8
_0-0_
  6
CONTINUOUS
 62
    7
 10
1448.1600017260826
 20
1142.0426501596569
 11
1448.836292726086
 21
1144.0431871596568
  0
LINE
  8
_0-0_
  6
CONTINUOUS
 62
    7
 10
1449.2466537260843
 20
1146.1144521596555
 11
1449.3842457260835
 21
1148.2217461596567
  0
LINE
  8
_0-0_
  6
CONTINUOUS
 62
    7
 10
1449.2466537260843
 20
1150.3290331596556
 11
1448.836292726086
 21
1152.4002981596561
  0
LINE
  8
_0-0_
  6
CONTINUOUS
 62
    7
 10
1441.3392857260842
 20
1134.2217461596567
 11
1443.0884457260836
 21
1135.3997761596559
  0
LINE
  8
_0-0_
  6
CONTINUOUS
 62
    7
 10
1443.0884457260836
 20
1161.0437091596552
 11
1444.6718527260855
 21
1159.6461241596564
  0
LINE
  8
_0-0_
  6
CONTINUOUS
 62
    7
 10
1446.0600227260838
 20
1158.0546671596578
 11
1447.2292677260848
 21
1156.2964211596566
  0
LINE
  8
_0-0_
  6
CONTINUOUS
 62
    7
 10
1448.1600017260826
 20
1154.4008351596578
 11
1448.836292726086
 21
1152.4002981596561
  0
LINE
  8
_0-0_
  6
CONTINUOUS
 62
    7
 10
1449.2466537260843
 20
1150.3290331596556
 11
1449.3842457260835
 21
1148.2217461596567
  0
LINE
  8
_0-0_
  6
CONTINUOUS
 62
    7
 10
1449.2466537260843
 20
1146.1144521596555
 11
1448.836292726086
 21
1144.0431871596568
  0
LINE
  8
_0-0_
  6
CONTINUOUS
 62
    7
 10
1448.1600017260826
 20
1142.0426501596569
 11
1447.2292677260848
 21
1140.1470641596563
  0
LINE
  8
_0-0_
  6
CONTINUOUS
 62
    7
 10
1446.0600227260838
 20
1138.3888181596569
 11
1444.6718527260855
 21
1136.7973611596565
  0
LINE
  8
_0-0_
  6
CONTINUOUS
 62
    7
 10
1234.7843722939106
 20
1134.2217461596567
 11
1441.3394257260843
 21
1134.2217461596567
  0
LINE
  8
_0-0_
  6
CONTINUOUS
 62
    4
 10
994.30153975195765
 20
1375.0660103777238
 11
983.08437229390995
 21
1364.233717678356
  0
LINE
  8
_0-0_
  6
CONTINUOUS
 62
    4
 10
994.30153975195765
 20
1375.0660103777238
 11
1500.5278438725018
 21
1357.3881983008698
  0
LINE
  8
_0-0_
  6
CONTINUOUS
 62
    4
 10
1500.5278438725018
 20
1357.3881983008698
 11
1511.1896791582585
 21
1346.3475446618297
  0
LINE
  8
_0-0_
  6
CONTINUOUS
 62
    4
 10
1497.7650579557994
 20
1246.2217461596567
 11
1506.2503393300376
 21
1246.2217461596567
  0
LINE
  8
_0-0_
  6
CONTINUOUS
 62
    4
 10
1511.1896791582585
 20
1251.1610859878758
 11
1506.2503393300376
 21
1246.2217461596567
  0
LINE
  8
_0-0_
  6
CONTINUOUS
 62
    4
 10
1511.1896791582585
 20
1251.1610859878758
 11
1511.1896791582585
 21
1346.3475446618297
  0
LINE
  8
_0-0_
  6
CONTINUOUS
 62
    4
 10
1380.7843722939106
 20
1237.5122415670023
 11
1380.7843722939106
 21
1207.331250752309
  0
LINE
  8
_0-0_
  6
CONTINUOUS
 62
    2
 10
1365.4195033555716
 20
1121.2292457908418
 11
1370.0120037243832
 21
1125.8217461596553
  0
LINE
  8
_0-0_
  6
CONTINUOUS
 62
    2
 10
1366.9810004558803
 20
1120.8108439038308
 11
1371.9919027117066
 21
1125.8217461596571
  0
LINE
  8
_0-0_
  6
CONTINUOUS
 62
    2
 10
1368.5424975561946
 20
1120.392442016818
 11
1373.9718016990337
 21
1125.8217461596571
  0
LINE
  8
_0-0_
  6
CONTINUOUS
 62
    4
 10
1364.2843722939106
 20
1121.5334032421172
 11
1380.7843722939106
 21
1117.1122415670045
  0
LINE
  8
_0-0_
  6
CONTINUOUS
 62
    4
 10
1364.2843722939106
 20
1202.9100890771963
 11
1380.7843722939106
 21
1207.331250752309
  0
LINE
  8
_0-0_
  6
CONTINUOUS
 62
    2
 10
1364.2843722939142
 20
1201.2699732094018
 11
1366.5248122344728
 21
1203.5104131499604
  0
LINE
  8
_0-0_
  6
CONTINUOUS
 62
    2
 10
1364.2843722939106
 20
1199.2900742220747
 11
1369.2294045480812
 21
1204.2351064762472
  0
LINE
  8
_0-0_
  6
CONTINUOUS
 62
    2
 10
1365.5959432188174
 20
1198.6217461596582
 11
1371.9339968616932
 21
1204.959799802534
  0
LINE
  8
_0-0_
  6
CONTINUOUS
 62
    2
 10
1367.5758422061372
 20
1198.6217461596564
 11
1374.6385891753034
 21
1205.6844931288226
  0
LINE
  8
_0-0_
  6
CONTINUOUS
 62
    2
 10
1369.5557411934606
 20
1198.6217461596582
 11
1377.34318148891
 21
1206.4091864551076
  0
LINE
  8
_0-0_
  6
CONTINUOUS
 62
    2
 10
1365.1246664418413
 20
1241.7082471037731
 11
1369.6381654977231
 21
1246.2217461596567
  0
LINE
  8
_0-0_
  6
CONTINUOUS
 62
    2
 10
1366.6861635421519
 20
1241.2898452167622
 11
1371.6180644850429
 21
1246.2217461596549
  0
LINE
  8
_0-0_
  6
CONTINUOUS
 62
    2
 10
1368.2476606424607
 20
1240.8714433297512
 11
1373.5979634723662
 21
1246.2217461596549
  0
LINE
  8
_0-0_
  6
CONTINUOUS
 62
    2
 10
1369.8091577427713
 20
1240.4530414427384
 11
1374.987794670571
 21
1245.6316783705381
  0
LINE
  8
_0-0_
  6
CONTINUOUS
 62
    2
 10
1371.3706548430819
 20
1240.0346395557256
 11
1375.5113717039858
 21
1244.1753564166331
  0
LINE
  8
_0-0_
  6
CONTINUOUS
 62
    2
 10
1372.9321519433925
 20
1239.6162376687146
 11
1376.0573216654484
 21
1242.7414073907687
  0
LINE
  8
_0-0_
  6
CONTINUOUS
 62
    2
 10
1374.4936490437049
 20
1239.1978357817036
 11
1376.6250920287021
 21
1241.3292787667026
  0
LINE
  8
_0-0_
  6
CONTINUOUS
 62
    2
 10
1376.0551461440155
 20
1238.7794338946908
 11
1377.214174176599
 21
1239.9384619272744
  0
LINE
  8
_0-0_
  6
CONTINUOUS
 62
    2
 10
1377.6166432443224
 20
1238.3610320076798
 11
1377.8240997003923
 21
1238.5684884637515
  0
ARC
  8
_0-0_
  6
CONTINUOUS
 62
    2
 10
1452.9774270375092
 20
1272.8482405970328
 40
82.602203458253697
 50
198.80486384457157
 51
204.74803418490743
  0
LINE
  8
_0-0_
  6
CONTINUOUS
 62
    4
 10
1364.2843722939106
 20
1241.933403242115
 11
1380.7843722939106
 21
1237.5122415670023
  0
ARC
  8
_0-0_
  6
CONTINUOUS
 62
    2
 10
1390.2023146962219
 20
1194.4217461596575
 40
15.979766829367051
 50
126.11208000178307
 51
164.76180838953087
  0
LINE
  8
_0-0_
  6
CONTINUOUS
 62
    2
 10
1373.5155391681037
 20
1198.6217461596582
 11
1375.4447496096636
 21
1200.5509566012181
  0
LINE
  8
_0-0_
  6
CONTINUOUS
 62
    2
 10
1371.5356401807803
 20
1198.6217461596545
 11
1380.0477738025202
 21
1207.1338797813962
  0
LINE
  8
_0-0_
  6
CONTINUOUS
 62
    2
 10
1371.6654917568139
 20
1119.5556382427942
 11
1375.612699100333
 21
1123.5028455863132
  0
LINE
  8
_0-0_
  6
CONTINUOUS
 62
    2
 10
1370.1039946565015
 20
1119.974040129807
 11
1375.0565944849677
 21
1124.9266399582714
  0
ARC
  8
_0-0_
  6
CONTINUOUS
 62
    2
 10
1390.2023146962238
 20
1130.0217461596596
 40
15.979766829371336
 50
195.23819161048107
 51
233.88791999821916
  0
LINE
  8
_0-0_
  6
CONTINUOUS
 62
    2
 10
1379.4729772583669
 20
1117.4636288077356
 11
1379.8543618700241
 21
1117.8450134193947
  0
LINE
  8
_0-0_
  6
CONTINUOUS
 62
    2
 10
1377.9114801580545
 20
1117.8820306947484
 11
1378.8276063103694
 21
1118.7981568470616
  0
LINE
  8
_0-0_
  6
CONTINUOUS
 62
    2
 10
968.64444312337048
 20
272.20289766242718
 11
972.10442763502954
 21
275.66288217408805
  0
LINE
  8
_0-0_
  6
CONTINUOUS
 62
    2
 10
965.13107464766847
 20
273.14430190820462
 11
970.1879367597013
 21
278.20116402023746
  0
LINE
  8
_0-0_
  6
CONTINUOUS
 62
    2
 10
961.6177061719701
 20
274.08570615398025
 11
968.47717130178182
 21
280.94517128379198
  0
LINE
  8
_0-0_
  6
CONTINUOUS
 62
  136
 10
846.99681890474324
 20
484.42585321269621
 11
856.44681890474578
 21
484.42585321269621
  0
LINE
  8
_0-0_
  6
CONTINUOUS
 62
  136
 10
846.99681890474324
 20
452.92585321269621
 11
846.99681890474324
 21
484.42585321269621
  0
LINE
  8
_0-0_
  6
CONTINUOUS
 62
  136
 10
856.44681890474578
 20
452.92585321269621
 11
856.44681890474578
 21
484.42585321269621
  0
LINE
  8
_0-0_
  6
CONTINUOUS
 62
  136
 10
728.87181890474324
 20
452.92585321269621
 11
846.99681890474324
 21
452.92585321269621
  0
LINE
  8
_0-0_
  6
CONTINUOUS
 62
  136
 10
728.87181890474324
 20
289.12585321269512
 11
846.99681890474324
 21
289.12585321269512
  0
LINE
  8
_0-0_
  6
CONTINUOUS
 62
  136
 10
846.99681890474324
 20
289.12585321269512
 11
846.99681890474324
 21
257.62585321269512
  0
LINE
  8
_0-0_
  6
CONTINUOUS
 62
  136
 10
846.99681890474324
 20
257.62585321269512
 11
856.44681890474578
 21
257.62585321269512
  0
LINE
  8
_0-0_
  6
CONTINUOUS
 62
  136
 10
856.44681890474578
 20
289.12585321269512
 11
856.44681890474578
 21
257.62585321269512
  0
LINE
  8
_0-0_
  6
CONTINUOUS
 62
    7
 10
927.32181890474578
 20
443.4758532126973
 11
950.94681890474578
 21
434.02585321269476
  0
LINE
  8
_0-0_
  6
CONTINUOUS
 62
    7
 10
950.94681890474578
 20
443.4758532126973
 11
927.32181890474578
 21
434.02585321269476
  0
LINE
  8
_0-0_
  6
CONTINUOUS
 62
    7
 10
927.32181890474578
 20
308.02585321269476
 11
950.94681890474578
 21
298.57585321269403
  0
LINE
  8
_0-0_
  6
CONTINUOUS
 62
    7
 10
950.94681890474578
 20
308.02585321269476
 11
927.32181890474578
 21
298.57585321269403
  0
LINE
  8
_0-0_
  6
CONTINUOUS
 62
    7
 10
927.32181890474578
 20
308.02585321269476
 11
927.32181890474578
 21
298.57585321269403
  0
LINE
  8
_0-0_
  6
CONTINUOUS
 62
    7
 10
950.94681890474578
 20
308.02585321269476
 11
950.94681890474578
 21
298.57585321269403
  0
LINE
  8
_0-0_
  6
CONTINUOUS
 62
    7
 10
950.94681890474578
 20
443.4758532126973
 11
950.94681890474578
 21
434.02585321269476
  0
LINE
  8
_0-0_
  6
CONTINUOUS
 62
    7
 10
927.32181890474578
 20
443.4758532126973
 11
927.32181890474578
 21
434.02585321269476
  0
LINE
  8
_0-0_
  6
CONTINUOUS
 62
    2
 10
954.92444418036223
 20
298.5758532127013
 11
964.37444418035932
 21
308.02585321269476
  0
LINE
  8
_0-0_
  6
CONTINUOUS
 62
    2
 10
950.94681890474578
 20
299.05300065855704
 11
959.91967145888168
 21
308.02585321269476
  0
LINE
  8
_0-0_
  6
CONTINUOUS
 62
    2
 10
950.94681890474578
 20
303.50777338003104
 11
955.46489873740768
 21
308.02585321269476
  0
LINE
  8
_0-0_
  6
CONTINUOUS
 62
    2
 10
950.94681890474578
 20
307.96254610150686
 11
951.01012601593368
 21
308.02585321269476
  0
LINE
  8
_0-0_
  6
CONTINUOUS
 62
    2
 10
952.27648981463074
 20
434.02585321270021
 11
961.72648981462783
 21
443.4758532126973
  0
LINE
  8
_0-0_
  6
CONTINUOUS
 62
    2
 10
950.94681890474578
 20
437.15095502428562
 11
957.27171709315019
 21
443.47585321269366
  0
LINE
  8
_0-0_
  6
CONTINUOUS
 62
    2
 10
950.94681890474578
 20
441.60572774576326
 11
952.81694437167255
 21
443.47585321269366
  0
LINE
  8
_0-0_
  6
CONTINUOUS
 62
    7
 10
941.49681890474324
 20
265.50085321269512
 11
941.49681890474324
 21
289.12585321269512
  0
LINE
  8
_0-0_
  6
CONTINUOUS
 62
    7
 10
941.49681890474324
 20
265.50085321269512
 11
965.12181890474324
 21
259.17055354151057
  0
LINE
  8
_0-0_
  6
CONTINUOUS
 62
  136
 10
728.87181890474324
 20
452.92585321269621
 11
728.87181890474324
 21
443.4758532126973
  0
LINE
  8
_0-0_
  6
CONTINUOUS
 62
  136
 10
728.87181890474324
 20
298.57585321269403
 11
728.87181890474324
 21
289.12585321269512
  0
LINE
  8
_0-0_
  6
CONTINUOUS
 62
    2
 10
941.4968189047396
 20
280.69345521560285
 11
949.92921690183368
 21
289.1258532126933
  0
LINE
  8
_0-0_
  6
CONTINUOUS
 62
    2
 10
941.49681890474687
 20
285.14822793708413
 11
945.47444418036332
 21
289.12585321269876
  0
LINE
  8
_0-0_
  6
CONTINUOUS
 62
  136
 10
965.12181890474324
 20
298.57585321269403
 11
965.12181890474324
 21
289.12585321269512
  0
LINE
  8
_0-0_
  6
CONTINUOUS
 62
  136
 10
965.12181890474324
 20
452.92585321269621
 11
965.12181890474324
 21
443.4758532126973
  0
LINE
  8
_0-0_
  6
CONTINUOUS
 62
  136
 10
856.44681890474578
 20
452.92585321269621
 11
965.12181890474324
 21
452.92585321269621
  0
LINE
  8
_0-0_
  6
CONTINUOUS
 62
  136
 10
728.87181890474324
 20
443.4758532126973
 11
965.12181890474324
 21
443.4758532126973
  0
LINE
  8
_0-0_
  6
CONTINUOUS
 62
  136
 10
728.87181890474324
 20
298.57585321269403
 11
965.12181890474324
 21
298.57585321269403
  0
LINE
  8
_0-0_
  6
CONTINUOUS
 62
  136
 10
856.44681890474578
 20
289.12585321269512
 11
965.12181890474324
 21
289.12585321269512
  0
ARC
  8
_0-0_
  6
CONTINUOUS
 62
    2
 10
992.89707245517468
 20
303.30085321269621
 40
28.1742849916495
 50
170.34552531892481
 51
189.65447468107519
  0
LINE
  8
_0-0_
  6
CONTINUOUS
 62
    2
 10
959.37921690183441
 20
298.57585321269403
 11
964.72973204838138
 21
303.926368359241
  0
LINE
  8
_0-0_
  6
CONTINUOUS
 62
    2
 10
963.83398962330841
 20
298.57585321269403
 11
964.9543314601143
 21
299.6961950494981
  0
ARC
  8
_0-0_
  6
CONTINUOUS
 62
    2
 10
987.58299685895338
 20
438.75085321269694
 40
22.95278066140575
 50
168.12030433418508
 51
191.87969566581492
  0
LINE
  8
_0-0_
  6
CONTINUOUS
 62
    2
 10
961.18603525757692
 20
434.02585321269112
 11
964.66411118681765
 21
437.50392914193549
  0
LINE
  8
_0-0_
  6
CONTINUOUS
 62
    2
 10
956.73126253609928
 20
434.02585321269112
 11
964.88824825709355
 21
442.18283893368903
  0
LINE
  8
_0-0_
  6
CONTINUOUS
 62
    7
 10
941.49681890474324
 20
476.55085321269621
 11
941.49681890474324
 21
452.92585321269621
  0
LINE
  8
_0-0_
  6
CONTINUOUS
 62
    7
 10
941.49681890474324
 20
476.55085321269621
 11
965.12181890474324
 21
482.88115288388076
  0
LINE
  8
_0-0_
  6
CONTINUOUS
 62
  136
 10
728.87181890474324
 20
452.92585321269621
 11
728.87181890474324
 21
443.4758532126973
  0
LINE
  8
_0-0_
  6
CONTINUOUS
 62
  136
 10
728.87181890474324
 20
298.57585321269403
 11
728.87181890474324
 21
289.12585321269512
  0
LINE
  8
_0-0_
  6
CONTINUOUS
 62
    7
 10
1114.870689127134
 20
308.02585321269476
 11
1110.9350633771337
 21
310.6764207126937
  0
LINE
  8
_0-0_
  6
CONTINUOUS
 62
    7
 10
1107.372397627134
 20
313.82098696269645
 11
1104.249015127134
 21
317.40176521269609
  0
LINE
  8
_0-0_
  6
CONTINUOUS
 62
    7
 10
1101.618213877131
 20
321.35781871269614
 11
1099.5240623771333
 21
325.62288721269692
  0
LINE
  8
_0-0_
  6
CONTINUOUS
 62
    7
 10
1098.0024076271329
 20
330.12409546269305
 11
1097.079095377132
 21
334.78444171269552
  0
LINE
  8
_0-0_
  6
CONTINUOUS
 62
    7
 10
1096.769529127132
 20
339.52585321269476
 11
1097.079095377132
 21
344.26724896269593
  0
LINE
  8
_0-0_
  6
CONTINUOUS
 62
    7
 10
1098.0024076271329
 20
348.92759521269477
 11
1099.5240623771333
 21
353.42880346269635
  0
LINE
  8
_0-0_
  6
CONTINUOUS
 62
    7
 10
1101.618213877131
 20
357.69387196269531
 11
1104.249015127134
 21
361.64992546269536
  0
LINE
  8
_0-0_
  6
CONTINUOUS
 62
    7
 10
1107.372397627134
 20
365.230703712695
 11
1110.9350633771337
 21
368.37526996269412
  0
LINE
  8
_0-0_
  6
CONTINUOUS
 62
    7
 10
1114.870689127134
 20
371.02585321269476
 11
1118.8059841271333
 21
373.67642071269552
  0
LINE
  8
_0-0_
  6
CONTINUOUS
 62
    7
 10
1122.3686498771331
 20
376.82098696269645
 11
1125.492032377133
 21
380.40176521269427
  0
LINE
  8
_0-0_
  6
CONTINUOUS
 62
    7
 10
1128.1228336271361
 20
384.35781871269614
 11
1130.2169851271301
 21
388.62288721269329
  0
LINE
  8
_0-0_
  6
CONTINUOUS
 62
    7
 10
1131.7386398771341
 20
393.12409546269669
 11
1132.6619521271296
 21
397.78444171269552
  0
LINE
  8
_0-0_
  6
CONTINUOUS
 62
    7
 10
1132.9715341271331
 20
402.52585321269476
 11
1132.6619521271296
 21
407.26724896269593
  0
LINE
  8
_0-0_
  6
CONTINUOUS
 62
    7
 10
1131.7386398771341
 20
411.92759521269477
 11
1130.2169851271301
 21
416.42880346269635
  0
LINE
  8
_0-0_
  6
CONTINUOUS
 62
    7
 10
1128.1228336271361
 20
420.69387196269531
 11
1125.492032377133
 21
424.64992546269536
  0
LINE
  8
_0-0_
  6
CONTINUOUS
 62
    7
 10
1122.3686498771331
 20
428.230703712695
 11
1118.8059841271333
 21
431.37526996269412
  0
LINE
  8
_0-0_
  6
CONTINUOUS
 62
    7
 10
1114.8703741271293
 20
434.02585321269476
 11
1118.8059841271333
 21
431.37526996269412
  0
LINE
  8
_0-0_
  6
CONTINUOUS
 62
    7
 10
1122.3686498771331
 20
428.230703712695
 11
1125.492032377133
 21
424.64992546269536
  0
LINE
  8
_0-0_
  6
CONTINUOUS
 62
    7
 10
1128.1228336271361
 20
420.69387196269531
 11
1130.2169851271301
 21
416.42880346269635
  0
LINE
  8
_0-0_
  6
CONTINUOUS
 62
    7
 10
1131.7386398771341
 20
411.92759521269477
 11
1132.6619521271296
 21
407.26724896269593
  0
LINE
  8
_0-0_
  6
CONTINUOUS
 62
    7
 10
1132.9715341271331
 20
402.52585321269476
 11
1132.6619521271296
 21
397.78444171269552
  0
LINE
  8
_0-0_
  6
CONTINUOUS
 62
    7
 10
1131.7386398771341
 20
393.12409546269669
 11
1130.2169851271301
 21
388.62288721269329
  0
LINE
  8
_0-0_
  6
CONTINUOUS
 62
    7
 10
1128.1228336271361
 20
384.35781871269614
 11
1125.492032377133
 21
380.40176521269427
  0
LINE
  8
_0-0_
  6
CONTINUOUS
 62
    7
 10
1122.3686498771331
 20
376.82098696269645
 11
1118.8059841271333
 21
373.67642071269552
  0
LINE
  8
_0-0_
  6
CONTINUOUS
 62
    7
 10
1114.870689127134
 20
371.02585321269476
 11
1110.9350633771337
 21
368.37526996269412
  0
LINE
  8
_0-0_
  6
CONTINUOUS
 62
    7
 10
1114.870689127134
 20
371.02585321269476
 11
1118.8059841271333
 21
368.37526996269412
  0
LINE
  8
_0-0_
  6
CONTINUOUS
 62
    7
 10
1122.3686498771331
 20
365.230703712695
 11
1125.492032377133
 21
361.64992546269536
  0
LINE
  8
_0-0_
  6
CONTINUOUS
 62
    7
 10
1128.1228336271361
 20
357.69387196269531
 11
1130.2169851271301
 21
353.42880346269635
  0
LINE
  8
_0-0_
  6
CONTINUOUS
 62
    7
 10
1107.372397627134
 20
365.230703712695
 11
1104.249015127134
 21
361.64992546269536
  0
LINE
  8
_0-0_
  6
CONTINUOUS
 62
    7
 10
1101.618213877131
 20
357.69387196269531
 11
1099.5240623771333
 21
353.42880346269635
  0
LINE
  8
_0-0_
  6
CONTINUOUS
 62
    7
 10
1098.0024076271329
 20
348.92759521269477
 11
1097.079095377132
 21
344.26724896269593
  0
LINE
  8
_0-0_
  6
CONTINUOUS
 62
    7
 10
1096.769529127132
 20
339.52585321269476
 11
1097.079095377132
 21
334.78444171269552
  0
LINE
  8
_0-0_
  6
CONTINUOUS
 62
    7
 10
1098.0024076271329
 20
330.12409546269305
 11
1099.5240623771333
 21
325.62288721269692
  0
LINE
  8
_0-0_
  6
CONTINUOUS
 62
    7
 10
1101.618213877131
 20
321.35781871269614
 11
1104.249015127134
 21
317.40176521269609
  0
LINE
  8
_0-0_
  6
CONTINUOUS
 62
    7
 10
1107.372397627134
 20
313.82098696269645
 11
1110.9350633771337
 21
310.6764207126937
  0
LINE
  8
_0-0_
  6
CONTINUOUS
 62
    7
 10
1118.8059841271333
 20
310.6764207126937
 11
1122.3686498771331
 21
313.82098696269645
  0
LINE
  8
_0-0_
  6
CONTINUOUS
 62
    7
 10
1125.492032377133
 20
317.40176521269609
 11
1128.1228336271361
 21
321.35781871269614
  0
LINE
  8
_0-0_
  6
CONTINUOUS
 62
    7
 10
1130.2169851271301
 20
325.62288721269692
 11
1131.7386398771341
 21
330.12409546269305
  0
LINE
  8
_0-0_
  6
CONTINUOUS
 62
    7
 10
1132.6619521271296
 20
334.78444171269552
 11
1132.9715341271331
 21
339.52585321269476
  0
LINE
  8
_0-0_
  6
CONTINUOUS
 62
    7
 10
1132.6619521271296
 20
344.26724896269593
 11
1131.7386398771341
 21
348.92759521269477
  0
LINE
  8
_0-0_
  6
CONTINUOUS
 62
    7
 10
1114.8703741271293
 20
308.02585321269476
 11
1118.8059841271333
 21
310.6764207126937
  0
LINE
  8
_0-0_
  6
CONTINUOUS
 62
    7
 10
1118.8059841271333
 20
368.37526996269412
 11
1122.3686498771331
 21
365.230703712695
  0
LINE
  8
_0-0_
  6
CONTINUOUS
 62
    7
 10
1125.492032377133
 20
361.64992546269536
 11
1128.1228336271361
 21
357.69387196269531
  0
LINE
  8
_0-0_
  6
CONTINUOUS
 62
    7
 10
1130.2169851271301
 20
353.42880346269635
 11
1131.7386398771341
 21
348.92759521269477
  0
LINE
  8
_0-0_
  6
CONTINUOUS
 62
    7
 10
1132.6619521271296
 20
344.26724896269593
 11
1132.9715341271331
 21
339.52585321269476
  0
LINE
  8
_0-0_
  6
CONTINUOUS
 62
    7
 10
1132.6619521271296
 20
334.78444171269552
 11
1131.7386398771341
 21
330.12409546269305
  0
LINE
  8
_0-0_
  6
CONTINUOUS
 62
    7
 10
1130.2169851271301
 20
325.62288721269692
 11
1128.1228336271361
 21
321.35781871269614
  0
LINE
  8
_0-0_
  6
CONTINUOUS
 62
    7
 10
1125.492032377133
 20
317.40176521269609
 11
1122.3686498771331
 21
313.82098696269645
  0
LINE
  8
_0-0_
  6
CONTINUOUS
 62
    2
 10
944.05086379347824
 20
278.79272738286204
 11
954.38398962330768
 21
289.1258532126933
  0
LINE
  8
_0-0_
  6
CONTINUOUS
 62
    2
 10
947.56423226917479
 20
277.85132313708641
 11
958.83876234478532
 21
289.12585321269694
  0
LINE
  8
_0-0_
  6
CONTINUOUS
 62
    2
 10
951.07760074487862
 20
276.90991889130896
 11
963.2935350662666
 21
289.12585321269694
  0
LINE
  8
_0-0_
  6
CONTINUOUS
 62
    4
 10
941.49681890474324
 20
279.47708164823166
 11
978.62181890474324
 21
269.52946787922815
  0
LINE
  8
_0-0_
  6
CONTINUOUS
 62
    4
 10
941.49681890474324
 20
462.57462477716149
 11
978.62181890474324
 21
472.522238546165
  0
LINE
  8
_0-0_
  6
CONTINUOUS
 62
    2
 10
941.49681890474687
 20
458.88436407462109
 11
946.53780877100883
 21
463.9253539408794
  0
LINE
  8
_0-0_
  6
CONTINUOUS
 62
    2
 10
941.4968189047396
 20
454.42959135313799
 11
952.62314147662448
 21
465.55591392502288
  0
LINE
  8
_0-0_
  6
CONTINUOUS
 62
    2
 10
944.44785348577909
 20
452.92585321269621
 11
958.70847418225105
 21
467.18647390916999
  0
LINE
  8
_0-0_
  6
CONTINUOUS
 62
    2
 10
948.90262620725309
 20
452.92585321269621
 11
964.79380688787398
 21
468.8170338933171
  0
LINE
  8
_0-0_
  6
CONTINUOUS
 62
    2
 10
953.35739892872709
 20
452.92585321269621
 11
970.87913959348964
 21
470.44759387746058
  0
ARC
  8
_0-0_
  6
CONTINUOUS
 62
    2
 10
999.81218930994157
 20
443.4758532126973
 40
35.954475366075869
 50
126.11208000178307
 51
164.76180838953087
  0
LINE
  8
_0-0_
  6
CONTINUOUS
 62
    2
 10
962.26694437167873
 20
452.92585321269621
 11
966.60766786518627
 21
457.26657670620921
  0
LINE
  8
_0-0_
  6
CONTINUOUS
 62
    2
 10
957.81217165019564
 20
452.92585321269257
 11
976.96447229911439
 21
472.07815386160769
  0
LINE
  8
_0-0_
  6
CONTINUOUS
 62
    2
 10
958.10433769627355
 20
275.02711039975588
 11
966.98555421919093
 21
283.90832692267327
  0
LINE
  8
_0-0_
  6
CONTINUOUS
 62
    2
 10
954.59096922057336
 20
275.96851464553333
 11
965.73431883462047
 21
287.11186425958226
  0
ARC
  8
_0-0_
  6
CONTINUOUS
 62
    2
 10
999.81218930994885
 20
298.5758532127013
 40
35.954475366085504
 50
195.23819161048107
 51
233.88791999821916
  0
LINE
  8
_0-0_
  6
CONTINUOUS
 62
    2
 10
975.67118007476722
 20
270.32008917087592
 11
976.5292954509988
 21
271.1782045471075
  0
LINE
  8
_0-0_
  6
CONTINUOUS
 62
    2
 10
972.15781159906703
 20
271.26149341665337
 11
974.21909544177481
 21
273.32277725935933
  0
LINE
  8
_0-0_
  6
CONTINUOUS
 62
    4
 10
978.62181890474324
 20
529.02585321269476
 11
978.62181890474324
 21
472.522238546165
  0
LINE
  8
_0-0_
  6
CONTINUOUS
 62
    7
 10
965.12181890474324
 20
529.02585321269476
 11
965.12181890474324
 21
482.88115288388076
  0
LINE
  8
_0-0_
  6
CONTINUOUS
 62
    7
 10
728.87181890474324
 20
443.4758532126973
 11
728.87181890474324
 21
529.02585321269476
  0
LINE
  8
_0-0_
  6
CONTINUOUS
 62
    7
 10
872.27143879253538
 20
213.02585321269476
 11
941.49681890474324
 21
282.25123332490443
  0
LINE
  8
_0-0_
  6
CONTINUOUS
 62
    7
 10
888.18134136923084
 20
213.02585321269476
 11
941.49681890474324
 21
266.34133074820897
  0
LINE
  8
_0-0_
  6
CONTINUOUS
 62
    7
 10
904.09124394592993
 20
213.02585321269476
 11
953.38169972736989
 21
262.31630899413472
  0
LINE
  8
_0-0_
  6
CONTINUOUS
 62
    7
 10
965.12181890474324
 20
259.17055354151057
 11
965.12181890474324
 21
213.02585321269476
  0
LINE
  8
_0-0_
  6
CONTINUOUS
 62
    4
 10
978.62181890474324
 20
269.52946787922815
 11
978.62181890474324
 21
213.02585321269476
  0
LINE
  8
_0-0_
  6
CONTINUOUS
 62
    7
 10
728.87181890474324
 20
298.57585321269403
 11
728.87181890474324
 21
213.02585321269476
  0
LINE
  8
_0-0_
  6
CONTINUOUS
 62
    7
 10
710.47165680518094
 20
308.02585321269476
 11
1114.870689127134
 21
308.02585321269476
  0
LINE
  8
_0-0_
  6
CONTINUOUS
 62
    7
 10
710.47165680518094
 20
434.02585321269476
 11
1114.8703741271293
 21
434.02585321269476
  0
POINT
  8
_0-0_
 62
    7
 10
960.18737712229461
 20
438.92416390685071
  0
POINT
  8
_0-0_
 62
    7
 10
959.09469737887241
 20
459.68507903187788
  0
LINE
  8
_0-0_
  6
CONTINUOUS
 62
    7
 10
959.09469737887241
 20
459.68507903187788
 11
1028.2339980340148
 21
478.21089880767545
  0
LINE
  8
_0-0_
  6
CONTINUOUS
 62
    7
 10
960.18737712229461
 20
438.92416390685071
 11
1028.2339980340148
 21
478.21089880767545
  0
LINE
  8
_0-0_
  6
CONTINUOUS
 62
    7
 10
961.77806518472983
 20
304.6250850954923
 11
1029.0000836647941
 21
265.81443463055734
  0
POINT
  8
_0-0_
 62
    7
 10
961.77806518472983
 20
304.6250850954923
  0
LINE
  8
_0-0_
  6
CONTINUOUS
 62
    7
 10
959.72416752122638
 20
279.97831313345273
 11
1029.0000836647941
 21
265.81443463055734
  0
POINT
  8
_0-0_
 62
    7
 10
959.72416752122638
 20
279.97831313345273
  0
TEXT
  8
_0-0_
 62
    7
 10
1036.745329902602
 20
254.30459233965962
 40
21.617968000000001
 41
1
 50
0
  1
ｼｰﾘﾝｸﾞ
  0
LINE
  8
_0-0_
  6
CONTINUOUS
 62
    7
 10
842.78437229391068
 20
772.17009188254201
 11
842.78437229391068
 21
732.17009188254201
  0
LINE
  8
_0-0_
  6
CONTINUOUS
 62
    7
 10
772.78437229391068
 20
772.17009188254201
 11
842.78437229391068
 21
772.17009188254201
  0
LINE
  8
_0-0_
  6
CONTINUOUS
 62
    7
 10
1514.7843722939106
 20
774.1006918825417
 11
1514.7843722939106
 21
732.17009188254019
  0
LINE
  8
_0-0_
  6
CONTINUOUS
 62
    7
 10
1514.7843722939106
 20
774.1006918825417
 11
1584.7843722939106
 21
774.1006918825417
  0
LINE
  8
_0-0_
  6
CONTINUOUS
 62
    7
 10
1269.7843722939106
 20
787.85005393943288
 11
1382.0350102370194
 21
900.1006918825417
  0
LINE
  8
_0-0_
  6
CONTINUOUS
 62
    7
 10
1269.7843722939124
 20
794.92112175130137
 11
1374.9639424251527
 21
900.1006918825417
  0
LINE
  8
_0-0_
  6
CONTINUOUS
 62
    7
 10
1374.7843722939106
 20
1112.50827963913
 11
1374.7843722939106
 21
900.1006918825417
  0
LINE
  8
_0-0_
  6
CONTINUOUS
 62
    4
 10
1380.7843722939106
 20
1117.1122415670045
 11
1380.7843722939106
 21
909.1006918825417
  0
LINE
  8
_0-0_
  6
CONTINUOUS
 62
    7
 10
1269.7843722939106
 20
801.9921895631644
 11
1374.7843722939106
 21
906.9921895631644
  0
LINE
  8
_0-0_
  6
CONTINUOUS
 62
    4
 10
983.08437229390995
 20
1364.233717678356
 11
983.08437229390995
 21
909.1006918825417
  0
LINE
  8
_0-0_
  6
CONTINUOUS
 62
    7
 10
989.08437229390995
 20
1361.6868687810977
 11
989.08437229390995
 21
900.1006918825417
  0
LINE
  8
_0-0_
  6
CONTINUOUS
 62
    7
 10
787.41393465389785
 20
772.17009188254201
 11
915.34453465389754
 21
900.1006918825417
  0
LINE
  8
_0-0_
  6
CONTINUOUS
 62
    7
 10
801.55607027762937
 20
772.17009188254201
 11
929.48667027762724
 21
900.1006918825417
  0
LINE
  8
_0-0_
  6
CONTINUOUS
 62
    7
 10
794.4850024657627
 20
772.17009188254201
 11
922.41560246576239
 21
900.1006918825417
  0
LINE
  8
_0-0_
  6
CONTINUOUS
 62
    7
 10
989.08437229390995
 20
900.1006918825417
 11
772.78437229391068
 21
900.1006918825417
  0
LINE
  8
_0-0_
  6
CONTINUOUS
 62
    7
 10
1374.7843722939106
 20
900.1006918825417
 11
1584.7843722939106
 21
900.1006918825417
  0
CIRCLE
  8
_0-0_
  6
DASHED2
 62
    1
 10
1380.7843722939106
 20
950.44009066825788
 40
80
  0
TEXT
  8
_0-0_
 62
    7
 10
1339.660250531746
 20
1012.1701905310031
 40
24
 41
1
 50
0
  1
Ｂ
  0
LINE
  8
_0-0_
  6
CONTINUOUS
 62
    6
 10
1380.7843722939106
 20
945.1006918825417
 11
1380.7843722939106
 21
910.1006918825417
  0
LINE
  8
_0-0_
  6
CONTINUOUS
 62
    6
 10
1380.7843722939106
 20
910.75551013749396
 11
1381.4391905488592
 21
910.1006918825417
  0
LINE
  8
_0-0_
  6
CONTINUOUS
 62
    6
 10
1380.7843722939069
 20
924.89764576122548
 11
1395.5813261725925
 21
910.10069188253988
  0
LINE
  8
_0-0_
  6
CONTINUOUS
 62
    6
 10
1380.7843722939106
 20
939.03978138495518
 11
1409.7234617963222
 21
910.1006918825417
  0
LINE
  8
_0-0_
  6
CONTINUOUS
 62
    6
 10
1388.8655974200556
 20
945.10069188253988
 11
1423.8655974200556
 21
910.10069188253988
  0
LINE
  8
_0-0_
  6
CONTINUOUS
 62
    6
 10
1403.0077330437853
 20
945.10069188253988
 11
1438.0077330437853
 21
910.10069188253988
  0
LINE
  8
_0-0_
  6
CONTINUOUS
 62
    6
 10
1417.1498686675186
 20
945.1006918825417
 11
1452.1498686675186
 21
910.1006918825417
  0
LINE
  8
_0-0_
  6
CONTINUOUS
 62
    6
 10
1431.2920042912483
 20
945.10069188253988
 11
1466.2920042912447
 21
910.1006918825417
  0
LINE
  8
_0-0_
  6
CONTINUOUS
 62
    6
 10
1445.434139914978
 20
945.10069188253988
 11
1480.434139914978
 21
910.10069188253988
  0
LINE
  8
_0-0_
  6
CONTINUOUS
 62
    6
 10
1459.5762755387077
 20
945.1006918825417
 11
1494.5762755387077
 21
910.1006918825417
  0
LINE
  8
_0-0_
  6
CONTINUOUS
 62
    6
 10
1473.718411162441
 20
945.10069188253988
 11
1508.718411162441
 21
910.10069188253988
  0
LINE
  8
_0-0_
  6
CONTINUOUS
 62
    6
 10
1487.8605467861707
 20
945.10069188253988
 11
1522.8605467861707
 21
910.10069188253988
  0
LINE
  8
_0-0_
  6
CONTINUOUS
 62
    6
 10
1502.0026824099041
 20
945.1006918825417
 11
1537.0026824099041
 21
910.1006918825417
  0
LINE
  8
_0-0_
  6
CONTINUOUS
 62
    6
 10
1516.1448180336338
 20
945.10069188253988
 11
1551.1448180336301
 21
910.1006918825417
  0
LINE
  8
_0-0_
  6
CONTINUOUS
 62
    6
 10
1530.2869536573635
 20
945.1006918825417
 11
1565.2869536573635
 21
910.1006918825417
  0
LINE
  8
_0-0_
  6
CONTINUOUS
 62
    6
 10
1544.4290892810932
 20
945.1006918825417
 11
1579.4290892810932
 21
910.1006918825417
  0
LINE
  8
_0-0_
  6
CONTINUOUS
 62
    6
 10
1537.1588260939716
 20
910.1006918825417
 11
1572.1588260939716
 21
945.1006918825417
  0
LINE
  8
_0-0_
  6
CONTINUOUS
 62
    6
 10
1523.0166904702419
 20
910.1006918825417
 11
1558.0166904702419
 21
945.1006918825417
  0
LINE
  8
_0-0_
  6
CONTINUOUS
 62
    6
 10
1508.8745548465085
 20
910.1006918825417
 11
1543.8745548465085
 21
945.10069188253988
  0
LINE
  8
_0-0_
  6
CONTINUOUS
 62
    6
 10
1494.7324192227825
 20
910.1006918825417
 11
1529.7324192227825
 21
945.1006918825417
  0
LINE
  8
_0-0_
  6
CONTINUOUS
 62
    6
 10
1480.5902835990491
 20
910.1006918825417
 11
1515.5902835990491
 21
945.1006918825417
  0
LINE
  8
_0-0_
  6
CONTINUOUS
 62
    6
 10
1466.4481479753158
 20
910.10069188253988
 11
1501.4481479753158
 21
945.1006918825417
  0
LINE
  8
_0-0_
  6
CONTINUOUS
 62
    6
 10
1452.3060123515861
 20
910.1006918825417
 11
1487.3060123515861
 21
945.1006918825417
  0
LINE
  8
_0-0_
  6
CONTINUOUS
 62
    6
 10
1438.1638767278564
 20
910.1006918825417
 11
1473.1638767278564
 21
945.1006918825417
  0
LINE
  8
_0-0_
  6
CONTINUOUS
 62
    6
 10
1424.0217411041231
 20
910.1006918825417
 11
1459.0217411041231
 21
945.10069188253988
  0
LINE
  8
_0-0_
  6
CONTINUOUS
 62
    6
 10
1409.879605480397
 20
910.1006918825417
 11
1444.879605480397
 21
945.1006918825417
  0
LINE
  8
_0-0_
  6
CONTINUOUS
 62
    6
 10
1395.7374698566637
 20
910.1006918825417
 11
1430.7374698566637
 21
945.1006918825417
  0
LINE
  8
_0-0_
  6
CONTINUOUS
 62
    6
 10
1381.5953342329303
 20
910.10069188253988
 11
1416.5953342329303
 21
945.10069188253988
  0
LINE
  8
_0-0_
  6
CONTINUOUS
 62
    6
 10
1380.7843722939069
 20
923.431865567248
 11
1402.4531986092006
 21
945.1006918825417
  0
LINE
  8
_0-0_
  6
CONTINUOUS
 62
    6
 10
1380.7843722939069
 20
937.57400119097952
 11
1388.3110629854709
 21
945.1006918825417
  0
LINE
  8
_0-0_
  6
CONTINUOUS
 62
    5
 10
1400.7843722939106
 20
1027.1006918825417
 11
1400.7843722939106
 21
947.1006918825417
  0
LINE
  8
_0-0_
  6
CONTINUOUS
 62
    5
 10
1395.7239221841519
 20
1027.1006918825417
 11
1400.7843722939106
 21
1022.0402417727848
  0
LINE
  8
_0-0_
  6
CONTINUOUS
 62
    5
 10
1390.0670679346586
 20
1027.1006918825417
 11
1400.7843722939106
 21
1016.3833875232915
  0
LINE
  8
_0-0_
  6
CONTINUOUS
 62
    5
 10
1384.4102136851689
 20
1027.1006918825417
 11
1400.7843722939106
 21
1010.7265332738
  0
LINE
  8
_0-0_
  6
CONTINUOUS
 62
    5
 10
1380.7843722939106
 20
1025.0696790243085
 11
1400.7843722939106
 21
1005.0696790243085
  0
LINE
  8
_0-0_
  6
CONTINUOUS
 62
    5
 10
1380.7843722939106
 20
1019.412824774817
 11
1400.7843722939106
 21
999.41282477481695
  0
LINE
  8
_0-0_
  6
CONTINUOUS
 62
    5
 10
1380.7843722939106
 20
1013.7559705253254
 11
1400.7843722939106
 21
993.75597052532544
  0
LINE
  8
_0-0_
  6
CONTINUOUS
 62
    5
 10
1380.7843722939106
 20
1008.0991162758321
 11
1400.7843722939106
 21
988.09911627583028
  0
LINE
  8
_0-0_
  6
CONTINUOUS
 62
    5
 10
1380.7843722939106
 20
1002.4422620263369
 11
1400.7843722939106
 21
982.44226202633877
  0
LINE
  8
_0-0_
  6
CONTINUOUS
 62
    5
 10
1380.7843722939106
 20
996.78540777684543
 11
1400.7843722939106
 21
976.78540777684543
  0
LINE
  8
_0-0_
  6
CONTINUOUS
 62
    5
 10
1380.7843722939106
 20
991.12855352735392
 11
1400.7843722939106
 21
971.12855352735392
  0
LINE
  8
_0-0_
  6
CONTINUOUS
 62
    5
 10
1380.7843722939106
 20
985.4716992778624
 11
1400.7843722939106
 21
965.4716992778624
  0
LINE
  8
_0-0_
  6
CONTINUOUS
 62
    5
 10
1380.7843722939106
 20
979.81484502836906
 11
1400.7843722939106
 21
959.81484502836906
  0
LINE
  8
_0-0_
  6
CONTINUOUS
 62
    5
 10
1380.7843722939106
 20
974.15799077887755
 11
1400.7843722939106
 21
954.15799077887755
  0
LINE
  8
_0-0_
  6
CONTINUOUS
 62
    5
 10
1380.7843722939106
 20
968.50113652938603
 11
1400.7843722939106
 21
948.50113652938603
  0
LINE
  8
_0-0_
  6
CONTINUOUS
 62
    5
 10
1380.7843722939106
 20
962.8442822798927
 11
1396.5279626912597
 21
947.1006918825417
  0
LINE
  8
_0-0_
  6
CONTINUOUS
 62
    5
 10
1380.7843722939106
 20
957.18742803039936
 11
1390.8711084417664
 21
947.1006918825417
  0
LINE
  8
_0-0_
  6
CONTINUOUS
 62
    5
 10
1380.7843722939106
 20
951.53057378090602
 11
1385.2142541922731
 21
947.10069188253988
  0
LINE
  8
_0-0_
  6
CONTINUOUS
 62
    5
 10
1400.7843722939106
 20
1027.1006918825417
 11
1380.7843722939106
 21
1027.1006918825417
  0
LINE
  8
_0-0_
  6
CONTINUOUS
 62
    7
 10
1400.7843722939106
 20
952.188561967959
 11
1405.8722423793261
 21
947.1006918825417
  0
LINE
  8
_0-0_
  6
CONTINUOUS
 62
    7
 10
1400.7843722939106
 20
959.25962977982203
 11
1412.9433101911891
 21
947.1006918825417
  0
LINE
  8
_0-0_
  6
CONTINUOUS
 62
    7
 10
1400.7843722939106
 20
966.3306975916887
 11
1420.0143780030558
 21
947.10069188253988
  0
LINE
  8
_0-0_
  6
CONTINUOUS
 62
    5
 10
1560.7758848728372
 20
1023.6006918825417
 11
1560.7758848728372
 21
947.1006918825417
  0
LINE
  8
_0-0_
  6
CONTINUOUS
 62
    5
 10
1540.7758848728372
 20
1023.6006918825417
 11
1560.7758848728372
 21
1023.6006918825417
  0
LINE
  8
_0-0_
  6
CONTINUOUS
 62
    5
 10
1540.7758848728372
 20
947.1006918825417
 11
1540.7758848728372
 21
1023.6006918825417
  0
LINE
  8
_0-0_
  6
CONTINUOUS
 62
    5
 10
1539.7758848728372
 20
1025.1006918825417
 11
1561.7758848728372
 21
1025.1006918825417
  0
LINE
  8
_0-0_
  6
CONTINUOUS
 62
    5
 10
1539.7758848728372
 20
1024.1006918825417
 11
1539.7758848728372
 21
1025.1006918825417
  0
LINE
  8
_0-0_
  6
CONTINUOUS
 62
    5
 10
1541.7758848728372
 20
1024.1006918825417
 11
1539.7758848728372
 21
1024.1006918825417
  0
LINE
  8
_0-0_
  6
CONTINUOUS
 62
    5
 10
1541.7758848728372
 20
1023.6006918825417
 11
1541.7758848728372
 21
1024.1006918825417
  0
LINE
  8
_0-0_
  6
CONTINUOUS
 62
    5
 10
1539.7758848728372
 20
1023.6006918825417
 11
1541.7758848728372
 21
1023.6006918825417
  0
LINE
  8
_0-0_
  6
CONTINUOUS
 62
    5
 10
1539.7758848728372
 20
1012.1006918825417
 11
1539.7758848728372
 21
1023.6006918825417
  0
LINE
  8
_0-0_
  6
CONTINUOUS
 62
    5
 10
1540.2758848728372
 20
1012.1006918825417
 11
1539.7758848728372
 21
1012.1006918825417
  0
LINE
  8
_0-0_
  6
CONTINUOUS
 62
    5
 10
1539.7758848728372
 20
1011.1006918825417
 11
1540.2758848728372
 21
1012.1006918825417
  0
LINE
  8
_0-0_
  6
CONTINUOUS
 62
    5
 10
1539.7758848728372
 20
998.1006918825417
 11
1539.7758848728372
 21
1011.1006918825417
  0
LINE
  8
_0-0_
  6
CONTINUOUS
 62
    5
 10
1540.2758848728372
 20
998.1006918825417
 11
1539.7758848728372
 21
998.1006918825417
  0
LINE
  8
_0-0_
  6
CONTINUOUS
 62
    5
 10
1539.7758848728372
 20
997.1006918825417
 11
1540.2758848728372
 21
998.1006918825417
  0
LINE
  8
_0-0_
  6
CONTINUOUS
 62
    5
 10
1538.7758848728372
 20
997.1006918825417
 11
1539.7758848728372
 21
997.1006918825417
  0
LINE
  8
_0-0_
  6
CONTINUOUS
 62
    5
 10
1538.7758848728372
 20
1023.6006918825417
 11
1538.7758848728372
 21
997.1006918825417
  0
LINE
  8
_0-0_
  6
CONTINUOUS
 62
    5
 10
1538.2758848728372
 20
1023.6006918825417
 11
1538.7758848728372
 21
1023.6006918825417
  0
LINE
  8
_0-0_
  6
CONTINUOUS
 62
    5
 10
1538.2758848728372
 20
1025.6006918825417
 11
1538.2758848728372
 21
1023.6006918825417
  0
LINE
  8
_0-0_
  6
CONTINUOUS
 62
    5
 10
1563.2758848728372
 20
1025.6006918825417
 11
1538.2758848728372
 21
1025.6006918825417
  0
LINE
  8
_0-0_
  6
CONTINUOUS
 62
    5
 10
1563.2758848728372
 20
1023.6006918825417
 11
1563.2758848728372
 21
1025.6006918825417
  0
LINE
  8
_0-0_
  6
CONTINUOUS
 62
    5
 10
1562.7758848728372
 20
1023.6006918825417
 11
1563.2758848728372
 21
1023.6006918825417
  0
LINE
  8
_0-0_
  6
CONTINUOUS
 62
    5
 10
1562.7758848728372
 20
997.1006918825417
 11
1562.7758848728372
 21
1023.6006918825417
  0
LINE
  8
_0-0_
  6
CONTINUOUS
 62
    5
 10
1561.7758848728372
 20
997.1006918825417
 11
1562.7758848728372
 21
997.1006918825417
  0
LINE
  8
_0-0_
  6
CONTINUOUS
 62
    5
 10
1561.2758848728372
 20
998.1006918825417
 11
1561.7758848728372
 21
997.1006918825417
  0
LINE
  8
_0-0_
  6
CONTINUOUS
 62
    5
 10
1561.7758848728372
 20
998.1006918825417
 11
1561.2758848728372
 21
998.1006918825417
  0
LINE
  8
_0-0_
  6
CONTINUOUS
 62
    5
 10
1561.7758848728372
 20
1011.1006918825417
 11
1561.7758848728372
 21
998.1006918825417
  0
LINE
  8
_0-0_
  6
CONTINUOUS
 62
    5
 10
1561.2758848728372
 20
1012.1006918825417
 11
1561.7758848728372
 21
1011.1006918825417
  0
LINE
  8
_0-0_
  6
CONTINUOUS
 62
    5
 10
1561.7758848728372
 20
1012.1006918825417
 11
1561.2758848728372
 21
1012.1006918825417
  0
LINE
  8
_0-0_
  6
CONTINUOUS
 62
    5
 10
1561.7758848728372
 20
1023.6006918825417
 11
1561.7758848728372
 21
1012.1006918825417
  0
LINE
  8
_0-0_
  6
CONTINUOUS
 62
    5
 10
1559.7758848728372
 20
1023.6006918825417
 11
1561.7758848728372
 21
1023.6006918825417
  0
LINE
  8
_0-0_
  6
CONTINUOUS
 62
    5
 10
1559.7758848728372
 20
1024.1006918825417
 11
1559.7758848728372
 21
1023.6006918825417
  0
LINE
  8
_0-0_
  6
CONTINUOUS
 62
    5
 10
1561.7758848728372
 20
1024.1006918825417
 11
1559.7758848728372
 21
1024.1006918825417
  0
LINE
  8
_0-0_
  6
CONTINUOUS
 62
    5
 10
1561.7758848728372
 20
1025.1006918825417
 11
1561.7758848728372
 21
1024.1006918825417
  0
LINE
  8
_0-0_
  6
CONTINUOUS
 62
    5
 10
1550.7758848728372
 20
1026.6006918825417
 11
1563.2758848728372
 21
1026.6006918825417
  0
LINE
  8
_0-0_
  6
CONTINUOUS
 62
    5
 10
1538.2758848728372
 20
1026.6006918825417
 11
1550.7758848728372
 21
1026.6006918825417
  0
LINE
  8
_0-0_
  6
CONTINUOUS
 62
    5
 10
1537.7758848728372
 20
1027.1006918825417
 11
1538.2758848728372
 21
1026.6006918825417
  0
LINE
  8
_0-0_
  6
CONTINUOUS
 62
    5
 10
1536.7758848728372
 20
1027.1006918825417
 11
1537.7758848728372
 21
1027.1006918825417
  0
LINE
  8
_0-0_
  6
CONTINUOUS
 62
    5
 10
1536.7758848728372
 20
1024.1006918825417
 11
1536.7758848728372
 21
1027.1006918825417
  0
LINE
  8
_0-0_
  6
CONTINUOUS
 62
    5
 10
1537.2758848728372
 20
1024.1006918825417
 11
1536.7758848728372
 21
1024.1006918825417
  0
LINE
  8
_0-0_
  6
CONTINUOUS
 62
    5
 10
1537.2758848728372
 20
1009.1006918825417
 11
1537.2758848728372
 21
1024.1006918825417
  0
LINE
  8
_0-0_
  6
CONTINUOUS
 62
    5
 10
1536.7758848728299
 20
1009.1006918825417
 11
1537.2758848728372
 21
1009.1006918825417
  0
LINE
  8
_0-0_
  6
CONTINUOUS
 62
    5
 10
1536.7758848728372
 20
1007.1006918825417
 11
1536.7758848728299
 21
1009.1006918825417
  0
LINE
  8
_0-0_
  6
CONTINUOUS
 62
    5
 10
1538.2758848728372
 20
1007.1006918825417
 11
1536.7758848728372
 21
1007.1006918825417
  0
LINE
  8
_0-0_
  6
CONTINUOUS
 62
    5
 10
1538.2758848728372
 20
1025.6006918825417
 11
1538.2758848728372
 21
1007.1006918825417
  0
LINE
  8
_0-0_
  6
CONTINUOUS
 62
    5
 10
1563.2758848728372
 20
1025.6006918825417
 11
1538.2758848728372
 21
1025.6006918825417
  0
LINE
  8
_0-0_
  6
CONTINUOUS
 62
    5
 10
1563.2758848728372
 20
1007.1006918825417
 11
1563.2758848728372
 21
1025.6006918825417
  0
LINE
  8
_0-0_
  6
CONTINUOUS
 62
    5
 10
1564.7758848728372
 20
1007.1006918825417
 11
1563.2758848728372
 21
1007.1006918825417
  0
LINE
  8
_0-0_
  6
CONTINUOUS
 62
    5
 10
1564.7758848728408
 20
1009.1006918825417
 11
1564.7758848728372
 21
1007.1006918825417
  0
LINE
  8
_0-0_
  6
CONTINUOUS
 62
    5
 10
1564.2758848728372
 20
1009.1006918825417
 11
1564.7758848728408
 21
1009.1006918825417
  0
LINE
  8
_0-0_
  6
CONTINUOUS
 62
    5
 10
1564.2758848728372
 20
1024.1006918825417
 11
1564.2758848728372
 21
1009.1006918825417
  0
LINE
  8
_0-0_
  6
CONTINUOUS
 62
    5
 10
1564.7758848728372
 20
1024.1006918825417
 11
1564.2758848728372
 21
1024.1006918825417
  0
LINE
  8
_0-0_
  6
CONTINUOUS
 62
    5
 10
1564.7758848728372
 20
1027.1006918825417
 11
1564.7758848728372
 21
1024.1006918825417
  0
LINE
  8
_0-0_
  6
CONTINUOUS
 62
    5
 10
1563.7758848728372
 20
1027.1006918825417
 11
1564.7758848728372
 21
1027.1006918825417
  0
LINE
  8
_0-0_
  6
CONTINUOUS
 62
    5
 10
1563.2758848728372
 20
1026.6006918825417
 11
1563.7758848728372
 21
1027.1006918825417
  0
LINE
  8
_0-0_
  6
CONTINUOUS
 62
    5
 10
1543.9899699714442
 20
947.1006918825417
 11
1543.9899699714442
 21
1023.6006918825417
  0
LINE
  8
_0-0_
  6
CONTINUOUS
 62
    5
 10
1547.7399699714442
 20
947.1006918825417
 11
1547.7399699714442
 21
1023.6006918825417
  0
LINE
  8
_0-0_
  6
CONTINUOUS
 62
    5
 10
1551.4899699714442
 20
947.1006918825417
 11
1551.4899699714442
 21
1023.6006918825417
  0
LINE
  8
_0-0_
  6
CONTINUOUS
 62
    5
 10
1555.2399699714442
 20
947.1006918825417
 11
1555.2399699714442
 21
1023.6006918825417
  0
LINE
  8
_0-0_
  6
CONTINUOUS
 62
    5
 10
1558.9899699714442
 20
947.1006918825417
 11
1558.9899699714442
 21
1023.6006918825417
  0
LINE
  8
_0-0_
  6
CONTINUOUS
 62
    7
 10
1536.7758848728372
 20
1027.1006918825417
 11
1380.7843722939106
 21
1027.1006918825417
  0
LINE
  8
_0-0_
  6
CONTINUOUS
 62
    6
 10
983.08437229390995
 20
945.1006918825417
 11
983.08437229390995
 21
910.1006918825417
  0
LINE
  8
_0-0_
  6
CONTINUOUS
 62
    6
 10
983.08437229390995
 20
910.75551013749396
 11
982.42955403896133
 21
910.1006918825417
  0
LINE
  8
_0-0_
  6
CONTINUOUS
 62
    6
 10
983.08437229391359
 20
924.89764576122548
 11
968.28741841522799
 21
910.10069188253988
  0
LINE
  8
_0-0_
  6
CONTINUOUS
 62
    6
 10
983.08437229390995
 20
939.03978138495518
 11
954.14528279149829
 21
910.1006918825417
  0
LINE
  8
_0-0_
  6
CONTINUOUS
 62
    6
 10
975.00314716776495
 20
945.10069188253988
 11
940.00314716776495
 21
910.10069188253988
  0
LINE
  8
_0-0_
  6
CONTINUOUS
 62
    6
 10
960.86101154403525
 20
945.10069188253988
 11
925.86101154403525
 21
910.10069188253988
  0
LINE
  8
_0-0_
  6
CONTINUOUS
 62
    6
 10
946.71887592030191
 20
945.1006918825417
 11
911.71887592030191
 21
910.1006918825417
  0
LINE
  8
_0-0_
  6
CONTINUOUS
 62
    6
 10
932.57674029657221
 20
945.10069188253988
 11
897.57674029657585
 21
910.1006918825417
  0
LINE
  8
_0-0_
  6
CONTINUOUS
 62
    6
 10
918.43460467284251
 20
945.10069188253988
 11
883.43460467284251
 21
910.10069188253988
  0
LINE
  8
_0-0_
  6
CONTINUOUS
 62
    6
 10
904.29246904911281
 20
945.1006918825417
 11
869.29246904911281
 21
910.1006918825417
  0
LINE
  8
_0-0_
  6
CONTINUOUS
 62
    6
 10
890.15033342537947
 20
945.10069188253988
 11
855.15033342537947
 21
910.10069188253988
  0
LINE
  8
_0-0_
  6
CONTINUOUS
 62
    6
 10
876.00819780164977
 20
945.10069188253988
 11
841.00819780164977
 21
910.10069188253988
  0
LINE
  8
_0-0_
  6
CONTINUOUS
 62
    6
 10
861.86606217791643
 20
945.1006918825417
 11
826.86606217791643
 21
910.1006918825417
  0
LINE
  8
_0-0_
  6
CONTINUOUS
 62
    6
 10
847.72392655418673
 20
945.10069188253988
 11
812.72392655419037
 21
910.1006918825417
  0
LINE
  8
_0-0_
  6
CONTINUOUS
 62
    6
 10
833.58179093045703
 20
945.1006918825417
 11
798.58179093045703
 21
910.1006918825417
  0
LINE
  8
_0-0_
  6
CONTINUOUS
 62
    6
 10
819.43965530672733
 20
945.1006918825417
 11
784.43965530672733
 21
910.1006918825417
  0
LINE
  8
_0-0_
  6
CONTINUOUS
 62
    6
 10
812.56778287011923
 20
910.1006918825417
 11
777.56778287011923
 21
945.1006918825417
  0
LINE
  8
_0-0_
  6
CONTINUOUS
 62
    6
 10
826.70991849384893
 20
910.1006918825417
 11
791.70991849384893
 21
945.1006918825417
  0
LINE
  8
_0-0_
  6
CONTINUOUS
 62
    6
 10
840.85205411757863
 20
910.1006918825417
 11
805.85205411757863
 21
945.1006918825417
  0
LINE
  8
_0-0_
  6
CONTINUOUS
 62
    6
 10
854.99418974131197
 20
910.1006918825417
 11
819.99418974131197
 21
945.10069188253988
  0
LINE
  8
_0-0_
  6
CONTINUOUS
 62
    6
 10
869.13632536503803
 20
910.1006918825417
 11
834.13632536503803
 21
945.1006918825417
  0
LINE
  8
_0-0_
  6
CONTINUOUS
 62
    6
 10
883.27846098877137
 20
910.1006918825417
 11
848.27846098877137
 21
945.1006918825417
  0
LINE
  8
_0-0_
  6
CONTINUOUS
 62
    6
 10
897.42059661250471
 20
910.10069188253988
 11
862.42059661250471
 21
945.1006918825417
  0
LINE
  8
_0-0_
  6
CONTINUOUS
 62
    6
 10
911.56273223623441
 20
910.1006918825417
 11
876.56273223623441
 21
945.1006918825417
  0
LINE
  8
_0-0_
  6
CONTINUOUS
 62
    6
 10
925.70486785996411
 20
910.1006918825417
 11
890.70486785996411
 21
945.1006918825417
  0
LINE
  8
_0-0_
  6
CONTINUOUS
 62
    6
 10
939.84700348369745
 20
910.1006918825417
 11
904.84700348369745
 21
945.10069188253988
  0
LINE
  8
_0-0_
  6
CONTINUOUS
 62
    6
 10
953.98913910742351
 20
910.1006918825417
 11
918.98913910742351
 21
945.1006918825417
  0
LINE
  8
_0-0_
  6
CONTINUOUS
 62
    6
 10
968.13127473115685
 20
910.1006918825417
 11
933.13127473115685
 21
945.1006918825417
  0
LINE
  8
_0-0_
  6
CONTINUOUS
 62
    6
 10
982.27341035489019
 20
910.10069188253988
 11
947.27341035489019
 21
945.10069188253988
  0
LINE
  8
_0-0_
  6
CONTINUOUS
 62
    6
 10
983.08437229391359
 20
923.431865567248
 11
961.41554597861989
 21
945.1006918825417
  0
LINE
  8
_0-0_
  6
CONTINUOUS
 62
    6
 10
983.08437229391359
 20
937.57400119097952
 11
975.55768160234959
 21
945.1006918825417
  0
LINE
  8
_0-0_
  6
CONTINUOUS
 62
    5
 10
968.14482240366863
 20
1027.1006918825417
 11
963.08437229390995
 21
1022.0402417727848
  0
LINE
  8
_0-0_
  6
CONTINUOUS
 62
    5
 10
973.80167665316196
 20
1027.1006918825417
 11
963.08437229390995
 21
1016.3833875232915
  0
LINE
  8
_0-0_
  6
CONTINUOUS
 62
    5
 10
979.45853090265166
 20
1027.1006918825417
 11
963.08437229390995
 21
1010.7265332738
  0
LINE
  8
_0-0_
  6
CONTINUOUS
 62
    5
 10
983.08437229390995
 20
1025.0696790243085
 11
963.08437229390995
 21
1005.0696790243085
  0
LINE
  8
_0-0_
  6
CONTINUOUS
 62
    5
 10
983.08437229390995
 20
1019.412824774817
 11
963.08437229390995
 21
999.41282477481695
  0
LINE
  8
_0-0_
  6
CONTINUOUS
 62
    5
 10
983.08437229390995
 20
1013.7559705253254
 11
963.08437229390995
 21
993.75597052532544
  0
LINE
  8
_0-0_
  6
CONTINUOUS
 62
    5
 10
983.08437229390995
 20
1008.0991162758321
 11
963.08437229390995
 21
988.09911627583028
  0
LINE
  8
_0-0_
  6
CONTINUOUS
 62
    5
 10
983.08437229390995
 20
1002.4422620263369
 11
963.08437229390995
 21
982.44226202633877
  0
LINE
  8
_0-0_
  6
CONTINUOUS
 62
    5
 10
983.08437229390995
 20
996.78540777684543
 11
963.08437229390995
 21
976.78540777684543
  0
LINE
  8
_0-0_
  6
CONTINUOUS
 62
    5
 10
983.08437229390995
 20
991.12855352735392
 11
963.08437229390995
 21
971.12855352735392
  0
LINE
  8
_0-0_
  6
CONTINUOUS
 62
    5
 10
983.08437229390995
 20
985.4716992778624
 11
963.08437229390995
 21
965.4716992778624
  0
LINE
  8
_0-0_
  6
CONTINUOUS
 62
    5
 10
983.08437229390995
 20
979.81484502836906
 11
963.08437229390995
 21
959.81484502836906
  0
LINE
  8
_0-0_
  6
CONTINUOUS
 62
    5
 10
983.08437229390995
 20
974.15799077887755
 11
963.08437229390995
 21
954.15799077887755
  0
LINE
  8
_0-0_
  6
CONTINUOUS
 62
    5
 10
983.08437229390995
 20
968.50113652938603
 11
963.08437229390995
 21
948.50113652938603
  0
LINE
  8
_0-0_
  6
CONTINUOUS
 62
    5
 10
983.08437229390995
 20
962.8442822798927
 11
967.34078189656077
 21
947.1006918825417
  0
LINE
  8
_0-0_
  6
CONTINUOUS
 62
    5
 10
983.08437229390995
 20
957.18742803039936
 11
972.99763614605411
 21
947.1006918825417
  0
LINE
  8
_0-0_
  6
CONTINUOUS
 62
    5
 10
983.08437229390995
 20
951.53057378090602
 11
978.65449039554744
 21
947.10069188253988
  0
LINE
  8
_0-0_
  6
CONTINUOUS
 62
    5
 10
963.08437229390995
 20
1027.1006918825417
 11
983.08437229390995
 21
1027.1006918825417
  0
LINE
  8
_0-0_
  6
CONTINUOUS
 62
    5
 10
803.09285971498332
 20
1023.6006918825417
 11
803.09285971498332
 21
947.1006918825417
  0
LINE
  8
_0-0_
  6
CONTINUOUS
 62
    5
 10
823.09285971498332
 20
1023.6006918825417
 11
803.09285971498332
 21
1023.6006918825417
  0
LINE
  8
_0-0_
  6
CONTINUOUS
 62
    5
 10
823.09285971498332
 20
947.1006918825417
 11
823.09285971498332
 21
1023.6006918825417
  0
LINE
  8
_0-0_
  6
CONTINUOUS
 62
    5
 10
824.09285971498332
 20
1025.1006918825417
 11
802.09285971498332
 21
1025.1006918825417
  0
LINE
  8
_0-0_
  6
CONTINUOUS
 62
    5
 10
824.09285971498332
 20
1024.1006918825417
 11
824.09285971498332
 21
1025.1006918825417
  0
LINE
  8
_0-0_
  6
CONTINUOUS
 62
    5
 10
822.09285971498332
 20
1024.1006918825417
 11
824.09285971498332
 21
1024.1006918825417
  0
LINE
  8
_0-0_
  6
CONTINUOUS
 62
    5
 10
822.09285971498332
 20
1023.6006918825417
 11
822.09285971498332
 21
1024.1006918825417
  0
LINE
  8
_0-0_
  6
CONTINUOUS
 62
    5
 10
824.09285971498332
 20
1023.6006918825417
 11
822.09285971498332
 21
1023.6006918825417
  0
LINE
  8
_0-0_
  6
CONTINUOUS
 62
    5
 10
824.09285971498332
 20
1012.1006918825417
 11
824.09285971498332
 21
1023.6006918825417
  0
LINE
  8
_0-0_
  6
CONTINUOUS
 62
    5
 10
823.59285971498332
 20
1012.1006918825417
 11
824.09285971498332
 21
1012.1006918825417
  0
LINE
  8
_0-0_
  6
CONTINUOUS
 62
    5
 10
824.09285971498332
 20
1011.1006918825417
 11
823.59285971498332
 21
1012.1006918825417
  0
LINE
  8
_0-0_
  6
CONTINUOUS
 62
    5
 10
824.09285971498332
 20
998.1006918825417
 11
824.09285971498332
 21
1011.1006918825417
  0
LINE
  8
_0-0_
  6
CONTINUOUS
 62
    5
 10
823.59285971498332
 20
998.1006918825417
 11
824.09285971498332
 21
998.1006918825417
  0
LINE
  8
_0-0_
  6
CONTINUOUS
 62
    5
 10
824.09285971498332
 20
997.1006918825417
 11
823.59285971498332
 21
998.1006918825417
  0
LINE
  8
_0-0_
  6
CONTINUOUS
 62
    5
 10
825.09285971498332
 20
997.1006918825417
 11
824.09285971498332
 21
997.1006918825417
  0
LINE
  8
_0-0_
  6
CONTINUOUS
 62
    5
 10
825.09285971498332
 20
1023.6006918825417
 11
825.09285971498332
 21
997.1006918825417
  0
LINE
  8
_0-0_
  6
CONTINUOUS
 62
    5
 10
825.59285971498332
 20
1023.6006918825417
 11
825.09285971498332
 21
1023.6006918825417
  0
LINE
  8
_0-0_
  6
CONTINUOUS
 62
    5
 10
825.59285971498332
 20
1025.6006918825417
 11
825.59285971498332
 21
1023.6006918825417
  0
LINE
  8
_0-0_
  6
CONTINUOUS
 62
    5
 10
800.59285971498332
 20
1025.6006918825417
 11
825.59285971498332
 21
1025.6006918825417
  0
LINE
  8
_0-0_
  6
CONTINUOUS
 62
    5
 10
800.59285971498332
 20
1023.6006918825417
 11
800.59285971498332
 21
1025.6006918825417
  0
LINE
  8
_0-0_
  6
CONTINUOUS
 62
    5
 10
801.09285971498332
 20
1023.6006918825417
 11
800.59285971498332
 21
1023.6006918825417
  0
LINE
  8
_0-0_
  6
CONTINUOUS
 62
    5
 10
801.09285971498332
 20
997.1006918825417
 11
801.09285971498332
 21
1023.6006918825417
  0
LINE
  8
_0-0_
  6
CONTINUOUS
 62
    5
 10
802.09285971498332
 20
997.1006918825417
 11
801.09285971498332
 21
997.1006918825417
  0
LINE
  8
_0-0_
  6
CONTINUOUS
 62
    5
 10
802.59285971498332
 20
998.1006918825417
 11
802.09285971498332
 21
997.1006918825417
  0
LINE
  8
_0-0_
  6
CONTINUOUS
 62
    5
 10
802.09285971498332
 20
998.1006918825417
 11
802.59285971498332
 21
998.1006918825417
  0
LINE
  8
_0-0_
  6
CONTINUOUS
 62
    5
 10
802.09285971498332
 20
1011.1006918825417
 11
802.09285971498332
 21
998.1006918825417
  0
LINE
  8
_0-0_
  6
CONTINUOUS
 62
    5
 10
802.59285971498332
 20
1012.1006918825417
 11
802.09285971498332
 21
1011.1006918825417
  0
LINE
  8
_0-0_
  6
CONTINUOUS
 62
    5
 10
802.09285971498332
 20
1012.1006918825417
 11
802.59285971498332
 21
1012.1006918825417
  0
LINE
  8
_0-0_
  6
CONTINUOUS
 62
    5
 10
802.09285971498332
 20
1023.6006918825417
 11
802.09285971498332
 21
1012.1006918825417
  0
LINE
  8
_0-0_
  6
CONTINUOUS
 62
    5
 10
804.09285971498332
 20
1023.6006918825417
 11
802.09285971498332
 21
1023.6006918825417
  0
LINE
  8
_0-0_
  6
CONTINUOUS
 62
    5
 10
804.09285971498332
 20
1024.1006918825417
 11
804.09285971498332
 21
1023.6006918825417
  0
LINE
  8
_0-0_
  6
CONTINUOUS
 62
    5
 10
802.09285971498332
 20
1024.1006918825417
 11
804.09285971498332
 21
1024.1006918825417
  0
LINE
  8
_0-0_
  6
CONTINUOUS
 62
    5
 10
802.09285971498332
 20
1025.1006918825417
 11
802.09285971498332
 21
1024.1006918825417
  0
LINE
  8
_0-0_
  6
CONTINUOUS
 62
    5
 10
813.09285971498332
 20
1026.6006918825417
 11
800.59285971498332
 21
1026.6006918825417
  0
LINE
  8
_0-0_
  6
CONTINUOUS
 62
    5
 10
825.59285971498332
 20
1026.6006918825417
 11
813.09285971498332
 21
1026.6006918825417
  0
LINE
  8
_0-0_
  6
CONTINUOUS
 62
    5
 10
826.09285971498332
 20
1027.1006918825417
 11
825.59285971498332
 21
1026.6006918825417
  0
LINE
  8
_0-0_
  6
CONTINUOUS
 62
    5
 10
827.09285971498332
 20
1027.1006918825417
 11
826.09285971498332
 21
1027.1006918825417
  0
LINE
  8
_0-0_
  6
CONTINUOUS
 62
    5
 10
827.09285971498332
 20
1024.1006918825417
 11
827.09285971498332
 21
1027.1006918825417
  0
LINE
  8
_0-0_
  6
CONTINUOUS
 62
    5
 10
826.59285971498332
 20
1024.1006918825417
 11
827.09285971498332
 21
1024.1006918825417
  0
LINE
  8
_0-0_
  6
CONTINUOUS
 62
    5
 10
826.59285971498332
 20
1009.1006918825417
 11
826.59285971498332
 21
1024.1006918825417
  0
LINE
  8
_0-0_
  6
CONTINUOUS
 62
    5
 10
827.0928597149906
 20
1009.1006918825417
 11
826.59285971498332
 21
1009.1006918825417
  0
LINE
  8
_0-0_
  6
CONTINUOUS
 62
    5
 10
827.09285971498332
 20
1007.1006918825417
 11
827.0928597149906
 21
1009.1006918825417
  0
LINE
  8
_0-0_
  6
CONTINUOUS
 62
    5
 10
825.59285971498332
 20
1007.1006918825417
 11
827.09285971498332
 21
1007.1006918825417
  0
LINE
  8
_0-0_
  6
CONTINUOUS
 62
    5
 10
825.59285971498332
 20
1025.6006918825417
 11
825.59285971498332
 21
1007.1006918825417
  0
LINE
  8
_0-0_
  6
CONTINUOUS
 62
    5
 10
800.59285971498332
 20
1025.6006918825417
 11
825.59285971498332
 21
1025.6006918825417
  0
LINE
  8
_0-0_
  6
CONTINUOUS
 62
    5
 10
800.59285971498332
 20
1007.1006918825417
 11
800.59285971498332
 21
1025.6006918825417
  0
LINE
  8
_0-0_
  6
CONTINUOUS
 62
    5
 10
799.09285971498332
 20
1007.1006918825417
 11
800.59285971498332
 21
1007.1006918825417
  0
LINE
  8
_0-0_
  6
CONTINUOUS
 62
    5
 10
799.09285971497968
 20
1009.1006918825417
 11
799.09285971498332
 21
1007.1006918825417
  0
LINE
  8
_0-0_
  6
CONTINUOUS
 62
    5
 10
799.59285971498332
 20
1009.1006918825417
 11
799.09285971497968
 21
1009.1006918825417
  0
LINE
  8
_0-0_
  6
CONTINUOUS
 62
    5
 10
799.59285971498332
 20
1024.1006918825417
 11
799.59285971498332
 21
1009.1006918825417
  0
LINE
  8
_0-0_
  6
CONTINUOUS
 62
    5
 10
799.09285971498332
 20
1024.1006918825417
 11
799.59285971498332
 21
1024.1006918825417
  0
LINE
  8
_0-0_
  6
CONTINUOUS
 62
    5
 10
799.09285971498332
 20
1027.1006918825417
 11
799.09285971498332
 21
1024.1006918825417
  0
LINE
  8
_0-0_
  6
CONTINUOUS
 62
    5
 10
800.09285971498332
 20
1027.1006918825417
 11
799.09285971498332
 21
1027.1006918825417
  0
LINE
  8
_0-0_
  6
CONTINUOUS
 62
    5
 10
800.59285971498332
 20
1026.6006918825417
 11
800.09285971498332
 21
1027.1006918825417
  0
LINE
  8
_0-0_
  6
CONTINUOUS
 62
    5
 10
819.87877461637629
 20
947.1006918825417
 11
819.87877461637629
 21
1023.6006918825417
  0
LINE
  8
_0-0_
  6
CONTINUOUS
 62
    5
 10
816.12877461637629
 20
947.1006918825417
 11
816.12877461637629
 21
1023.6006918825417
  0
LINE
  8
_0-0_
  6
CONTINUOUS
 62
    5
 10
812.37877461637629
 20
947.1006918825417
 11
812.37877461637629
 21
1023.6006918825417
  0
LINE
  8
_0-0_
  6
CONTINUOUS
 62
    5
 10
808.62877461637629
 20
947.1006918825417
 11
808.62877461637629
 21
1023.6006918825417
  0
LINE
  8
_0-0_
  6
CONTINUOUS
 62
    5
 10
804.87877461637629
 20
947.1006918825417
 11
804.87877461637629
 21
1023.6006918825417
  0
LINE
  8
_0-0_
  6
CONTINUOUS
 62
    7
 10
826.59285971498332
 20
1010.9985819327296
 11
890.49074976517306
 21
947.1006918825417
  0
LINE
  8
_0-0_
  6
CONTINUOUS
 62
    7
 10
826.59285971498332
 20
1018.0696497445963
 11
897.56181757704155
 21
947.10069188253806
  0
LINE
  8
_0-0_
  6
CONTINUOUS
 62
    7
 10
827.09285971498332
 20
1024.6407175564648
 11
904.63288538889913
 21
947.10069188254533
  0
LINE
  8
_0-0_
  6
CONTINUOUS
 62
    7
 10
1580.4306836064825
 20
1027.1006918825417
 11
1584.7843722939106
 21
1022.7470031951136
  0
LINE
  8
_0-0_
  6
CONTINUOUS
 62
    7
 10
1564.7758848728372
 20
1027.1006918825417
 11
1584.7843722939106
 21
1027.1006918825417
  0
LINE
  8
_0-0_
  6
CONTINUOUS
 62
    5
 10
1380.7843722939106
 20
946.10069188253988
 11
1584.7843722939106
 21
946.10069188253988
  0
LINE
  8
_0-0_
  6
CONTINUOUS
 62
    6
 10
1584.7843722939106
 20
945.1006918825417
 11
1380.7843722939106
 21
945.1006918825417
  0
LINE
  8
_0-0_
  6
CONTINUOUS
 62
    6
 10
1579.585232965168
 20
910.1006918825417
 11
1584.7843722939106
 21
915.2998312112843
  0
LINE
  8
_0-0_
  6
CONTINUOUS
 62
    6
 10
1572.7133605285562
 20
945.1006918825417
 11
1584.7843722939106
 21
933.02968011718735
  0
LINE
  8
_0-0_
  6
CONTINUOUS
 62
    6
 10
1565.4430973414346
 20
910.1006918825417
 11
1584.7843722939106
 21
929.44196683501764
  0
LINE
  8
_0-0_
  6
CONTINUOUS
 62
    6
 10
1558.5712249048265
 20
945.10069188253988
 11
1584.7843722939106
 21
918.88754449345765
  0
LINE
  8
_0-0_
  6
CONTINUOUS
 62
    6
 10
1551.3009617177013
 20
910.1006918825417
 11
1584.7843722939106
 21
943.58410245875098
  0
LINE
  8
_0-0_
  6
CONTINUOUS
 62
    6
 10
1380.7843722939106
 20
910.1006918825417
 11
1584.7843722939106
 21
910.1006918825417
  0
LINE
  8
_0-0_
  6
CONTINUOUS
 62
    4
 10
1380.7843722939106
 20
909.1006918825417
 11
1584.7843722939106
 21
909.1006918825417
  0
LINE
  8
_0-0_
  6
CONTINUOUS
 62
    7
 10
1380.7843722939106
 20
947.10069188253988
 11
1584.7843722939106
 21
947.10069188253988
  0
LINE
  8
_0-0_
  6
CONTINUOUS
 62
    6
 10
777.01324843553095
 20
945.1006918825417
 11
772.78437229391068
 21
940.87181574092142
  0
LINE
  8
_0-0_
  6
CONTINUOUS
 62
    6
 10
784.28351162265255
 20
910.1006918825417
 11
772.78437229391068
 21
921.59983121128357
  0
LINE
  8
_0-0_
  6
CONTINUOUS
 62
    6
 10
798.42564724638589
 20
910.1006918825417
 11
772.78437229391068
 21
935.74196683501691
  0
LINE
  8
_0-0_
  6
CONTINUOUS
 62
    6
 10
791.15538405926429
 20
945.1006918825417
 11
772.78437229391068
 21
926.72968011718808
  0
LINE
  8
_0-0_
  6
CONTINUOUS
 62
    6
 10
805.29751968299399
 20
945.10069188253988
 11
772.78437229391068
 21
912.58754449345838
  0
LINE
  8
_0-0_
  6
CONTINUOUS
 62
    6
 10
983.08437229390995
 20
910.1006918825417
 11
772.78437229391068
 21
910.1006918825417
  0
LINE
  8
_0-0_
  6
CONTINUOUS
 62
    4
 10
983.08437229390995
 20
909.1006918825417
 11
772.78437229391068
 21
909.1006918825417
  0
LINE
  8
_0-0_
  6
CONTINUOUS
 62
    5
 10
983.08437229390995
 20
946.10069188253988
 11
772.78437229391068
 21
946.10069188253988
  0
LINE
  8
_0-0_
  6
CONTINUOUS
 62
    7
 10
983.08437229390995
 20
947.10069188253988
 11
772.78437229391068
 21
947.10069188253988
  0
LINE
  8
_0-0_
  6
CONTINUOUS
 62
    6
 10
772.78437229391068
 20
945.1006918825417
 11
983.08437229390995
 21
945.1006918825417
  0
LINE
  8
_0-0_
  6
CONTINUOUS
 62
    7
 10
799.09285971498332
 20
1027.1006918825417
 11
772.78437229391068
 21
1027.1006918825417
  0
TEXT
  8
_0-0_
 62
    7
 10
906.73245032900388
 20
575.6797341210106
 40
40
 41
1
 50
0
  1
Ａ
  0
TEXT
  8
_0-0_
 62
    7
 10
1429.6891920142116
 20
576.02721287347708
 40
40
 41
1
 50
0
  1
Ｂ
  0
TEXT
  8
_0-0_
 62
    7
 10
1033.6644834073468
 20
467.90994934400919
 40
21.617968000000001
 41
1
 50
0
  1
ｼｰﾘﾝｸﾞ
  0
LINE
  8
_0-0_
  6
CONTINUOUS
 62
    7
 10
1611.3159724366924
 20
502.67903529867294
 11
1260.3350691341075
 21
502.67903529867294
  0
LINE
  8
_0-0_
  6
CONTINUOUS
 62
    6
 10
1260.3350691341075
 20
318.17903529867294
 11
1260.3350691341075
 21
239.42903529867294
  0
LINE
  8
_0-0_
  6
CONTINUOUS
 62
    6
 10
1260.3350691341075
 20
240.90237637231553
 11
1261.8084102077428
 21
239.42903529867294
  0
LINE
  8
_0-0_
  6
CONTINUOUS
 62
    6
 10
1260.3350691340984
 20
272.7221815257119
 11
1293.628215361141
 21
239.42903529866931
  0
LINE
  8
_0-0_
  6
CONTINUOUS
 62
    6
 10
1260.3350691341075
 20
304.54198667910282
 11
1325.4480205145337
 21
239.42903529867294
  0
LINE
  8
_0-0_
  6
CONTINUOUS
 62
    6
 10
1278.5178256679337
 20
318.17903529866931
 11
1357.2678256679337
 21
239.42903529866931
  0
LINE
  8
_0-0_
  6
CONTINUOUS
 62
    6
 10
1310.3376308213246
 20
318.17903529866931
 11
1389.0876308213246
 21
239.42903529866931
  0
LINE
  8
_0-0_
  6
CONTINUOUS
 62
    6
 10
1342.1574359747265
 20
318.17903529867294
 11
1420.9074359747265
 21
239.42903529867294
  0
LINE
  8
_0-0_
  6
CONTINUOUS
 62
    6
 10
1373.9772411281174
 20
318.17903529866931
 11
1452.7272411281101
 21
239.42903529867294
  0
LINE
  8
_0-0_
  6
CONTINUOUS
 62
    6
 10
1405.7970462815083
 20
318.17903529866931
 11
1484.5470462815083
 21
239.42903529866931
  0
LINE
  8
_0-0_
  6
CONTINUOUS
 62
    6
 10
1437.616851434901
 20
318.17903529867294
 11
1516.366851434901
 21
239.42903529867294
  0
LINE
  8
_0-0_
  6
CONTINUOUS
 62
    6
 10
1469.436656588301
 20
318.17903529866931
 11
1548.186656588301
 21
239.42903529866931
  0
LINE
  8
_0-0_
  6
CONTINUOUS
 62
    6
 10
1501.256461741692
 20
318.17903529866931
 11
1580.006461741692
 21
239.42903529866931
  0
LINE
  8
_0-0_
  6
CONTINUOUS
 62
    6
 10
1516.7181747240702
 20
239.42903529867294
 11
1595.4681747240702
 21
318.17903529867294
  0
LINE
  8
_0-0_
  6
CONTINUOUS
 62
    6
 10
1484.8983695706684
 20
239.42903529867294
 11
1563.6483695706684
 21
318.17903529867294
  0
LINE
  8
_0-0_
  6
CONTINUOUS
 62
    6
 10
1453.0785644172702
 20
239.42903529866931
 11
1531.8285644172702
 21
318.17903529867294
  0
LINE
  8
_0-0_
  6
CONTINUOUS
 62
    6
 10
1421.2587592638774
 20
239.42903529867294
 11
1500.0087592638774
 21
318.17903529867294
  0
LINE
  8
_0-0_
  6
CONTINUOUS
 62
    6
 10
1389.4389541104847
 20
239.42903529867294
 11
1468.1889541104847
 21
318.17903529867294
  0
LINE
  8
_0-0_
  6
CONTINUOUS
 62
    6
 10
1357.6191489570865
 20
239.42903529867294
 11
1436.3691489570865
 21
318.17903529866931
  0
LINE
  8
_0-0_
  6
CONTINUOUS
 62
    6
 10
1325.7993438037029
 20
239.42903529867294
 11
1404.5493438037029
 21
318.17903529867294
  0
LINE
  8
_0-0_
  6
CONTINUOUS
 62
    6
 10
1293.979538650301
 20
239.42903529867294
 11
1372.729538650301
 21
318.17903529867294
  0
LINE
  8
_0-0_
  6
CONTINUOUS
 62
    6
 10
1262.1597334969028
 20
239.42903529866931
 11
1340.9097334969028
 21
318.17903529866931
  0
LINE
  8
_0-0_
  6
CONTINUOUS
 62
    6
 10
1260.3350691340984
 20
269.42417608926303
 11
1309.0899283435101
 21
318.17903529867294
  0
LINE
  8
_0-0_
  6
CONTINUOUS
 62
    6
 10
1260.3350691340984
 20
301.24398124265758
 11
1277.2701231901174
 21
318.17903529867294
  0
LINE
  8
_0-0_
  6
CONTINUOUS
 62
    5
 10
1305.3350691341075
 20
502.67903529867294
 11
1305.3350691341075
 21
322.67903529867294
  0
LINE
  8
_0-0_
  6
CONTINUOUS
 62
    5
 10
1293.9490563871495
 20
502.67903529867294
 11
1305.3350691341075
 21
491.29302255172047
  0
LINE
  8
_0-0_
  6
CONTINUOUS
 62
    5
 10
1281.2211343257895
 20
502.67903529867112
 11
1305.3350691341075
 21
478.56510049036046
  0
LINE
  8
_0-0_
  6
CONTINUOUS
 62
    5
 10
1268.4932122644386
 20
502.67903529867294
 11
1305.3350691341075
 21
465.83717842900228
  0
LINE
  8
_0-0_
  6
CONTINUOUS
 62
    5
 10
1260.3350691341075
 20
498.10925636764955
 11
1305.3350691341075
 21
453.10925636764955
  0
LINE
  8
_0-0_
  6
CONTINUOUS
 62
    5
 10
1260.3350691341075
 20
485.38133430629318
 11
1305.3350691341075
 21
440.38133430629318
  0
LINE
  8
_0-0_
  6
CONTINUOUS
 62
    5
 10
1260.3350691341075
 20
472.65341224493682
 11
1305.3350691341075
 21
427.65341224493682
  0
LINE
  8
_0-0_
  6
CONTINUOUS
 62
    5
 10
1260.3350691341075
 20
459.92549018357681
 11
1305.3350691341075
 21
414.92549018357317
  0
LINE
  8
_0-0_
  6
CONTINUOUS
 62
    5
 10
1260.3350691341075
 20
447.19756812221499
 11
1305.3350691341075
 21
402.19756812221681
  0
LINE
  8
_0-0_
  6
CONTINUOUS
 62
    5
 10
1260.3350691341075
 20
434.4696460608568
 11
1305.3350691341075
 21
389.4696460608568
  0
LINE
  8
_0-0_
  6
CONTINUOUS
 62
    5
 10
1260.3350691341075
 20
421.74172399949862
 11
1305.3350691341075
 21
376.74172399950044
  0
LINE
  8
_0-0_
  6
CONTINUOUS
 62
    5
 10
1260.3350691341075
 20
409.01380193814407
 11
1305.3350691341075
 21
364.01380193814589
  0
LINE
  8
_0-0_
  6
CONTINUOUS
 62
    5
 10
1260.3350691341075
 20
396.28587987678407
 11
1305.3350691341075
 21
351.28587987678588
  0
LINE
  8
_0-0_
  6
CONTINUOUS
 62
    5
 10
1260.3350691341075
 20
383.55795781542952
 11
1305.3350691341075
 21
338.55795781542952
  0
LINE
  8
_0-0_
  6
CONTINUOUS
 62
    5
 10
1260.3350691341075
 20
370.83003575407315
 11
1305.3350691341075
 21
325.83003575407315
  0
LINE
  8
_0-0_
  6
CONTINUOUS
 62
    5
 10
1260.3350691341075
 20
358.10211369271315
 11
1295.7581475281422
 21
322.67903529867294
  0
LINE
  8
_0-0_
  6
CONTINUOUS
 62
    5
 10
1260.3350691341075
 20
345.37419163135314
 11
1283.0302254667822
 21
322.67903529867294
  0
LINE
  8
_0-0_
  6
CONTINUOUS
 62
    5
 10
1260.3350691341075
 20
332.64626956999314
 11
1270.3023034054222
 21
322.67903529866931
  0
LINE
  8
_0-0_
  6
CONTINUOUS
 62
    5
 10
1305.3350691341075
 20
502.67903529867294
 11
1260.3350691341075
 21
502.67903529867294
  0
LINE
  8
_0-0_
  6
CONTINUOUS
 62
    7
 10
1246.8350691341075
 20
216.92903529867294
 11
1246.8350691341075
 21
522.67903529867294
  0
LINE
  8
_0-0_
  6
CONTINUOUS
 62
    4
 10
1260.3350691341075
 20
522.67903529867294
 11
1260.3350691341075
 21
237.17903529867294
  0
LINE
  8
_0-0_
  6
CONTINUOUS
 62
    7
 10
1206.8350691341075
 20
417.54859951009098
 11
1246.8350691341075
 21
457.54859951009098
  0
LINE
  8
_0-0_
  6
CONTINUOUS
 62
    7
 10
1206.8350691341075
 20
401.63869693339188
 11
1246.8350691341075
 21
441.63869693339188
  0
LINE
  8
_0-0_
  6
CONTINUOUS
 62
    7
 10
1206.8350691341075
 20
385.72879435669461
 11
1246.8350691341075
 21
425.72879435669461
  0
LINE
  8
_0-0_
  6
CONTINUOUS
 62
    7
 10
1475.3323873770023
 20
176.92903529867294
 11
1515.3323873770041
 21
216.92903529867476
  0
LINE
  8
_0-0_
  6
CONTINUOUS
 62
    7
 10
1491.2422899537014
 20
176.92903529867294
 11
1531.2422899537014
 21
216.92903529867294
  0
LINE
  8
_0-0_
  6
CONTINUOUS
 62
    7
 10
1507.1521925304005
 20
176.92903529867294
 11
1547.1521925304005
 21
216.92903529867294
  0
LINE
  8
_0-0_
  6
CONTINUOUS
 62
    7
 10
1305.3350691341075
 20
457.81913110818027
 11
1440.4751649436184
 21
322.67903529866931
  0
LINE
  8
_0-0_
  6
CONTINUOUS
 62
    7
 10
1305.3350691341038
 20
473.72903368488119
 11
1456.3850675203175
 21
322.67903529866749
  0
LINE
  8
_0-0_
  6
CONTINUOUS
 62
    7
 10
1305.3350691341075
 20
489.63893626157483
 11
1472.294970097013
 21
322.67903529866931
  0
LINE
  8
_0-0_
  6
CONTINUOUS
 62
    7
 10
1246.8350691341075
 20
216.92903529867294
 11
1611.3159724366924
 21
216.92903529867294
  0
LINE
  8
_0-0_
  6
CONTINUOUS
 62
    6
 10
1564.8960720484847
 20
318.17903529866931
 11
1611.3159724366924
 21
271.75913491045981
  0
LINE
  8
_0-0_
  6
CONTINUOUS
 62
    6
 10
1580.357785030852
 20
239.42903529867294
 11
1611.3159724366924
 21
270.38722270451331
  0
LINE
  8
_0-0_
  6
CONTINUOUS
 62
    6
 10
1260.3350691341075
 20
239.42903529867294
 11
1611.3159724366924
 21
239.42903529867294
  0
LINE
  8
_0-0_
  6
CONTINUOUS
 62
    6
 10
1533.0762668950938
 20
318.17903529867294
 11
1611.3159724366924
 21
239.93932975707435
  0
LINE
  8
_0-0_
  6
CONTINUOUS
 62
    4
 10
1260.3350691341075
 20
237.17903529867294
 11
1611.3159724366924
 21
237.17903529867294
  0
LINE
  8
_0-0_
  6
CONTINUOUS
 62
    6
 10
1548.5379798774538
 20
239.42903529867294
 11
1611.3159724366924
 21
302.20702785790786
  0
LINE
  8
_0-0_
  6
CONTINUOUS
 62
    6
 10
1596.7158772018756
 20
318.17903529867294
 11
1611.3159724366924
 21
303.57894006385618
  0
LINE
  8
_0-0_
  6
CONTINUOUS
 62
    6
 10
1260.3350691341075
 20
318.17903529867294
 11
1611.3159724366924
 21
318.17903529867294
  0
LINE
  8
_0-0_
  6
CONTINUOUS
 62
    5
 10
1260.3350691341075
 20
320.42903529866931
 11
1611.3159724366924
 21
320.42903529866931
  0
LINE
  8
_0-0_
  6
CONTINUOUS
 62
    7
 10
1260.3350691341075
 20
322.67903529866931
 11
1611.3159724366924
 21
322.67903529866931
  0
LINE
  8
_0-0_
  6
CONTINUOUS
 62
    7
 10
1585.8182911824151
 20
216.92903529867294
 11
1628.6164011256878
 21
291.05753618833955
  0
POINT
  8
_0-0_
 62
    7
 10
1585.8182911824151
 20
216.92903529867294
  0
TEXT
  8
_0-0_
 62
    7
 10
1273.7073842356349
 20
537.64593076072856
 40
21.617968000000001
 41
1
 50
0
  1
ﾄｯﾌﾟｺｰﾄ(露出部のみ)
  0
LINE
  8
_0-0_
  6
CONTINUOUS
 62
    7
 10
1522.6591577696836
 20
238.40231019822681
 11
1591.8612798780669
 21
358.26390168153307
  0
POINT
  8
_0-0_
 62
    7
 10
1522.6591577696836
 20
238.40231019822681
  0
TEXT
  8
_0-0_
 62
    7
 10
1523.3344835135595
 20
510.61071815245418
 40
21.617968000000001
 41
1
 50
0
  1
保護ｺﾝｸﾘｰﾄ
  0
LINE
  8
_0-0_
  6
CONTINUOUS
 62
    7
 10
1490.5530079632881
 20
320.42903529866931
 11
1536.3463597668633
 21
399.74544727133912
  0
POINT
  8
_0-0_
 62
    7
 10
1490.5530079632881
 20
320.42903529866931
  0
TEXT
  8
_0-0_
 62
    7
 10
1371.4239858366309
 20
508.84431701667495
 40
21.617968000000001
 41
1
 50
0
  1
成型緩衝材
  0
LINE
  8
_0-0_
  6
CONTINUOUS
 62
    7
 10
1469.4592488723229
 20
433.77226874610028
 11
1519.4518338320486
 21
520.36196589804899
  0
POINT
  8
_0-0_
 62
    7
 10
1469.4592488723229
 20
433.77226874610028
  0
TEXT
  8
_0-0_
 62
    7
 10
1538.785621590685
 20
390.69449168436336
 40
21.617968000000001
 41
1
 50
0
  1
絶縁ﾌｨﾙﾑ
  0
TEXT
  8
_0-0_
 62
    7
 10
1595.9738941305495
 20
351.54233544647582
 40
21.617968000000001
 41
1
 50
0
  1
ｳﾚﾀﾝ防水
  0
LINE
  8
_0-0_
  6
CONTINUOUS
 62
    7
 10
1370.3373303608514
 20
518.50795635131658
 11
1297.2680657819928
 21
391.94827762903992
  0
POINT
  8
_0-0_
 62
    7
 10
1297.2680657819928
 20
391.94827762903992
  0
LINE
  8
_0-0_
  6
CONTINUOUS
 62
    7
 10
1260.3350691341075
 20
513.79932098974427
 11
1274.0636093086177
 21
537.57785008574615
  0
TEXT
  8
_0-0_
 62
    7
 10
1631.2350115448517
 20
282.80462737974199
 40
21.617968000000001
 41
1
 50
0
  1
ﾌﾟﾗｲﾏｰ
  0
POINT
  8
_0-0_
 62
    7
 10
1260.3350691341075
 20
513.79932098974427
  0
LINE
  8
_0-0_
  6
CONTINUOUS
 62
    7
 10
672.13606690525205
 20
1633.3565543671114
 11
1706.8525777203686
 21
1633.3565543671114
  0
LINE
  8
_0-0_
  6
CONTINUOUS
 62
    7
 10
672.13606690525205
 20
1553.3565543671114
 11
1706.8525777203686
 21
1553.3565543671114
  0
LINE
  8
_0-0_
  6
CONTINUOUS
 62
    7
 10
672.13606690525205
 20
1473.3565543671114
 11
1706.8525777203686
 21
1473.3565543671114
  0
LINE
  8
_0-0_
  6
CONTINUOUS
 62
    7
 10
1189.4943223128103
 20
1633.3565543671114
 11
1189.4943223128103
 21
1473.3565543671114
  0
TEXT
  8
_0-0_
 62
    7
 10
696.13606690525205
 20
1497.3565543671114
 40
20
 41
1
 50
0
  1
施工部位：ハト小屋
  0
TEXT
  8
_0-0_
 62
    7
 10
1213.4943223128103
 20
1577.3565543671114
 40
20
 41
1
 50
0
  1
構造：ＲＣ造
  0
TEXT
  8
_0-0_
 62
    7
 10
1213.4943223128103
 20
1497.3565543671114
 40
20
 41
1
 50
0
  1
下地：コンクリートスラブ
  0
TEXT
  8
_0-0_
 62
    7
 10
696.13606690525205
 20
1577.3565543671114
 40
20
 41
1
 50
0
  1
図面番号：UPM-10CF-hato-01
  0
ENDSEC
  0
EOF
