  0
SECTION
  2
HEADER
  9
$ACADVER
  1
AC1009
  9
$INSBASE
 10
0
 20
0
 30
0
  9
$EXTMIN
 10
0
 20
0
  9
$EXTMAX
 10
2378
 20
1682
  9
$LIMMIN
 10
0
 20
0
  9
$LIMMAX
 10
2378
 20
1682
  9
$LTSCALE
 40
1
  0
ENDSEC
  0
SECTION
  2
TABLES
  0
TABLE
  2
LTYPE
 70
     9
  0
LTYPE
  2
CONTINUOUS
 70
    64
  3
実線
 72
    65
 73
     0
 40
0.0
  0
LTYPE
  2
DASHED1
 70
    64
  3
--  --  --  --  --  --  --  --  
 72
    65
 73
     2
 40
2.5
 49
1.25
 49
-1.25
  0
LTYPE
  2
DASHED2
 70
    64
  3
----    ----    ----    ----    
 72
    65
 73
     2
 40
5.0
 49
2.5
 49
-2.5
  0
LTYPE
  2
DASHED3
 70
    64
  3
------  ------  ------  ------  
 72
    65
 73
     2
 40
5.0
 49
3.75
 49
-1.25
  0
LTYPE
  2
CENTER1
 70
    64
  3
----- - ----- - ----- - ----- - 
 72
    65
 73
     4
 40
10.0
 49
6.25
 49
-1.25
 49
1.25
 49
-1.25
  0
LTYPE
  2
CENTER2
 70
    64
  3
----------  --  ----------  --  
 72
    65
 73
     4
 40
20.0
 49
12.5
 49
-2.5
 49
2.5
 49
-2.5
  0
LTYPE
  2
PHANTOM1
 70
    64
  3
--- - - --- - - --- - - --- - - 
 72
    65
 73
     6
 40
10.0
 49
3.25
 49
-1.25
 49
1.25
 49
-1.25
 49
1.25
 49
-1.25
  0
LTYPE
  2
PHANTOM2
 70
    64
  3
--------  -  -  --------  -  -  
 72
    65
 73
     6
 40
20.0
 49
10.0
 49
-2.5
 49
1.25
 49
-2.5
 49
1.25
 49
-2.5
  0
LTYPE
  2
DOT
 70
    64
  3
-   -   -   -   -   -   -   -   
 72
    65
 73
     2
 40
2.5
 49
0.625
 49
-1.875
  0
LTYPE
  2
DUMMY
 70
    64
  3
ダミー
 72
    65
 73
     0
 40
0.0
  0
LTYPE
  2
RAND1
 70
    64
  3
ランダム線1
 72
    65
 73
     4
 40
10.0
 49
1.0
 49
-2.0
 49
3.0
 49
-4.0
  0
LTYPE
  2
RAND2
 70
    64
  3
ランダム線2
 72
    65
 73
     4
 40
14.0
 49
2.0
 49
-3.0
 49
4.0
 49
-5.0
  0
LTYPE
  2
RAND3
 70
    64
  3
ランダム線3
 72
    65
 73
     4
 40
18.0
 49
3.0
 49
-4.0
 49
5.0
 49
-6.0
  0
LTYPE
  2
RAND4
 70
    64
  3
ランダム線4
 72
    65
 73
     4
 40
22.0
 49
4.0
 49
-5.0
 49
6.0
 49
-7.0
  0
LTYPE
  2
RAND5
 70
    64
  3
ランダム線5
 72
    65
 73
     4
 40
26.0
 49
5.0
 49
-6.0
 49
7.0
 49
-8.0
  0
LTYPE
  2
LONG1
 70
    64
  3
----------  --  ----------  --  
 72
    65
 73
     4
 40
40.0
 49
32.5
 49
-2.5
 49
2.5
 49
-2.5
  0
LTYPE
  2
LONG2
 70
    64
  3
--------  -  -  --------  -  -  
 72
    65
 73
     6
 40
40.0
 49
30.0
 49
-2.5
 49
1.25
 49
-2.5
 49
1.25
 49
-2.5
  0
LTYPE
  2
LONG3
 70
    64
  3
+++++++++++++++..+++++++++++++++
 72
    65
 73
     2
 40
40.0
 49
37.5
 49
-2.5
  0
LTYPE
  2
LONG4
 70
    64
  3
+++++++++++++++..+++++++++++++++
 72
    65
 73
     2
 40
80.0
 49
75.0
 49
-5.0
  0
LTYPE
  2
LONG5
 70
    64
  3
----------  --  ----------  --  
 72
    65
 73
     4
 40
60.0
 49
37.5
 49
-7.5
 49
7.5
 49
-7.5
  0
LTYPE
  2
dashed
 70
   64
  3
-------   -------------   ------
 72
   65
 73
    2
 40
7.5
 49
6
 49
-1.5
  0
LTYPE
  2
dashed_spaced
 70
   64
  3
----        --------        ----
 72
   65
 73
    2
 40
12
 49
6
 49
-6
  0
LTYPE
  2
long_dashed_dotted
 70
   64
  3
------------- --- --------------
 72
   65
 73
    4
 40
15.25
 49
12
 49
-1.5
 49
0.25
 49
-1.5
  0
LTYPE
  2
long_dashed_double-dotted
 70
   64
  3
----------- --- --- ------------
 72
   65
 73
    6
 40
17
 49
12
 49
-1.5
 49
0.25
 49
-1.5
 49
0.25
 49
-1.5
  0
LTYPE
  2
long_dashed_triplicate-dotted
 70
   64
  3
--------- --- --- --- ----------
 72
   65
 73
    8
 40
18.75
 49
12
 49
-1.5
 49
0.25
 49
-1.5
 49
0.25
 49
-1.5
 49
0.25
 49
-1.5
  0
LTYPE
  2
dotted
 70
   64
  3
   -       -       -       -    
 72
   65
 73
    2
 40
1.75
 49
0.25
 49
-1.5
  0
LTYPE
  2
chain
 70
   64
  3
-------------- -- --------------
 72
   65
 73
    4
 40
18.5
 49
12
 49
-1.5
 49
3.5
 49
-1.5
  0
LTYPE
  2
chain_double_dash
 70
   64
  3
------------ -- -- -------------
 72
   65
 73
    6
 40
23.5
 49
12
 49
-1.5
 49
3.5
 49
-1.5
 49
3.5
 49
-1.5
  0
LTYPE
  2
dashed_dotted
 70
   64
  3
-----------     -     ----------
 72
   65
 73
    4
 40
9.25
 49
6
 49
-1.5
 49
0.25
 49
-1.5
  0
LTYPE
  2
double-dashed_dotted
 70
   64
  3
------   -----------   -   -----
 72
   65
 73
    6
 40
16.75
 49
6
 49
-1.5
 49
6
 49
-1.5
 49
0.25
 49
-1.5
  0
LTYPE
  2
dashed_double-dotted
 70
   64
  3
---------    -    -    ---------
 72
   65
 73
    6
 40
11
 49
6
 49
-1.5
 49
0.25
 49
-1.5
 49
0.25
 49
-1.5
  0
LTYPE
  2
double-dashed_double-dotted
 70
   64
  3
-----   ---------   -   -   ----
 72
   65
 73
    8
 40
18.5
 49
6
 49
-1.5
 49
6
 49
-1.5
 49
0.25
 49
-1.5
 49
0.25
 49
-1.5
  0
LTYPE
  2
dashed_triplicate-dotted
 70
   64
  3
-------    -    -    -    ------
 72
   65
 73
    8
 40
12.75
 49
6
 49
-1.5
 49
0.25
 49
-1.5
 49
0.25
 49
-1.5
 49
0.25
 49
-1.5
  0
LTYPE
  2
double-dashed_triplicate-dotted
 70
   64
  3
-----  ---------  -  -  -  -----
 72
   65
 73
   10
 40
20.25
 49
6
 49
-1.5
 49
6
 49
-1.5
 49
0.25
 49
-1.5
 49
0.25
 49
-1.5
 49
0.25
 49
-1.5
  0
LTYPE
  2
undefined
 70
   64
  3
--------------------------------
 72
   65
 73
    0
 40
0
  0
ENDTAB
  0
TABLE
  2
STYLE
  5
3
100
AcDbSymbolTable
 70
     1
  0
STYLE
  5
10
100
AcDbSymbolTableRecord
100
AcDbTextStyleTableRecord
  2
STANDARD
 70
     0
 40
0.0
 41
1.0
 50
0.0
 71
     0
 42
0.2
  3
txt
  4
bigfont.shx
  0
STYLE
  5
26
100
AcDbSymbolTableRecord
100
AcDbTextStyleTableRecord
  2
TATEGAKI
 70
    68
 40
0.0
 41
1.0
 50
0.0
 71
     0
 42
1.0
  3
txt
  4
bigfont.shx
  0
ENDTAB
  0
TABLE
  2
LAYER
 70
    2
  0
LAYER
  2
_0-0_
 70
   64
 62
    7
  6
CONTINUOUS
  0
LAYER
  2
ADD_LINE
 70
   64
 62
    7
  6
CONTINUOUS
  0
ENDTAB
  0
ENDSEC
  0
SECTION
  2
BLOCKS
  0
ENDSEC
  0
SECTION
  2
ENTITIES
  0
ARC
  8
_0-0_
  6
CONTINUOUS
 62
    7
 10
1072.9518364040614
 20
1207.3279057056291
 40
10
 50
0
 51
180
  0
TEXT
  8
_0-0_
 62
    7
 10
1429.6891920142089
 20
576.02721287347799
 40
40
 41
1
 50
0
  1
Ｂ
  0
TEXT
  8
_0-0_
 62
    7
 10
906.73245032900388
 20
575.67973412101333
 40
40
 41
1
 50
0
  1
Ａ
  0
LINE
  8
_0-0_
  6
CONTINUOUS
 62
    7
 10
873.92549915611301
 20
1020.2671375299299
 11
1023.925499156113
 21
1170.2671375299299
  0
LINE
  8
_0-0_
  6
CONTINUOUS
 62
    7
 10
873.92549915611301
 20
1013.1960697180668
 11
1023.9254991561139
 21
1163.1960697180668
  0
LINE
  8
_0-0_
  6
CONTINUOUS
 62
    7
 10
873.92549915611391
 20
1006.125001906202
 11
1023.925499156113
 21
1156.1250019062002
  0
LINE
  8
_0-0_
  6
CONTINUOUS
 62
    7
 10
1706.8525777203677
 20
1633.3565543671132
 11
1706.8525777203677
 21
167.53106997205509
  0
LINE
  8
_0-0_
  6
CONTINUOUS
 62
    7
 10
672.13606690525205
 20
1633.3565543671132
 11
672.13606690525205
 21
167.53106997205509
  0
LINE
  8
_0-0_
  6
CONTINUOUS
 62
    7
 10
1189.4943223128103
 20
627.531069972056
 11
1189.4943223128103
 21
167.53106997205509
  0
LINE
  8
_0-0_
  6
CONTINUOUS
 62
    7
 10
672.13606690525205
 20
627.531069972056
 11
1706.8525777203677
 21
627.531069972056
  0
LINE
  8
_0-0_
  6
CONTINUOUS
 62
    7
 10
672.13606690525205
 20
167.53106997205509
 11
1706.8525777203677
 21
167.53106997205509
  0
LINE
  8
_0-0_
  6
CONTINUOUS
 62
    7
 10
672.13606690525205
 20
567.531069972056
 11
1706.8525777203677
 21
567.531069972056
  0
LINE
  8
_0-0_
  6
DASHED1
 62
    7
 10
916.74017122517137
 20
1227.3279057056291
 11
916.74017122517137
 21
1187.3279057056291
  0
LINE
  8
_0-0_
  6
DASHED1
 62
    7
 10
916.74017122517137
 20
1227.3279057056291
 11
916.74017122517137
 21
1187.3279057056291
  0
ARC
  8
_0-0_
  6
CONTINUOUS
 62
    7
 10
1072.9518364040614
 20
1207.3279057056291
 40
20
 50
1.8794552231624875
 51
90
  0
LINE
  8
_0-0_
  6
CONTINUOUS
 62
    7
 10
1082.9518364040614
 20
1207.3279057056291
 11
1082.9518364040614
 21
1147.3279057056291
  0
LINE
  8
_0-0_
  6
CONTINUOUS
 62
    7
 10
1062.9518364040614
 20
1207.3279057056291
 11
1062.9518364040614
 21
1147.3279057056291
  0
ARC
  8
_0-0_
  6
DASHED1
 62
    7
 10
1072.9518364040614
 20
1207.3279057056291
 40
10
 50
180
 51
1.879455223162438
  0
ARC
  8
_0-0_
  6
CONTINUOUS
 62
    7
 10
1072.9518364040614
 20
1147.3279057056291
 40
10
 50
180
 51
0
  0
CIRCLE
  8
_0-0_
  6
DASHED1
 62
    7
 10
937.06813921920286
 20
1207.6558736996606
 40
9.6720320059689584
  0
ARC
  8
_0-0_
  6
CONTINUOUS
 62
    7
 10
1072.9518364040614
 20
1207.3279057056291
 40
20
 50
299.99999999999989
 51
1.8794552231624542
  0
ARC
  8
_0-0_
  6
DASHED1
 62
    7
 10
1072.9518364040614
 20
1207.6558736996606
 40
20.284691458917379
 50
270
 51
299.53680866691025
  0
LINE
  8
_0-0_
  6
DASHED1
 62
    7
 10
1062.9518364040614
 20
1187.3279057056291
 11
1072.9518364040614
 21
1187.3279057056291
  0
LINE
  8
_0-0_
  6
DASHED1
 62
    7
 10
1023.925499156113
 20
1227.3279057056291
 11
916.74017122517137
 21
1227.3279057056291
  0
LINE
  8
_0-0_
  6
DASHED1
 62
    7
 10
1023.925499156113
 20
1187.3279057056291
 11
916.74017122517137
 21
1187.3279057056291
  0
LINE
  8
_0-0_
  6
CONTINUOUS
 62
    7
 10
1072.9518364040614
 20
1227.3279057056291
 11
1023.925499156113
 21
1227.3279057056291
  0
LINE
  8
_0-0_
  6
CONTINUOUS
 62
    7
 10
1062.9518364040614
 20
1187.3279057056291
 11
1023.925499156113
 21
1187.3279057056291
  0
CIRCLE
  8
_0-0_
  6
DASHED2
 62
    1
 10
951.16433613602487
 20
1269.5458920707836
 40
94.513505632925799
  0
TEXT
  8
_0-0_
 62
    7
 10
941.25844822473857
 20
1351.485066576611
 40
24
 41
1
 50
0
  1
Ａ
  0
ARC
  8
_0-0_
  6
CONTINUOUS
 62
    7
 10
1124.6036622740139
 20
350.25343932904912
 40
18
 50
0
 51
180
  0
LINE
  8
_0-0_
  6
CONTINUOUS
 62
    4
 10
1022.3382189126279
 20
470.31675150108754
 11
1047.1562552277055
 21
444.61692256806896
  0
LINE
  8
_0-0_
  6
CONTINUOUS
 62
    7
 10
1017.6004792253126
 20
459.67561393819165
 11
1036.3562552277053
 21
440.25343932904912
  0
LINE
  8
_0-0_
  6
CONTINUOUS
 62
    7
 10
766.35625522770727
 20
395.38171845353395
 11
836.9583141204813
 21
465.9837773463089
  0
LINE
  8
_0-0_
  6
CONTINUOUS
 62
    7
 10
766.35625522770545
 20
408.10964051488668
 11
824.65986342110421
 21
466.41324870828726
  0
LINE
  8
_0-0_
  6
CONTINUOUS
 62
    7
 10
766.35625522770545
 20
420.83756257624668
 11
812.3614127217262
 21
466.84272007026561
  0
LINE
  8
_0-0_
  6
DASHED1
 62
    7
 10
843.42266495201159
 20
386.25343932904912
 11
843.42266495201159
 21
314.25343932904912
  0
LINE
  8
_0-0_
  6
DASHED1
 62
    7
 10
843.42266495201159
 20
386.25343932904912
 11
843.42266495201159
 21
314.25343932904912
  0
ARC
  8
_0-0_
  6
CONTINUOUS
 62
    7
 10
1124.6036622740139
 20
350.25343932904912
 40
36
 50
1.8794552231624875
 51
90
  0
LINE
  8
_0-0_
  6
CONTINUOUS
 62
    7
 10
1142.6036622740139
 20
350.25343932904912
 11
1142.6036622740139
 21
242.25343932904912
  0
LINE
  8
_0-0_
  6
CONTINUOUS
 62
    7
 10
1106.6036622740139
 20
350.25343932904912
 11
1106.6036622740139
 21
242.25343932904912
  0
ARC
  8
_0-0_
  6
DASHED1
 62
    7
 10
1124.6036622740139
 20
350.25343932904912
 40
18
 50
180
 51
1.879455223162438
  0
ARC
  8
_0-0_
  6
CONTINUOUS
 62
    7
 10
1124.6036622740139
 20
242.25343932904912
 40
18
 50
180
 51
0
  0
CIRCLE
  8
_0-0_
  6
DASHED1
 62
    7
 10
880.01300734126755
 20
350.84378171830508
 40
17.409657610744127
  0
ARC
  8
_0-0_
  6
CONTINUOUS
 62
    7
 10
1124.6036622740139
 20
350.25343932904912
 40
36
 50
299.99999999999989
 51
1.8794552231624542
  0
ARC
  8
_0-0_
  6
DASHED1
 62
    7
 10
1124.6036622740139
 20
350.84378171830508
 40
36.512444626051284
 50
270
 51
299.53680866691025
  0
LINE
  8
_0-0_
  6
DASHED1
 62
    7
 10
1106.6036622740139
 20
314.25343932904912
 11
1124.6036622740139
 21
314.25343932904912
  0
LINE
  8
_0-0_
  6
DASHED1
 62
    7
 10
1036.3562552277053
 20
386.25343932904912
 11
843.42266495201159
 21
386.25343932904912
  0
LINE
  8
_0-0_
  6
DASHED1
 62
    7
 10
1036.3562552277053
 20
314.25343932904912
 11
843.42266495201159
 21
314.25343932904912
  0
LINE
  8
_0-0_
  6
CONTINUOUS
 62
    7
 10
1124.6036622740139
 20
386.25343932904912
 11
1036.3562552277053
 21
386.25343932904912
  0
LINE
  8
_0-0_
  6
CONTINUOUS
 62
    7
 10
1106.6036622740139
 20
314.25343932904912
 11
1036.3562552277053
 21
314.25343932904912
  0
LINE
  8
_0-0_
  6
CONTINUOUS
 62
    7
 10
970.71660084648477
 20
217.90440223157316
 11
1036.3562552277053
 21
283.54405661279202
  0
LINE
  8
_0-0_
  6
CONTINUOUS
 62
    7
 10
983.44452290784204
 20
217.90440223157316
 11
1036.3562552277072
 21
270.81613455143929
  0
LINE
  8
_0-0_
  6
CONTINUOUS
 62
    7
 10
996.17244496919841
 20
217.90440223157316
 11
1036.3562552277053
 21
258.08821249007929
  0
LINE
  8
_0-0_
  6
CONTINUOUS
 62
    7
 10
1621.489252543468
 20
241.62627534772878
 11
1301.9741752804548
 21
241.62627534772878
  0
LINE
  8
_0-0_
  6
CONTINUOUS
 62
    7
 10
1301.9741752804548
 20
241.62627534773242
 11
1301.9741752804548
 21
473.67497149714586
  0
LINE
  8
_0-0_
  6
CONTINUOUS
 62
    7
 10
1360.4741752804548
 20
309.64378819331364
 11
1403.7416881260397
 21
266.37627534773242
  0
LINE
  8
_0-0_
  6
CONTINUOUS
 62
    5
 10
1360.4741752804548
 20
446.37627534773242
 11
1360.4741752804548
 21
266.37627534773242
  0
LINE
  8
_0-0_
  6
CONTINUOUS
 62
    5
 10
1315.4741752804548
 20
446.37627534773242
 11
1360.4741752804548
 21
446.37627534773242
  0
LINE
  8
_0-0_
  6
CONTINUOUS
 62
    5
 10
1315.4741752804548
 20
278.52239024744017
 11
1327.6202901801644
 21
266.37627534773242
  0
LINE
  8
_0-0_
  6
CONTINUOUS
 62
    5
 10
1315.4741752804566
 20
291.25031230879654
 11
1340.3482122415207
 21
266.37627534773242
  0
LINE
  8
_0-0_
  6
CONTINUOUS
 62
    5
 10
1315.4741752804548
 20
303.9782343701529
 11
1353.0761343028762
 21
266.37627534773242
  0
LINE
  8
_0-0_
  6
CONTINUOUS
 62
    5
 10
1315.4741752804548
 20
316.70615643151291
 11
1360.4741752804548
 21
271.70615643151291
  0
LINE
  8
_0-0_
  6
CONTINUOUS
 62
    5
 10
1315.4741752804548
 20
329.43407849287291
 11
1360.4741752804548
 21
284.43407849287291
  0
LINE
  8
_0-0_
  6
CONTINUOUS
 62
    5
 10
1315.4741752804548
 20
342.16200055422928
 11
1360.4741752804548
 21
297.16200055422928
  0
LINE
  8
_0-0_
  6
CONTINUOUS
 62
    5
 10
1315.4741752804566
 20
354.88992261558928
 11
1360.4741752804548
 21
309.88992261558928
  0
LINE
  8
_0-0_
  6
CONTINUOUS
 62
    5
 10
1315.4741752804548
 20
367.61784467694565
 11
1360.4741752804548
 21
322.61784467694565
  0
LINE
  8
_0-0_
  6
CONTINUOUS
 62
    5
 10
1315.4741752804548
 20
380.34576673830202
 11
1360.4741752804566
 21
335.34576673829838
  0
LINE
  8
_0-0_
  6
CONTINUOUS
 62
    5
 10
1315.4741752804566
 20
393.07368879965475
 11
1360.4741752804548
 21
348.07368879965838
  0
LINE
  8
_0-0_
  6
CONTINUOUS
 62
    5
 10
1315.4741752804548
 20
405.80161086101839
 11
1360.4741752804566
 21
360.80161086101475
  0
LINE
  8
_0-0_
  6
CONTINUOUS
 62
    5
 10
1315.4741752804548
 20
418.52953292237839
 11
1360.4741752804548
 21
373.52953292237839
  0
LINE
  8
_0-0_
  6
CONTINUOUS
 62
    5
 10
1315.4741752804566
 20
431.25745498373476
 11
1360.4741752804566
 21
386.25745498373476
  0
LINE
  8
_0-0_
  6
CONTINUOUS
 62
    5
 10
1315.4741752804548
 20
443.98537704509476
 11
1360.4741752804548
 21
398.98537704509476
  0
LINE
  8
_0-0_
  6
CONTINUOUS
 62
    5
 10
1325.8111990391717
 20
446.37627534773242
 11
1360.4741752804566
 21
411.71329910644749
  0
LINE
  8
_0-0_
  6
CONTINUOUS
 62
    5
 10
1338.5391211005317
 20
446.37627534773242
 11
1360.4741752804548
 21
424.4412211678075
  0
LINE
  8
_0-0_
  6
CONTINUOUS
 62
    5
 10
1351.2670431618899
 20
446.37627534773242
 11
1360.4741752804548
 21
437.16914322916386
  0
LINE
  8
_0-0_
  6
CONTINUOUS
 62
    7
 10
1360.4741752804548
 20
341.46359334670819
 11
1435.5614932794351
 21
266.37627534773242
  0
LINE
  8
_0-0_
  6
CONTINUOUS
 62
    7
 10
1360.4741752804548
 20
325.5536907700091
 11
1419.6515907027378
 21
266.37627534773242
  0
LINE
  8
_0-0_
  6
CONTINUOUS
 62
    4
 10
1315.4741752804548
 20
473.67497149714586
 11
1315.4741752804548
 21
261.87627534773242
  0
LINE
  8
_0-0_
  6
CONTINUOUS
 62
    7
 10
1621.489252543468
 20
446.37627534773242
 11
1315.4741752804548
 21
446.37627534773242
  0
LINE
  8
_0-0_
  6
CONTINUOUS
 62
    7
 10
1315.4741752804548
 20
266.37627534773242
 11
1621.489252543468
 21
266.37627534773242
  0
LINE
  8
_0-0_
  6
CONTINUOUS
 62
    5
 10
1315.4741752804548
 20
264.12627534773242
 11
1621.489252543468
 21
264.12627534773242
  0
LINE
  8
_0-0_
  6
CONTINUOUS
 62
    4
 10
1315.4741752804548
 20
261.87627534773242
 11
1621.489252543468
 21
261.87627534773242
  0
LINE
  8
_0-0_
  6
CONTINUOUS
 62
    7
 10
1487.2225564319615
 20
181.62627534773242
 11
1547.2225564319597
 21
241.62627534772878
  0
LINE
  8
_0-0_
  6
CONTINUOUS
 62
    7
 10
1503.1324590086551
 20
181.62627534773242
 11
1563.1324590086533
 21
241.62627534772878
  0
LINE
  8
_0-0_
  6
CONTINUOUS
 62
    7
 10
1519.0423615853524
 20
181.62627534773242
 11
1579.0423615853506
 21
241.62627534772878
  0
LINE
  8
_0-0_
  6
CONTINUOUS
 62
    7
 10
1241.9741752804548
 20
413.6749714971495
 11
1301.9741752804548
 21
473.67497149714586
  0
LINE
  8
_0-0_
  6
CONTINUOUS
 62
    7
 10
1241.9741752804548
 20
429.58487407384496
 11
1286.0642727037575
 21
473.67497149714586
  0
LINE
  8
_0-0_
  6
CONTINUOUS
 62
    7
 10
1241.9741752804548
 20
445.49477665054042
 11
1270.154370127063
 21
473.67497149714586
  0
LINE
  8
_0-0_
  6
CONTINUOUS
 62
    7
 10
1343.2096962815649
 20
421.81043122569577
 11
1371.6445831708079
 21
471.06110002533865
  0
TEXT
  8
_0-0_
 62
    7
 10
1373.0976312376088
 20
463.45857375986202
 40
21.617968000000001
 41
1
 50
0
  1
成型緩衝材
  0
LINE
  8
_0-0_
  6
CONTINUOUS
 62
    7
 10
1579.0423615853506
 20
241.62627534772878
 11
1622.5352613773903
 21
316.95818755604091
  0
POINT
  8
_0-0_
 62
    7
 10
1579.0423615853506
 20
241.62627534772878
  0
TEXT
  8
_0-0_
 62
    7
 10
1627.8990671291003
 20
305.30937539192496
 40
21.617968000000001
 41
1
 50
0
  1
ﾌﾟﾗｲﾏｰ
  0
TEXT
  8
_0-0_
 62
    7
 10
1594.5935752377736
 20
366.16795083075817
 40
21.617968000000001
 41
1
 50
0
  1
ｳﾚﾀﾝ防水
  0
LINE
  8
_0-0_
  6
CONTINUOUS
 62
    7
 10
1522.5947651605056
 20
254.01595821039632
 11
1591.6380849323523
 21
373.60249597846018
  0
POINT
  8
_0-0_
 62
    7
 10
1522.5947651605056
 20
254.01595821039632
  0
LINE
  8
_0-0_
  6
CONTINUOUS
 62
    7
 10
1483.3749331890103
 20
264.12627534773242
 11
1596.8438296218756
 21
460.66016904822504
  0
POINT
  8
_0-0_
 62
    7
 10
1483.3749331890103
 20
264.12627534773242
  0
TEXT
  8
_0-0_
 62
    7
 10
1599.0942357893127
 20
454.04327460738682
 40
21.617968000000001
 41
1
 50
0
  1
絶縁ﾌｨﾙﾑ
  0
POINT
  8
_0-0_
 62
    7
 10
1343.2096962815649
 20
421.81043122569577
  0
POINT
  8
_0-0_
 62
    7
 10
1482.1917092360418
 20
421.81043122569577
  0
LINE
  8
_0-0_
  6
CONTINUOUS
 62
    7
 10
1482.1917092360418
 20
421.81043122569577
 11
1524.0910718818923
 21
494.38225613306463
  0
TEXT
  8
_0-0_
 62
    7
 10
1525.2610611240889
 20
487.64683487168918
 40
21.617968000000001
 41
1
 50
0
  1
保護ｺﾝｸﾘｰﾄ
  0
POINT
  8
_0-0_
 62
    7
 10
1325.8111990391717
 20
446.37627534773242
  0
LINE
  8
_0-0_
  6
CONTINUOUS
 62
    7
 10
1315.4741752804548
 20
464.28052569687611
 11
1351.7825577206131
 21
527.16848882387262
  0
POINT
  8
_0-0_
 62
    7
 10
1315.4741752804548
 20
464.28052569687611
  0
TEXT
  8
_0-0_
 62
    7
 10
1354.656484049251
 20
521.84135900375736
 40
21.617968000000001
 41
1
 50
0
  1
ﾄｯﾌﾟｺｰﾄ(露出部のみ)
  0
LINE
  8
_0-0_
  6
CONTINUOUS
 62
    4
 10
1029.9254991561129
 20
991.99224806201642
 11
1523.9254991561129
 21
991.99224806201642
  0
LINE
  8
_0-0_
  6
CONTINUOUS
 62
    5
 10
1029.9254991561129
 20
992.99224806201642
 11
1523.9254991561129
 21
992.99224806201642
  0
LINE
  8
_0-0_
  6
CONTINUOUS
 62
    7
 10
1029.9254991561129
 20
993.99224806201642
 11
1523.9254991561129
 21
993.99224806201642
  0
LINE
  8
_0-0_
  6
CONTINUOUS
 62
    7
 10
1185.9170117350413
 20
1073.9922480620164
 11
1029.9254991561129
 21
1073.9922480620164
  0
LINE
  8
_0-0_
  6
CONTINUOUS
 62
    7
 10
1243.7139460924182
 20
1073.9922480620164
 11
1323.7139460924182
 21
993.99224806201642
  0
LINE
  8
_0-0_
  6
CONTINUOUS
 62
    7
 10
1236.6428782805515
 20
1073.9922480620164
 11
1316.6428782805515
 21
993.99224806201642
  0
LINE
  8
_0-0_
  6
CONTINUOUS
 62
    7
 10
1229.5718104686866
 20
1073.9922480620164
 11
1309.5718104686866
 21
993.99224806201642
  0
LINE
  8
_0-0_
  6
CONTINUOUS
 62
    7
 10
1213.9170117350413
 20
1073.9922480620164
 11
1523.9254991561129
 21
1073.9922480620164
  0
LINE
  8
_0-0_
  6
CONTINUOUS
 62
    7
 10
1484.130251695844
 20
1073.9922480620164
 11
1523.9254991561129
 21
1034.1970006017466
  0
LINE
  8
_0-0_
  6
CONTINUOUS
 62
    7
 10
1491.2013195077097
 20
1073.9922480620164
 11
1523.9254991561129
 21
1041.2680684136114
  0
LINE
  8
_0-0_
  6
CONTINUOUS
 62
    7
 10
1498.2723873195746
 20
1073.9922480620164
 11
1523.9254991561129
 21
1048.3391362254781
  0
LINE
  8
_0-0_
  6
CONTINUOUS
 62
    7
 10
1049.9254991561129
 20
1013.2222537711634
 11
1069.1555048652617
 21
993.99224806201642
  0
LINE
  8
_0-0_
  6
CONTINUOUS
 62
    7
 10
1049.9254991561129
 20
1006.1511859592986
 11
1062.084437053395
 21
993.99224806201642
  0
LINE
  8
_0-0_
  6
CONTINUOUS
 62
    7
 10
1049.9254991561129
 20
999.0801181474319
 11
1055.0133692415302
 21
993.99224806201642
  0
LINE
  8
_0-0_
  6
CONTINUOUS
 62
    5
 10
1209.9170117350413
 20
1070.4922480620164
 11
1209.9170117350413
 21
993.99224806201642
  0
LINE
  8
_0-0_
  6
CONTINUOUS
 62
    5
 10
1189.9170117350413
 20
1070.4922480620164
 11
1209.9170117350413
 21
1070.4922480620164
  0
LINE
  8
_0-0_
  6
CONTINUOUS
 62
    5
 10
1189.9170117350413
 20
993.99224806201642
 11
1189.9170117350413
 21
1070.4922480620164
  0
LINE
  8
_0-0_
  6
CONTINUOUS
 62
    5
 10
1188.9170117350413
 20
1071.9922480620164
 11
1210.9170117350413
 21
1071.9922480620164
  0
LINE
  8
_0-0_
  6
CONTINUOUS
 62
    5
 10
1188.9170117350413
 20
1070.9922480620164
 11
1188.9170117350413
 21
1071.9922480620164
  0
LINE
  8
_0-0_
  6
CONTINUOUS
 62
    5
 10
1190.9170117350413
 20
1070.9922480620164
 11
1188.9170117350413
 21
1070.9922480620164
  0
LINE
  8
_0-0_
  6
CONTINUOUS
 62
    5
 10
1190.9170117350413
 20
1070.4922480620164
 11
1190.9170117350413
 21
1070.9922480620164
  0
LINE
  8
_0-0_
  6
CONTINUOUS
 62
    5
 10
1188.9170117350413
 20
1070.4922480620164
 11
1190.9170117350413
 21
1070.4922480620164
  0
LINE
  8
_0-0_
  6
CONTINUOUS
 62
    5
 10
1188.9170117350413
 20
1058.9922480620164
 11
1188.9170117350413
 21
1070.4922480620164
  0
LINE
  8
_0-0_
  6
CONTINUOUS
 62
    5
 10
1189.4170117350413
 20
1058.9922480620164
 11
1188.9170117350413
 21
1058.9922480620164
  0
LINE
  8
_0-0_
  6
CONTINUOUS
 62
    5
 10
1188.9170117350413
 20
1057.9922480620164
 11
1189.4170117350413
 21
1058.9922480620164
  0
LINE
  8
_0-0_
  6
CONTINUOUS
 62
    5
 10
1188.9170117350413
 20
1044.9922480620164
 11
1188.9170117350413
 21
1057.9922480620164
  0
LINE
  8
_0-0_
  6
CONTINUOUS
 62
    5
 10
1189.4170117350413
 20
1044.9922480620164
 11
1188.9170117350413
 21
1044.9922480620164
  0
LINE
  8
_0-0_
  6
CONTINUOUS
 62
    5
 10
1188.9170117350413
 20
1043.9922480620164
 11
1189.4170117350413
 21
1044.9922480620164
  0
LINE
  8
_0-0_
  6
CONTINUOUS
 62
    5
 10
1187.9170117350413
 20
1043.9922480620164
 11
1188.9170117350413
 21
1043.9922480620164
  0
LINE
  8
_0-0_
  6
CONTINUOUS
 62
    5
 10
1187.9170117350413
 20
1070.4922480620164
 11
1187.9170117350413
 21
1043.9922480620164
  0
LINE
  8
_0-0_
  6
CONTINUOUS
 62
    5
 10
1187.4170117350413
 20
1070.4922480620164
 11
1187.9170117350413
 21
1070.4922480620164
  0
LINE
  8
_0-0_
  6
CONTINUOUS
 62
    5
 10
1187.4170117350413
 20
1072.4922480620164
 11
1187.4170117350413
 21
1070.4922480620164
  0
LINE
  8
_0-0_
  6
CONTINUOUS
 62
    5
 10
1212.4170117350413
 20
1072.4922480620164
 11
1187.4170117350413
 21
1072.4922480620164
  0
LINE
  8
_0-0_
  6
CONTINUOUS
 62
    5
 10
1212.4170117350413
 20
1070.4922480620164
 11
1212.4170117350413
 21
1072.4922480620164
  0
LINE
  8
_0-0_
  6
CONTINUOUS
 62
    5
 10
1211.9170117350413
 20
1070.4922480620164
 11
1212.4170117350413
 21
1070.4922480620164
  0
LINE
  8
_0-0_
  6
CONTINUOUS
 62
    5
 10
1211.9170117350413
 20
1043.9922480620164
 11
1211.9170117350413
 21
1070.4922480620164
  0
LINE
  8
_0-0_
  6
CONTINUOUS
 62
    5
 10
1210.9170117350413
 20
1043.9922480620164
 11
1211.9170117350413
 21
1043.9922480620164
  0
LINE
  8
_0-0_
  6
CONTINUOUS
 62
    5
 10
1210.4170117350413
 20
1044.9922480620164
 11
1210.9170117350413
 21
1043.9922480620164
  0
LINE
  8
_0-0_
  6
CONTINUOUS
 62
    5
 10
1210.9170117350413
 20
1044.9922480620164
 11
1210.4170117350413
 21
1044.9922480620164
  0
LINE
  8
_0-0_
  6
CONTINUOUS
 62
    5
 10
1210.9170117350413
 20
1057.9922480620164
 11
1210.9170117350413
 21
1044.9922480620164
  0
LINE
  8
_0-0_
  6
CONTINUOUS
 62
    5
 10
1210.4170117350413
 20
1058.9922480620164
 11
1210.9170117350413
 21
1057.9922480620164
  0
LINE
  8
_0-0_
  6
CONTINUOUS
 62
    5
 10
1210.9170117350413
 20
1058.9922480620164
 11
1210.4170117350413
 21
1058.9922480620164
  0
LINE
  8
_0-0_
  6
CONTINUOUS
 62
    5
 10
1210.9170117350413
 20
1070.4922480620164
 11
1210.9170117350413
 21
1058.9922480620164
  0
LINE
  8
_0-0_
  6
CONTINUOUS
 62
    5
 10
1208.9170117350413
 20
1070.4922480620164
 11
1210.9170117350413
 21
1070.4922480620164
  0
LINE
  8
_0-0_
  6
CONTINUOUS
 62
    5
 10
1208.9170117350413
 20
1070.9922480620164
 11
1208.9170117350413
 21
1070.4922480620164
  0
LINE
  8
_0-0_
  6
CONTINUOUS
 62
    5
 10
1210.9170117350413
 20
1070.9922480620164
 11
1208.9170117350413
 21
1070.9922480620164
  0
LINE
  8
_0-0_
  6
CONTINUOUS
 62
    5
 10
1210.9170117350413
 20
1071.9922480620164
 11
1210.9170117350413
 21
1070.9922480620164
  0
LINE
  8
_0-0_
  6
CONTINUOUS
 62
    5
 10
1199.9170117350413
 20
1073.4922480620164
 11
1212.4170117350413
 21
1073.4922480620164
  0
LINE
  8
_0-0_
  6
CONTINUOUS
 62
    5
 10
1187.4170117350413
 20
1073.4922480620164
 11
1199.9170117350413
 21
1073.4922480620164
  0
LINE
  8
_0-0_
  6
CONTINUOUS
 62
    5
 10
1186.9170117350413
 20
1073.9922480620164
 11
1187.4170117350413
 21
1073.4922480620164
  0
LINE
  8
_0-0_
  6
CONTINUOUS
 62
    5
 10
1185.9170117350413
 20
1073.9922480620164
 11
1186.9170117350413
 21
1073.9922480620164
  0
LINE
  8
_0-0_
  6
CONTINUOUS
 62
    5
 10
1185.9170117350413
 20
1070.9922480620164
 11
1185.9170117350413
 21
1073.9922480620164
  0
LINE
  8
_0-0_
  6
CONTINUOUS
 62
    5
 10
1186.4170117350413
 20
1070.9922480620164
 11
1185.9170117350413
 21
1070.9922480620164
  0
LINE
  8
_0-0_
  6
CONTINUOUS
 62
    5
 10
1186.4170117350413
 20
1055.9922480620164
 11
1186.4170117350413
 21
1070.9922480620164
  0
LINE
  8
_0-0_
  6
CONTINUOUS
 62
    5
 10
1185.9170117350341
 20
1055.9922480620164
 11
1186.4170117350413
 21
1055.9922480620164
  0
LINE
  8
_0-0_
  6
CONTINUOUS
 62
    5
 10
1185.9170117350413
 20
1053.9922480620164
 11
1185.9170117350341
 21
1055.9922480620164
  0
LINE
  8
_0-0_
  6
CONTINUOUS
 62
    5
 10
1187.4170117350413
 20
1053.9922480620164
 11
1185.9170117350413
 21
1053.9922480620164
  0
LINE
  8
_0-0_
  6
CONTINUOUS
 62
    5
 10
1187.4170117350413
 20
1072.4922480620164
 11
1187.4170117350413
 21
1053.9922480620164
  0
LINE
  8
_0-0_
  6
CONTINUOUS
 62
    5
 10
1212.4170117350413
 20
1072.4922480620164
 11
1187.4170117350413
 21
1072.4922480620164
  0
LINE
  8
_0-0_
  6
CONTINUOUS
 62
    5
 10
1212.4170117350413
 20
1053.9922480620164
 11
1212.4170117350413
 21
1072.4922480620164
  0
LINE
  8
_0-0_
  6
CONTINUOUS
 62
    5
 10
1213.9170117350413
 20
1053.9922480620164
 11
1212.4170117350413
 21
1053.9922480620164
  0
LINE
  8
_0-0_
  6
CONTINUOUS
 62
    5
 10
1213.9170117350468
 20
1055.9922480620164
 11
1213.9170117350413
 21
1053.9922480620164
  0
LINE
  8
_0-0_
  6
CONTINUOUS
 62
    5
 10
1213.4170117350413
 20
1055.9922480620164
 11
1213.9170117350468
 21
1055.9922480620164
  0
LINE
  8
_0-0_
  6
CONTINUOUS
 62
    5
 10
1213.4170117350413
 20
1070.9922480620164
 11
1213.4170117350413
 21
1055.9922480620164
  0
LINE
  8
_0-0_
  6
CONTINUOUS
 62
    5
 10
1213.9170117350413
 20
1070.9922480620164
 11
1213.4170117350413
 21
1070.9922480620164
  0
LINE
  8
_0-0_
  6
CONTINUOUS
 62
    5
 10
1213.9170117350413
 20
1073.9922480620164
 11
1213.9170117350413
 21
1070.9922480620164
  0
LINE
  8
_0-0_
  6
CONTINUOUS
 62
    5
 10
1212.9170117350413
 20
1073.9922480620164
 11
1213.9170117350413
 21
1073.9922480620164
  0
LINE
  8
_0-0_
  6
CONTINUOUS
 62
    5
 10
1212.4170117350413
 20
1073.4922480620164
 11
1212.9170117350413
 21
1073.9922480620164
  0
LINE
  8
_0-0_
  6
CONTINUOUS
 62
    5
 10
1193.1310968336484
 20
993.99224806201642
 11
1193.1310968336484
 21
1070.4922480620164
  0
LINE
  8
_0-0_
  6
CONTINUOUS
 62
    5
 10
1196.8810968336484
 20
993.99224806201642
 11
1196.8810968336484
 21
1070.4922480620164
  0
LINE
  8
_0-0_
  6
CONTINUOUS
 62
    5
 10
1200.6310968336484
 20
993.99224806201642
 11
1200.6310968336484
 21
1070.4922480620164
  0
LINE
  8
_0-0_
  6
CONTINUOUS
 62
    5
 10
1204.3810968336484
 20
993.99224806201642
 11
1204.3810968336484
 21
1070.4922480620164
  0
LINE
  8
_0-0_
  6
CONTINUOUS
 62
    5
 10
1208.1310968336484
 20
993.99224806201642
 11
1208.1310968336484
 21
1070.4922480620164
  0
LINE
  8
_0-0_
  6
CONTINUOUS
 62
    5
 10
1049.9254991561129
 20
1073.9922480620164
 11
1049.9254991561129
 21
993.99224806201642
  0
LINE
  8
_0-0_
  6
CONTINUOUS
 62
    5
 10
1029.9254991561129
 20
1073.9922480620164
 11
1049.9254991561129
 21
1073.9922480620164
  0
LINE
  8
_0-0_
  6
CONTINUOUS
 62
    5
 10
1029.9254991561129
 20
999.39052135077623
 11
1035.3237724448727
 21
993.99224806201642
  0
LINE
  8
_0-0_
  6
CONTINUOUS
 62
    5
 10
1029.9254991561138
 20
1005.0473756002659
 11
1040.9806266943642
 21
993.99224806201642
  0
LINE
  8
_0-0_
  6
CONTINUOUS
 62
    5
 10
1029.9254991561129
 20
1010.7042298497593
 11
1046.6374809438557
 21
993.99224806201642
  0
LINE
  8
_0-0_
  6
CONTINUOUS
 62
    5
 10
1029.9254991561129
 20
1016.3610840992526
 11
1049.9254991561129
 21
996.36108409925259
  0
LINE
  8
_0-0_
  6
CONTINUOUS
 62
    5
 10
1029.9254991561129
 20
1022.0179383487459
 11
1049.9254991561129
 21
1002.0179383487459
  0
LINE
  8
_0-0_
  6
CONTINUOUS
 62
    5
 10
1029.9254991561129
 20
1027.6747925982356
 11
1049.9254991561129
 21
1007.6747925982374
  0
LINE
  8
_0-0_
  6
CONTINUOUS
 62
    5
 10
1029.9254991561138
 20
1033.331646847729
 11
1049.9254991561129
 21
1013.331646847729
  0
LINE
  8
_0-0_
  6
CONTINUOUS
 62
    5
 10
1029.9254991561129
 20
1038.9885010972223
 11
1049.9254991561129
 21
1018.9885010972223
  0
LINE
  8
_0-0_
  6
CONTINUOUS
 62
    5
 10
1029.9254991561129
 20
1044.645355346712
 11
1049.9254991561138
 21
1024.645355346712
  0
LINE
  8
_0-0_
  6
CONTINUOUS
 62
    5
 10
1029.9254991561138
 20
1050.3022095962053
 11
1049.9254991561129
 21
1030.3022095962053
  0
LINE
  8
_0-0_
  6
CONTINUOUS
 62
    5
 10
1029.9254991561129
 20
1055.9590638456987
 11
1049.9254991561138
 21
1035.9590638456987
  0
LINE
  8
_0-0_
  6
CONTINUOUS
 62
    5
 10
1029.9254991561129
 20
1061.615918095192
 11
1049.9254991561129
 21
1041.615918095192
  0
LINE
  8
_0-0_
  6
CONTINUOUS
 62
    5
 10
1029.9254991561138
 20
1067.2727723446853
 11
1049.9254991561138
 21
1047.2727723446853
  0
LINE
  8
_0-0_
  6
CONTINUOUS
 62
    5
 10
1029.9254991561129
 20
1072.9296265941769
 11
1049.9254991561129
 21
1052.9296265941769
  0
LINE
  8
_0-0_
  6
CONTINUOUS
 62
    5
 10
1034.5197319377648
 20
1073.9922480620164
 11
1049.9254991561138
 21
1058.5864808436684
  0
LINE
  8
_0-0_
  6
CONTINUOUS
 62
    5
 10
1040.1765861872582
 20
1073.9922480620164
 11
1049.9254991561129
 21
1064.2433350931617
  0
LINE
  8
_0-0_
  6
CONTINUOUS
 62
    5
 10
1045.8334404367506
 20
1073.9922480620164
 11
1049.9254991561129
 21
1069.9001893426514
  0
LINE
  8
_0-0_
  6
CONTINUOUS
 62
    7
 10
1023.925499156113
 20
982.99224806201642
 11
1523.9254991561129
 21
982.99224806201642
  0
LINE
  8
_0-0_
  6
CONTINUOUS
 62
    7
 10
1013.505623599228
 20
1268.1180027107087
 11
1023.925499156113
 21
1257.3279057056291
  0
LINE
  8
_0-0_
  6
CONTINUOUS
 62
    4
 10
1016.1377012032927
 20
1274.0297458012039
 11
1029.9254991561129
 21
1259.7520630606389
  0
POINT
  8
_0-0_
 62
    7
 10
1337.1185834863545
 20
987.32039321624802
  0
LINE
  8
_0-0_
  6
CONTINUOUS
 62
    7
 10
1337.1185834863545
 20
987.32039321624802
 11
1430.4565639073271
 21
1148.9865175812422
  0
LINE
  8
_0-0_
  6
CONTINUOUS
 62
    7
 10
1197.1600913417669
 20
1062.789939753505
 11
1279.2117055487361
 21
1204.9075044030171
  0
POINT
  8
_0-0_
 62
    7
 10
1197.1600913417669
 20
1062.789939753505
  0
POINT
  8
_0-0_
 62
    7
 10
1038.6767518981214
 20
1066.8700245262964
  0
TEXT
  8
_0-0_
 62
    7
 10
1284.5422982082764
 20
1190.1606141690966
 40
30
 41
1
 50
0
  1
伸縮目地
  0
TEXT
  8
_0-0_
 62
    7
 10
1434.9264839000725
 20
1136.8791128179157
 40
30
 41
1
 50
0
  1
防水層
  0
CIRCLE
  8
_0-0_
  6
DASHED2
 62
    1
 10
1029.9254991561138
 20
1033.331646847729
 40
80
  0
TEXT
  8
_0-0_
 62
    7
 10
988.80137739395116
 20
1095.061746710476
 40
24
 41
1
 50
0
  1
Ｂ
  0
LINE
  8
_0-0_
  6
CONTINUOUS
 62
    7
 10
873.92549915611301
 20
793.99296755023738
 11
1062.9247796678928
 21
982.99224806201642
  0
LINE
  8
_0-0_
  6
CONTINUOUS
 62
    7
 10
873.92549915611301
 20
786.92189973837071
 11
1069.9958474797577
 21
982.99224806201642
  0
LINE
  8
_0-0_
  6
CONTINUOUS
 62
    7
 10
873.92549915611391
 20
779.85083192650768
 11
1077.0669152916234
 21
982.99224806201642
  0
LINE
  8
_0-0_
  6
CONTINUOUS
 62
    7
 10
1079.1989496475881
 20
772.99224806201732
 11
1289.1989496475881
 21
982.99224806201642
  0
LINE
  8
_0-0_
  6
CONTINUOUS
 62
    7
 10
1086.2700174594529
 20
772.99224806201732
 11
1296.2700174594538
 21
982.99224806201642
  0
LINE
  8
_0-0_
  6
CONTINUOUS
 62
    7
 10
1093.3410852713168
 20
772.99224806201369
 11
1303.3410852713178
 21
982.99224806201642
  0
LINE
  8
_0-0_
  6
CONTINUOUS
 62
    7
 10
1223.9254991561129
 20
802.99224806201732
 11
1523.9254991561129
 21
802.99224806201732
  0
LINE
  8
_0-0_
  6
CONTINUOUS
 62
    7
 10
1223.9254991561129
 20
802.99224806201732
 11
1223.9254991561129
 21
772.99224806201732
  0
LINE
  8
_0-0_
  6
CONTINUOUS
 62
    7
 10
1335.4731196272833
 20
802.99224806201732
 11
1515.4731196272833
 21
982.99224806201642
  0
LINE
  8
_0-0_
  6
CONTINUOUS
 62
    7
 10
1342.5441874391481
 20
802.99224806201732
 11
1522.5441874391481
 21
982.99224806201642
  0
LINE
  8
_0-0_
  6
CONTINUOUS
 62
    7
 10
1349.615255251013
 20
802.99224806201732
 11
1523.9254991561138
 21
977.30249196711634
  0
LINE
  8
_0-0_
  6
CONTINUOUS
 62
    7
 10
1023.925499156113
 20
1187.3279057056291
 11
1013.925499156113
 21
1187.3279057056291
  0
LINE
  8
_0-0_
  6
CONTINUOUS
 62
    7
 10
1013.925499156113
 20
1187.3279057056291
 11
1013.925499156113
 21
1177.3279057056291
  0
LINE
  8
_0-0_
  6
CONTINUOUS
 62
    7
 10
1013.925499156113
 20
1177.3279057056291
 11
1023.925499156113
 21
1177.3279057056291
  0
LINE
  8
_0-0_
  6
CONTINUOUS
 62
    7
 10
1023.925499156113
 20
1227.3279057056291
 11
1013.925499156113
 21
1227.3279057056291
  0
LINE
  8
_0-0_
  6
CONTINUOUS
 62
    7
 10
1013.925499156113
 20
1227.3279057056291
 11
1013.925499156113
 21
1237.3279057056291
  0
LINE
  8
_0-0_
  6
CONTINUOUS
 62
    7
 10
1013.925499156113
 20
1237.3279057056291
 11
1023.925499156113
 21
1237.3279057056291
  0
LINE
  8
_0-0_
  6
CONTINUOUS
 62
    2
 10
1023.9254991561129
 20
1187.3279057056291
 11
1023.9254991561129
 21
1187.3279057056291
  0
LINE
  8
_0-0_
  6
CONTINUOUS
 62
    2
 10
1023.9254991561129
 20
1187.3279057056291
 11
1023.6229474302655
 21
1184.2442698070813
  0
LINE
  8
_0-0_
  6
CONTINUOUS
 62
    2
 10
1023.6229474302655
 20
1184.2442698070813
 11
1023.5927260221493
 21
1181.1024061550381
  0
LINE
  8
_0-0_
  6
CONTINUOUS
 62
    2
 10
1023.5927260221493
 20
1181.1024061550381
 11
1023.8357531939573
 21
1177.9977786867069
  0
LINE
  8
_0-0_
  6
CONTINUOUS
 62
    2
 10
1023.8357531939573
 20
1177.9977786867069
 11
1023.9254991561129
 21
1177.3279057056291
  0
LINE
  8
_0-0_
  6
CONTINUOUS
 62
    2
 10
1023.9254991561129
 20
1237.3279057056291
 11
1023.9254991561129
 21
1237.3279057056291
  0
LINE
  8
_0-0_
  6
CONTINUOUS
 62
    2
 10
1023.9254991561129
 20
1237.3279057056291
 11
1023.6229474302655
 21
1234.2442698070813
  0
LINE
  8
_0-0_
  6
CONTINUOUS
 62
    2
 10
1023.6229474302655
 20
1234.2442698070813
 11
1023.5927260221493
 21
1231.1024061550381
  0
LINE
  8
_0-0_
  6
CONTINUOUS
 62
    2
 10
1023.5927260221493
 20
1231.1024061550381
 11
1023.8357531939573
 21
1227.9977786867069
  0
LINE
  8
_0-0_
  6
CONTINUOUS
 62
    2
 10
1023.8357531939573
 20
1227.9977786867069
 11
1023.9254991561129
 21
1227.3279057056291
  0
LINE
  8
_0-0_
  6
CONTINUOUS
 62
    2
 10
1023.2035117548158
 20
1227.3279057056291
 11
1023.8399114355335
 21
1227.9643053863467
  0
LINE
  8
_0-0_
  6
CONTINUOUS
 62
    2
 10
1020.3750846300701
 20
1227.3279057056291
 11
1023.6149408841176
 21
1230.5677619596756
  0
LINE
  8
_0-0_
  6
CONTINUOUS
 62
    2
 10
1017.5466575053234
 20
1227.3279057056291
 11
1023.5868934154743
 21
1233.3681416157799
  0
LINE
  8
_0-0_
  6
CONTINUOUS
 62
    2
 10
1013.925499156113
 20
1229.3636016059102
 11
1021.8898032558319
 21
1237.3279057056291
  0
LINE
  8
_0-0_
  6
CONTINUOUS
 62
    2
 10
1013.925499156113
 20
1232.1920287306568
 11
1019.0613761310852
 21
1237.3279057056291
  0
LINE
  8
_0-0_
  6
CONTINUOUS
 62
    2
 10
1013.925499156113
 20
1235.0204558554035
 11
1016.2329490063386
 21
1237.3279057056291
  0
LINE
  8
_0-0_
  6
CONTINUOUS
 62
    2
 10
1021.286772875501
 20
1177.3279057056291
 11
1023.667520245912
 21
1179.70865307604
  0
LINE
  8
_0-0_
  6
CONTINUOUS
 62
    2
 10
1018.4583457507543
 20
1177.3279057056291
 11
1023.5720543088729
 21
1182.4416142637476
  0
LINE
  8
_0-0_
  6
CONTINUOUS
 62
    2
 10
1015.6299186260095
 20
1177.3279057056291
 11
1023.7038788331457
 21
1185.4018659127653
  0
LINE
  8
_0-0_
  6
CONTINUOUS
 62
    2
 10
1013.925499156113
 20
1178.4519133604792
 11
1022.8014915012628
 21
1187.3279057056291
  0
LINE
  8
_0-0_
  6
CONTINUOUS
 62
    2
 10
1013.925499156113
 20
1181.2803404852259
 11
1019.9730643765162
 21
1187.3279057056291
  0
LINE
  8
_0-0_
  6
CONTINUOUS
 62
    2
 10
1013.925499156113
 20
1184.1087676099726
 11
1017.1446372517695
 21
1187.3279057056291
  0
LINE
  8
_0-0_
  6
CONTINUOUS
 62
    2
 10
1013.925499156113
 20
1186.9371947347174
 11
1014.3162101270246
 21
1187.3279057056291
  0
LINE
  8
_0-0_
  6
CONTINUOUS
 62
    2
 10
1023.2035117548158
 20
1227.3279057056291
 11
1023.8399114355335
 21
1227.9643053863467
  0
LINE
  8
_0-0_
  6
CONTINUOUS
 62
    2
 10
1020.3750846300701
 20
1227.3279057056291
 11
1023.6149408841176
 21
1230.5677619596756
  0
LINE
  8
_0-0_
  6
CONTINUOUS
 62
    2
 10
1017.5466575053234
 20
1227.3279057056291
 11
1023.5868934154743
 21
1233.3681416157799
  0
LINE
  8
_0-0_
  6
CONTINUOUS
 62
    2
 10
1014.7182303805768
 20
1227.3279057056291
 11
1023.8067432478703
 21
1236.4164185729226
  0
LINE
  8
_0-0_
  6
CONTINUOUS
 62
    2
 10
1013.925499156113
 20
1229.3636016059102
 11
1021.8898032558319
 21
1237.3279057056291
  0
LINE
  8
_0-0_
  6
CONTINUOUS
 62
    2
 10
1013.925499156113
 20
1232.1920287306568
 11
1019.0613761310852
 21
1237.3279057056291
  0
LINE
  8
_0-0_
  6
CONTINUOUS
 62
    2
 10
1013.925499156113
 20
1235.0204558554035
 11
1016.2329490063386
 21
1237.3279057056291
  0
LINE
  8
_0-0_
  6
CONTINUOUS
 62
    7
 10
1036.3562552277053
 20
314.25343932904912
 11
1018.3562552277054
 21
314.25343932904912
  0
LINE
  8
_0-0_
  6
CONTINUOUS
 62
    7
 10
1018.3562552277054
 20
314.25343932904912
 11
1018.3562552277054
 21
296.25343932904912
  0
LINE
  8
_0-0_
  6
CONTINUOUS
 62
    7
 10
1018.3562552277054
 20
296.25343932904912
 11
1036.3562552277053
 21
296.25343932904912
  0
LINE
  8
_0-0_
  6
CONTINUOUS
 62
    7
 10
1036.3562552277053
 20
386.25343932904912
 11
1018.3562552277054
 21
386.25343932904912
  0
LINE
  8
_0-0_
  6
CONTINUOUS
 62
    7
 10
1018.3562552277054
 20
386.25343932904912
 11
1018.3562552277054
 21
404.25343932904912
  0
LINE
  8
_0-0_
  6
CONTINUOUS
 62
    2
 10
1036.3562552277051
 20
314.25343932904912
 11
1036.3562552277051
 21
314.25343932904912
  0
LINE
  8
_0-0_
  6
CONTINUOUS
 62
    2
 10
1036.3562552277051
 20
314.25343932904912
 11
1035.8116621211798
 21
308.7028947116633
  0
LINE
  8
_0-0_
  6
CONTINUOUS
 62
    2
 10
1035.8116621211798
 20
308.7028947116633
 11
1035.7572635865708
 21
303.04754013798538
  0
LINE
  8
_0-0_
  6
CONTINUOUS
 62
    2
 10
1035.7572635865708
 20
303.04754013798538
 11
1036.1947124958251
 21
297.45921069498911
  0
LINE
  8
_0-0_
  6
CONTINUOUS
 62
    2
 10
1036.1947124958251
 20
297.45921069498911
 11
1036.3562552277051
 21
296.25343932904912
  0
LINE
  8
_0-0_
  6
CONTINUOUS
 62
    2
 10
1036.3562552277051
 20
404.25343932904912
 11
1036.3562552277051
 21
404.25343932904912
  0
LINE
  8
_0-0_
  6
CONTINUOUS
 62
    2
 10
1036.3562552277051
 20
404.25343932904912
 11
1035.8116621211798
 21
398.7028947116633
  0
LINE
  8
_0-0_
  6
CONTINUOUS
 62
    2
 10
1035.8116621211798
 20
398.7028947116633
 11
1035.7572635865708
 21
393.04754013798538
  0
LINE
  8
_0-0_
  6
CONTINUOUS
 62
    2
 10
1035.7572635865708
 20
393.04754013798538
 11
1036.1947124958251
 21
387.45921069498911
  0
LINE
  8
_0-0_
  6
CONTINUOUS
 62
    2
 10
1036.1947124958251
 20
387.45921069498911
 11
1036.3562552277051
 21
386.25343932904912
  0
LINE
  8
_0-0_
  6
CONTINUOUS
 62
    2
 10
1035.0566779053706
 20
386.25343932904912
 11
1036.2021973306619
 21
387.39895875434127
  0
LINE
  8
_0-0_
  6
CONTINUOUS
 62
    2
 10
1029.9655090808283
 20
386.25343932904912
 11
1035.7972503381134
 21
392.0851805863324
  0
LINE
  8
_0-0_
  6
CONTINUOUS
 62
    2
 10
1024.8743402562841
 20
386.25343932904912
 11
1035.7467648945558
 21
397.12586396732081
  0
LINE
  8
_0-0_
  6
CONTINUOUS
 62
    2
 10
1019.78317143174
 20
386.25343932904912
 11
1036.1424945928684
 21
402.6127624901776
  0
LINE
  8
_0-0_
  6
CONTINUOUS
 62
    2
 10
1018.3562552277054
 20
389.917691949556
 11
1032.6920026071994
 21
404.25343932904912
  0
LINE
  8
_0-0_
  6
CONTINUOUS
 62
    2
 10
1018.3562552277054
 20
395.00886077409928
 11
1027.6008337826552
 21
404.25343932904912
  0
LINE
  8
_0-0_
  6
CONTINUOUS
 62
    2
 10
1018.3562552277054
 20
400.10002959864255
 11
1022.5096649581111
 21
404.25343932904912
  0
LINE
  8
_0-0_
  6
CONTINUOUS
 62
    2
 10
1031.6065479226036
 20
296.25343932904912
 11
1035.8918931893431
 21
300.53878459578777
  0
LINE
  8
_0-0_
  6
CONTINUOUS
 62
    2
 10
1026.5153790980594
 20
296.25343932904912
 11
1035.7200545026735
 21
305.45811473366234
  0
LINE
  8
_0-0_
  6
CONTINUOUS
 62
    2
 10
1021.424210273519
 20
296.25343932904912
 11
1035.9573386463644
 21
310.78656770189377
  0
LINE
  8
_0-0_
  6
CONTINUOUS
 62
    2
 10
1018.3562552277054
 20
298.27665310777888
 11
1034.3330414489747
 21
314.25343932904912
  0
LINE
  8
_0-0_
  6
CONTINUOUS
 62
    2
 10
1018.3562552277054
 20
303.36782193232398
 11
1029.2418726244314
 21
314.25343932904912
  0
LINE
  8
_0-0_
  6
CONTINUOUS
 62
    2
 10
1018.3562552277054
 20
308.45899075686725
 11
1024.1507037998872
 21
314.25343932904912
  0
LINE
  8
_0-0_
  6
CONTINUOUS
 62
    2
 10
1018.3562552277054
 20
313.55015958140871
 11
1019.0595349753468
 21
314.25343932904912
  0
LINE
  8
_0-0_
  6
CONTINUOUS
 62
    2
 10
1035.0566779053706
 20
386.25343932904912
 11
1036.2021973306619
 21
387.39895875434127
  0
LINE
  8
_0-0_
  6
CONTINUOUS
 62
    2
 10
1029.9655090808283
 20
386.25343932904912
 11
1035.7972503381134
 21
392.0851805863324
  0
LINE
  8
_0-0_
  6
CONTINUOUS
 62
    2
 10
1024.8743402562841
 20
386.25343932904912
 11
1035.7467648945558
 21
397.12586396732081
  0
LINE
  8
_0-0_
  6
CONTINUOUS
 62
    2
 10
1019.78317143174
 20
386.25343932904912
 11
1036.1424945928684
 21
402.6127624901776
  0
LINE
  8
_0-0_
  6
CONTINUOUS
 62
    2
 10
1018.3562552277054
 20
389.917691949556
 11
1032.6920026071994
 21
404.25343932904912
  0
LINE
  8
_0-0_
  6
CONTINUOUS
 62
    2
 10
1018.3562552277054
 20
395.00886077409928
 11
1027.6008337826552
 21
404.25343932904912
  0
LINE
  8
_0-0_
  6
CONTINUOUS
 62
    2
 10
1018.3562552277054
 20
400.10002959864255
 11
1022.5096649581111
 21
404.25343932904912
  0
LINE
  8
_0-0_
  6
CONTINUOUS
 62
    7
 10
1023.925499156113
 20
982.99224806201642
 11
1023.925499156113
 21
1177.3279057056291
  0
LINE
  8
_0-0_
  6
CONTINUOUS
 62
    7
 10
1023.925499156113
 20
1237.3279057056291
 11
1023.925499156113
 21
1257.3279057056291
  0
LINE
  8
_0-0_
  6
CONTINUOUS
 62
    7
 10
1036.3562552277053
 20
217.90440223157316
 11
1036.3562552277053
 21
296.25343932904912
  0
LINE
  8
_0-0_
  6
CONTINUOUS
 62
    7
 10
1036.3562552277053
 20
404.25343932905093
 11
1036.3562552277053
 21
440.25343932904912
  0
LINE
  8
_0-0_
  6
CONTINUOUS
 62
    7
 10
873.92549915611391
 20
1232.399171885899
 11
913.14886520765515
 21
1271.6225379374403
  0
LINE
  8
_0-0_
  6
CONTINUOUS
 62
    7
 10
873.92549915611301
 20
1239.470239697763
 11
906.3163925968903
 21
1271.8611331385403
  0
LINE
  8
_0-0_
  6
CONTINUOUS
 62
    7
 10
873.92549915611301
 20
1246.5413075096278
 11
899.48391998612453
 21
1272.0997283396393
  0
LINE
  8
_0-0_
  6
CONTINUOUS
 62
    4
 10
873.92549915611301
 20
1273.8182537588566
 11
873.92549915611301
 21
1272.9922480620164
  0
LINE
  8
_0-0_
  6
CONTINUOUS
 62
    7
 10
873.92549915611301
 20
1272.9922480620146
 11
873.92549915611301
 21
772.99224806201732
  0
LINE
  8
_0-0_
  6
CONTINUOUS
 62
    7
 10
873.92549915611301
 20
1272.9922480620146
 11
1013.505623599228
 21
1268.1180027107087
  0
ARC
  8
_0-0_
  6
CONTINUOUS
 62
    4
 10
878.92549915611301
 20
1273.8182537588566
 40
5
 50
87.99999999999568
 51
180.00000000000006
  0
LINE
  8
_0-0_
  6
CONTINUOUS
 62
    4
 10
879.09999663962583
 20
1278.8152078939504
 11
1016.1377012032918
 21
1274.0297458012039
  0
LINE
  8
_0-0_
  6
CONTINUOUS
 62
    7
 10
766.35625522770545
 20
468.44925557054489
 11
766.35625522770545
 21
217.90440223157316
  0
LINE
  8
_0-0_
  6
CONTINUOUS
 62
    7
 10
766.35625522770545
 20
468.44925557054489
 11
1017.6004792253126
 21
459.67561393819165
  0
LINE
  8
_0-0_
  6
CONTINUOUS
 62
    4
 10
766.35625522770545
 20
468.90053551106507
 11
766.35625522770545
 21
468.44925557054489
  0
LINE
  8
_0-0_
  6
CONTINUOUS
 62
    4
 10
776.70525019473018
 20
478.89444378125631
 11
1022.3382189126279
 21
470.31675150108754
  0
ARC
  8
_0-0_
  6
CONTINUOUS
 62
    4
 10
776.35625522770545
 20
468.90053551106507
 40
10
 50
88.000000000000838
 51
180.00000000000006
  0
LINE
  8
_0-0_
  6
CONTINUOUS
 62
    7
 10
1059.8339981631202
 20
480.6028981465837
 11
1026.9783672265107
 21
449.96452663361873
  0
POINT
  8
_0-0_
 62
    7
 10
1026.9783672265107
 20
449.96452663361873
  0
TEXT
  8
_0-0_
 62
    7
 10
1034.2953431291014
 20
483.0090764493674
 40
21.617968000000001
 41
1
 50
0
  1
面取り
  0
TEXT
  8
_0-0_
 62
    7
 10
696.13606690525205
 20
1577.3565543671132
 40
20
 41
1
 50
0
  1
図面番号：UPM-10C-para-03
  0
LINE
  8
_0-0_
  6
CONTINUOUS
 62
    7
 10
672.13606690525205
 20
1553.3565543671132
 11
1706.8525777203677
 21
1553.3565543671132
  0
LINE
  8
_0-0_
  6
CONTINUOUS
 62
    7
 10
672.13606690525205
 20
1633.3565543671132
 11
1706.8525777203677
 21
1633.3565543671132
  0
LINE
  8
_0-0_
  6
CONTINUOUS
 62
    7
 10
672.13606690525205
 20
1473.3565543671132
 11
1706.8525777203677
 21
1473.3565543671132
  0
LINE
  8
_0-0_
  6
CONTINUOUS
 62
    7
 10
1189.4943223128103
 20
1633.3565543671132
 11
1189.4943223128103
 21
1473.3565543671132
  0
TEXT
  8
_0-0_
 62
    7
 10
696.13606690525205
 20
1497.3565543671132
 40
20
 41
1
 50
0
  1
施工部位：パラペット(丸環)
  0
TEXT
  8
_0-0_
 62
    7
 10
1213.4943223128103
 20
1497.3565543671132
 40
20
 41
1
 50
0
  1
下地：コンクリートスラブ
  0
TEXT
  8
_0-0_
 62
    7
 10
1213.4943223128103
 20
1577.3565543671132
 40
20
 41
1
 50
0
  1
構造：ＲＣ造
  0
ARC
  8
_0-0_
  6
CONTINUOUS
 62
    4
 10
1037.9254991561131
 20
1227.3279057056293
 40
6
 50
0
 51
90
  0
LINE
  8
_0-0_
  6
CONTINUOUS
 62
    2
 10
1014.7182303805765
 20
1227.3279057056288
 11
1023.8067432478705
 21
1236.4164185729228
  0
LINE
  8
_0-0_
  6
CONTINUOUS
 62
    2
 10
1014.7182303805765
 20
1227.3279057056288
 11
1023.8067432478705
 21
1236.4164185729228
  0
ARC
  8
_0-0_
  6
CONTINUOUS
 62
    4
 10
1037.9254991561131
 20
1187.3279057056293
 40
6
 50
270
 51
0
  0
LINE
  8
_0-0_
  6
CONTINUOUS
 62
    4
 10
1029.9254991561131
 20
1233.3279057056293
 11
1037.9254991561131
 21
1233.3279057056293
  0
LINE
  8
_0-0_
  6
CONTINUOUS
 62
    4
 10
1037.9254991561131
 20
1181.3279057056293
 11
1029.9254991561131
 21
1181.3279057056293
  0
LINE
  8
_0-0_
  6
CONTINUOUS
 62
    4
 10
1029.9254991561129
 20
1259.7520630606389
 11
1029.9254991561129
 21
1233.3279057056293
  0
LINE
  8
_0-0_
  6
CONTINUOUS
 62
    4
 10
1029.9254991561129
 20
1181.3279057056293
 11
1029.9254991561129
 21
991.99224806201642
  0
ARC
  8
_0-0_
  6
CONTINUOUS
 62
    4
 10
1061.5562552277054
 20
386.25343932904912
 40
10.800000000000001
 50
0
 51
90
  0
LINE
  8
_0-0_
  6
CONTINUOUS
 62
    7
 10
1018.3562552277054
 20
404.25343932904912
 11
1036.3562552277053
 21
404.25343932904912
  0
ARC
  8
_0-0_
  6
CONTINUOUS
 62
    4
 10
1061.5562552277054
 20
314.25343932904912
 40
10.800000000000001
 50
270
 51
0
  0
LINE
  8
_0-0_
  6
CONTINUOUS
 62
    4
 10
1047.1562552277055
 20
397.05343932904913
 11
1061.5562552277054
 21
397.05343932904913
  0
LINE
  8
_0-0_
  6
CONTINUOUS
 62
    4
 10
1047.1562552277055
 20
303.45343932904916
 11
1061.5562552277054
 21
303.45343932904916
  0
LINE
  8
_0-0_
  6
CONTINUOUS
 62
    4
 10
1047.1562552277055
 20
397.05343932904913
 11
1047.1562552277055
 21
444.61692256806896
  0
LINE
  8
_0-0_
  6
CONTINUOUS
 62
    4
 10
1047.1562552277055
 20
303.45343932904916
 11
1047.1562552277055
 21
217.90440223157316
  0
LINE
  8
_0-0_
  6
CONTINUOUS
 62
    7
 10
1038.6767518981214
 20
1066.8700245262964
 11
1059.755281247544
 21
1103.3791083083272
  0
TEXT
  8
_0-0_
 62
    7
 10
1058.5582375903955
 20
1106.0576767075602
 40
30
 41
1
 50
0
  1
成型緩衝材
  0
ENDSEC
  0
EOF
