  0
SECTION
  2
HEADER
  9
$ACADVER
  1
AC1009
  9
$INSBASE
 10
0
 20
0
 30
0
  9
$EXTMIN
 10
0
 20
0
  9
$EXTMAX
 10
2378
 20
1682
  9
$LIMMIN
 10
0
 20
0
  9
$LIMMAX
 10
2378
 20
1682
  9
$LTSCALE
 40
1
  0
ENDSEC
  0
SECTION
  2
TABLES
  0
TABLE
  2
LTYPE
 70
     9
  0
LTYPE
  2
CONTINUOUS
 70
    64
  3
実線
 72
    65
 73
     0
 40
0.0
  0
LTYPE
  2
DASHED1
 70
    64
  3
--  --  --  --  --  --  --  --  
 72
    65
 73
     2
 40
2.5
 49
1.25
 49
-1.25
  0
LTYPE
  2
DASHED2
 70
    64
  3
----    ----    ----    ----    
 72
    65
 73
     2
 40
5.0
 49
2.5
 49
-2.5
  0
LTYPE
  2
DASHED3
 70
    64
  3
------  ------  ------  ------  
 72
    65
 73
     2
 40
5.0
 49
3.75
 49
-1.25
  0
LTYPE
  2
CENTER1
 70
    64
  3
----- - ----- - ----- - ----- - 
 72
    65
 73
     4
 40
10.0
 49
6.25
 49
-1.25
 49
1.25
 49
-1.25
  0
LTYPE
  2
CENTER2
 70
    64
  3
----------  --  ----------  --  
 72
    65
 73
     4
 40
20.0
 49
12.5
 49
-2.5
 49
2.5
 49
-2.5
  0
LTYPE
  2
PHANTOM1
 70
    64
  3
--- - - --- - - --- - - --- - - 
 72
    65
 73
     6
 40
10.0
 49
3.25
 49
-1.25
 49
1.25
 49
-1.25
 49
1.25
 49
-1.25
  0
LTYPE
  2
PHANTOM2
 70
    64
  3
--------  -  -  --------  -  -  
 72
    65
 73
     6
 40
20.0
 49
10.0
 49
-2.5
 49
1.25
 49
-2.5
 49
1.25
 49
-2.5
  0
LTYPE
  2
DOT
 70
    64
  3
-   -   -   -   -   -   -   -   
 72
    65
 73
     2
 40
2.5
 49
0.625
 49
-1.875
  0
LTYPE
  2
DUMMY
 70
    64
  3
ダミー
 72
    65
 73
     0
 40
0.0
  0
LTYPE
  2
RAND1
 70
    64
  3
ランダム線1
 72
    65
 73
     4
 40
10.0
 49
1.0
 49
-2.0
 49
3.0
 49
-4.0
  0
LTYPE
  2
RAND2
 70
    64
  3
ランダム線2
 72
    65
 73
     4
 40
14.0
 49
2.0
 49
-3.0
 49
4.0
 49
-5.0
  0
LTYPE
  2
RAND3
 70
    64
  3
ランダム線3
 72
    65
 73
     4
 40
18.0
 49
3.0
 49
-4.0
 49
5.0
 49
-6.0
  0
LTYPE
  2
RAND4
 70
    64
  3
ランダム線4
 72
    65
 73
     4
 40
22.0
 49
4.0
 49
-5.0
 49
6.0
 49
-7.0
  0
LTYPE
  2
RAND5
 70
    64
  3
ランダム線5
 72
    65
 73
     4
 40
26.0
 49
5.0
 49
-6.0
 49
7.0
 49
-8.0
  0
LTYPE
  2
LONG1
 70
    64
  3
----------  --  ----------  --  
 72
    65
 73
     4
 40
40.0
 49
32.5
 49
-2.5
 49
2.5
 49
-2.5
  0
LTYPE
  2
LONG2
 70
    64
  3
--------  -  -  --------  -  -  
 72
    65
 73
     6
 40
40.0
 49
30.0
 49
-2.5
 49
1.25
 49
-2.5
 49
1.25
 49
-2.5
  0
LTYPE
  2
LONG3
 70
    64
  3
+++++++++++++++..+++++++++++++++
 72
    65
 73
     2
 40
40.0
 49
37.5
 49
-2.5
  0
LTYPE
  2
LONG4
 70
    64
  3
+++++++++++++++..+++++++++++++++
 72
    65
 73
     2
 40
80.0
 49
75.0
 49
-5.0
  0
LTYPE
  2
LONG5
 70
    64
  3
----------  --  ----------  --  
 72
    65
 73
     4
 40
60.0
 49
37.5
 49
-7.5
 49
7.5
 49
-7.5
  0
LTYPE
  2
dashed
 70
   64
  3
-------   -------------   ------
 72
   65
 73
    2
 40
7.5
 49
6
 49
-1.5
  0
LTYPE
  2
dashed_spaced
 70
   64
  3
----        --------        ----
 72
   65
 73
    2
 40
12
 49
6
 49
-6
  0
LTYPE
  2
long_dashed_dotted
 70
   64
  3
------------- --- --------------
 72
   65
 73
    4
 40
15.25
 49
12
 49
-1.5
 49
0.25
 49
-1.5
  0
LTYPE
  2
long_dashed_double-dotted
 70
   64
  3
----------- --- --- ------------
 72
   65
 73
    6
 40
17
 49
12
 49
-1.5
 49
0.25
 49
-1.5
 49
0.25
 49
-1.5
  0
LTYPE
  2
long_dashed_triplicate-dotted
 70
   64
  3
--------- --- --- --- ----------
 72
   65
 73
    8
 40
18.75
 49
12
 49
-1.5
 49
0.25
 49
-1.5
 49
0.25
 49
-1.5
 49
0.25
 49
-1.5
  0
LTYPE
  2
dotted
 70
   64
  3
   -       -       -       -    
 72
   65
 73
    2
 40
1.75
 49
0.25
 49
-1.5
  0
LTYPE
  2
chain
 70
   64
  3
-------------- -- --------------
 72
   65
 73
    4
 40
18.5
 49
12
 49
-1.5
 49
3.5
 49
-1.5
  0
LTYPE
  2
chain_double_dash
 70
   64
  3
------------ -- -- -------------
 72
   65
 73
    6
 40
23.5
 49
12
 49
-1.5
 49
3.5
 49
-1.5
 49
3.5
 49
-1.5
  0
LTYPE
  2
dashed_dotted
 70
   64
  3
-----------     -     ----------
 72
   65
 73
    4
 40
9.25
 49
6
 49
-1.5
 49
0.25
 49
-1.5
  0
LTYPE
  2
double-dashed_dotted
 70
   64
  3
------   -----------   -   -----
 72
   65
 73
    6
 40
16.75
 49
6
 49
-1.5
 49
6
 49
-1.5
 49
0.25
 49
-1.5
  0
LTYPE
  2
dashed_double-dotted
 70
   64
  3
---------    -    -    ---------
 72
   65
 73
    6
 40
11
 49
6
 49
-1.5
 49
0.25
 49
-1.5
 49
0.25
 49
-1.5
  0
LTYPE
  2
double-dashed_double-dotted
 70
   64
  3
-----   ---------   -   -   ----
 72
   65
 73
    8
 40
18.5
 49
6
 49
-1.5
 49
6
 49
-1.5
 49
0.25
 49
-1.5
 49
0.25
 49
-1.5
  0
LTYPE
  2
dashed_triplicate-dotted
 70
   64
  3
-------    -    -    -    ------
 72
   65
 73
    8
 40
12.75
 49
6
 49
-1.5
 49
0.25
 49
-1.5
 49
0.25
 49
-1.5
 49
0.25
 49
-1.5
  0
LTYPE
  2
double-dashed_triplicate-dotted
 70
   64
  3
-----  ---------  -  -  -  -----
 72
   65
 73
   10
 40
20.25
 49
6
 49
-1.5
 49
6
 49
-1.5
 49
0.25
 49
-1.5
 49
0.25
 49
-1.5
 49
0.25
 49
-1.5
  0
LTYPE
  2
undefined
 70
   64
  3
--------------------------------
 72
   65
 73
    0
 40
0
  0
ENDTAB
  0
TABLE
  2
STYLE
  5
3
100
AcDbSymbolTable
 70
     1
  0
STYLE
  5
10
100
AcDbSymbolTableRecord
100
AcDbTextStyleTableRecord
  2
STANDARD
 70
     0
 40
0.0
 41
1.0
 50
0.0
 71
     0
 42
0.2
  3
txt
  4
bigfont.shx
  0
STYLE
  5
26
100
AcDbSymbolTableRecord
100
AcDbTextStyleTableRecord
  2
TATEGAKI
 70
    68
 40
0.0
 41
1.0
 50
0.0
 71
     0
 42
1.0
  3
txt
  4
bigfont.shx
  0
ENDTAB
  0
TABLE
  2
LAYER
 70
    2
  0
LAYER
  2
_0-0_
 70
   64
 62
    7
  6
CONTINUOUS
  0
LAYER
  2
ADD_LINE
 70
   64
 62
    7
  6
CONTINUOUS
  0
ENDTAB
  0
ENDSEC
  0
SECTION
  2
BLOCKS
  0
ENDSEC
  0
SECTION
  2
ENTITIES
  0
LINE
  8
_0-0_
  6
CONTINUOUS
 62
    7
 10
1308.7114099596147
 20
927.3577897842199
 11
1308.7114099596147
 21
666.39433377699993
  0
LINE
  8
_0-0_
  6
CONTINUOUS
 62
    7
 10
954.68746426334121
 20
757.39433377700175
 11
1025.4299699596158
 21
686.65182808072882
  0
LINE
  8
_0-0_
  6
CONTINUOUS
 62
    7
 10
947.61639645147818
 20
757.39433377700266
 11
1025.4299699596158
 21
679.58076026886306
  0
LINE
  8
_0-0_
  6
CONTINUOUS
 62
    7
 10
940.54532863961333
 20
757.39433377700175
 11
1020.5453286396151
 21
677.39433377699902
  0
LINE
  8
_0-0_
  6
CONTINUOUS
 62
    7
 10
672.13606690525205
 20
167.53106997205509
 11
1706.8525777203686
 21
167.53106997205509
  0
LINE
  8
_0-0_
  6
CONTINUOUS
 62
    7
 10
672.13606690525205
 20
1633.3565543671132
 11
672.13606690525205
 21
167.53106997205509
  0
LINE
  8
_0-0_
  6
CONTINUOUS
 62
    7
 10
1706.8525777203686
 20
1633.3565543671132
 11
1706.8525777203686
 21
167.53106997205509
  0
LINE
  8
_0-0_
  6
CONTINUOUS
 62
    7
 10
1062.036571677414
 20
963.96439150201809
 11
1062.036571677414
 21
953.96439150201809
  0
LINE
  8
_0-0_
  6
CONTINUOUS
 62
    2
 10
1127.4196184520006
 20
943.96439150201809
 11
1137.4196184519988
 21
953.964391502019
  0
LINE
  8
_0-0_
  6
CONTINUOUS
 62
    7
 10
1051.4299699596158
 20
818.48674197314745
 11
1170.9076194884856
 21
937.96439150201809
  0
LINE
  8
_0-0_
  6
CONTINUOUS
 62
    7
 10
1051.4299699596158
 20
811.4156741612826
 11
1177.9786873003522
 21
937.96439150201809
  0
LINE
  8
_0-0_
  6
CONTINUOUS
 62
    7
 10
1051.4299699596158
 20
804.34460634941684
 11
1185.0497551122171
 21
937.96439150201809
  0
LINE
  8
_0-0_
  6
CONTINUOUS
 62
    7
 10
1062.036571677414
 20
937.96439150201809
 11
1051.4299699596158
 21
927.3577897842199
  0
LINE
  8
_0-0_
  6
CONTINUOUS
 62
    7
 10
1298.1048082418165
 20
937.96439150201809
 11
1308.7114099596147
 21
927.3577897842199
  0
LINE
  8
_0-0_
  6
CONTINUOUS
 62
    4
 10
1300.5900896160547
 20
943.96439150201809
 11
1314.7114099596147
 21
929.84307115845809
  0
LINE
  8
_0-0_
  6
CONTINUOUS
 62
    4
 10
1059.5512903031758
 20
943.96439150201809
 11
1045.4299699596158
 21
929.84307115845809
  0
ARC
  8
_0-0_
  6
CONTINUOUS
 62
    4
 10
1140.0706899596153
 20
953.96439150201809
 40
10
 50
270
 51
0
  0
ARC
  8
_0-0_
  6
CONTINUOUS
 62
    4
 10
1220.0706899596153
 20
953.96439150201809
 40
10
 50
180
 51
270
  0
LINE
  8
_0-0_
  6
CONTINUOUS
 62
    7
 10
1298.1048082418165
 20
963.96439150201809
 11
1298.1048082418165
 21
953.96439150201809
  0
LINE
  8
_0-0_
  6
CONTINUOUS
 62
    7
 10
1150.0706899596153
 20
937.96439150201809
 11
1150.0706899596153
 21
953.96439150201809
  0
LINE
  8
_0-0_
  6
CONTINUOUS
 62
    7
 10
1210.0706899596153
 20
937.96439150201809
 11
1210.0706899596153
 21
953.96439150201809
  0
ARC
  8
_0-0_
  6
CONTINUOUS
 62
    2
 10
1045.4299699596158
 20
952.78276812042463
 40
16.648587160161849
 50
328.01635454645526
 51
4.0699550833350946
  0
ARC
  8
_0-0_
  6
CONTINUOUS
 62
    2
 10
1314.7114099596147
 20
952.78276812042463
 40
16.648587160161849
 50
175.93004491666491
 51
211.98364545354471
  0
LINE
  8
_0-0_
  6
CONTINUOUS
 62
    1
 10
1093.9503299596145
 20
966.04439150201893
 11
1122.5503299596166
 21
966.04439150201893
  0
LINE
  8
_0-0_
  6
CONTINUOUS
 62
    1
 10
1119.3003299596148
 20
986.84439150201638
 11
1097.2003299596145
 21
986.84439150201638
  0
LINE
  8
_0-0_
  6
CONTINUOUS
 62
    1
 10
1115.0753299596145
 20
963.96439150201809
 11
1115.0753299596145
 21
966.04439150201893
  0
LINE
  8
_0-0_
  6
CONTINUOUS
 62
    1
 10
1122.5503299596166
 20
966.04439150201893
 11
1122.5503299596166
 21
963.96439150201809
  0
LINE
  8
_0-0_
  6
CONTINUOUS
 62
    1
 10
1122.5503299596166
 20
963.96439150201809
 11
1093.9503299596145
 21
963.96439150201809
  0
LINE
  8
_0-0_
  6
CONTINUOUS
 62
    1
 10
1101.4253299596166
 20
963.96439150201809
 11
1101.4253299596166
 21
966.04439150201893
  0
LINE
  8
_0-0_
  6
CONTINUOUS
 62
    1
 10
1093.9503299596145
 20
966.04439150201893
 11
1093.9503299596145
 21
963.96439150201809
  0
LINE
  8
_0-0_
  6
CONTINUOUS
 62
    1
 10
1121.009770908704
 20
985.85744530989473
 11
1095.4908890105253
 21
985.85744530989473
  0
LINE
  8
_0-0_
  6
CONTINUOUS
 62
    1
 10
1097.2003299596145
 20
986.84439150201638
 11
1095.4908890105253
 21
985.85744530989473
  0
LINE
  8
_0-0_
  6
CONTINUOUS
 62
    1
 10
1095.4908890105253
 20
985.85744530989473
 11
1095.4908890105253
 21
976.44439150201765
  0
LINE
  8
_0-0_
  6
CONTINUOUS
 62
    1
 10
1121.009770908704
 20
985.85744530989473
 11
1119.3003299596148
 21
986.84439150201638
  0
LINE
  8
_0-0_
  6
CONTINUOUS
 62
    1
 10
1121.009770908704
 20
976.44439150201765
 11
1121.009770908704
 21
985.85744530989473
  0
LINE
  8
_0-0_
  6
CONTINUOUS
 62
    1
 10
1095.4908890105216
 20
976.44439150201765
 11
1121.009770908704
 21
976.44439150201765
  0
LINE
  8
_0-0_
  6
CONTINUOUS
 62
    1
 10
1112.6300504341598
 20
976.44439150201765
 11
1112.6300504341598
 21
985.85744530989473
  0
LINE
  8
_0-0_
  6
CONTINUOUS
 62
    1
 10
1099.8706094850695
 20
985.85744530989473
 11
1097.2003299596145
 21
986.84439150201638
  0
LINE
  8
_0-0_
  6
CONTINUOUS
 62
    1
 10
1112.6300504341598
 20
985.85744530989473
 11
1119.3003299596148
 21
986.84439150201638
  0
LINE
  8
_0-0_
  6
CONTINUOUS
 62
    1
 10
1099.8706094850695
 20
985.85744530989473
 11
1099.8706094850695
 21
976.44439150201765
  0
ARC
  8
_0-0_
  6
CONTINUOUS
 62
    1
 10
1106.2503299596137
 20
965.73133769413766
 40
21.113053807878593
 50
72.412046226006396
 51
107.5879537739936
  0
ARC
  8
_0-0_
  6
CONTINUOUS
 62
    1
 10
1106.2503299596137
 20
965.73133769414585
 40
21.113053807870138
 50
72.412046225996733
 51
107.58795377400018
  0
LINE
  8
_0-0_
  6
CONTINUOUS
 62
    1
 10
1097.2003299596145
 20
976.44439150201765
 11
1119.3003299596166
 21
976.44439150201765
  0
LINE
  8
_0-0_
  6
CONTINUOUS
 62
    1
 10
1097.2003299596145
 20
966.04439150201893
 11
1119.3003299596148
 21
966.04439150201893
  0
LINE
  8
_0-0_
  6
CONTINUOUS
 62
    1
 10
1095.4908890105253
 20
975.457445309896
 11
1121.0097709087058
 21
975.457445309896
  0
LINE
  8
_0-0_
  6
CONTINUOUS
 62
    1
 10
1119.3003299596166
 20
976.44439150201765
 11
1121.0097709087058
 21
975.457445309896
  0
LINE
  8
_0-0_
  6
CONTINUOUS
 62
    1
 10
1121.0097709087058
 20
975.457445309896
 11
1121.0097709087058
 21
966.04439150201893
  0
LINE
  8
_0-0_
  6
CONTINUOUS
 62
    1
 10
1095.4908890105253
 20
975.457445309896
 11
1097.2003299596145
 21
976.44439150201765
  0
LINE
  8
_0-0_
  6
CONTINUOUS
 62
    1
 10
1095.4908890105253
 20
966.04439150201893
 11
1095.4908890105253
 21
975.457445309896
  0
LINE
  8
_0-0_
  6
CONTINUOUS
 62
    1
 10
1121.0097709087077
 20
966.04439150201893
 11
1095.4908890105253
 21
966.04439150201893
  0
LINE
  8
_0-0_
  6
CONTINUOUS
 62
    1
 10
1103.8706094850695
 20
966.04439150201893
 11
1103.8706094850695
 21
975.457445309896
  0
LINE
  8
_0-0_
  6
CONTINUOUS
 62
    1
 10
1116.6300504341598
 20
975.457445309896
 11
1119.3003299596166
 21
976.44439150201765
  0
LINE
  8
_0-0_
  6
CONTINUOUS
 62
    1
 10
1103.8706094850695
 20
975.457445309896
 11
1097.2003299596145
 21
976.44439150201765
  0
LINE
  8
_0-0_
  6
CONTINUOUS
 62
    1
 10
1116.6300504341598
 20
975.457445309896
 11
1116.6300504341598
 21
966.04439150201893
  0
ARC
  8
_0-0_
  6
CONTINUOUS
 62
    1
 10
1110.2503299596156
 20
955.33133769413894
 40
21.113053807878593
 50
72.412046226006396
 51
107.5879537739936
  0
ARC
  8
_0-0_
  6
CONTINUOUS
 62
    1
 10
1110.2503299596156
 20
955.33133769414712
 40
21.113053807870138
 50
72.412046225999816
 51
107.58795377400327
  0
LINE
  8
_0-0_
  6
CONTINUOUS
 62
    1
 10
1101.7503299596156
 20
993.27797189275248
 11
1114.7503299596156
 21
993.27797189275248
  0
LINE
  8
_0-0_
  6
CONTINUOUS
 62
    1
 10
1113.7103299596165
 20
994.31797189275335
 11
1113.7103299596165
 21
986.84439150201638
  0
LINE
  8
_0-0_
  6
CONTINUOUS
 62
    1
 10
1114.7503299596156
 20
986.84439150201638
 11
1114.7503299596156
 21
993.27797189275248
  0
LINE
  8
_0-0_
  6
CONTINUOUS
 62
    1
 10
1114.7503299596156
 20
993.27797189275248
 11
1112.8003299596166
 21
995.2279718927532
  0
LINE
  8
_0-0_
  6
CONTINUOUS
 62
    1
 10
1112.8003299596166
 20
995.2279718927532
 11
1103.7003299596145
 21
995.2279718927532
  0
LINE
  8
_0-0_
  6
CONTINUOUS
 62
    1
 10
1103.7003299596145
 20
995.2279718927532
 11
1101.7503299596156
 21
993.27797189275248
  0
LINE
  8
_0-0_
  6
CONTINUOUS
 62
    1
 10
1101.7503299596156
 20
993.27797189275248
 11
1101.7503299596156
 21
986.84439150201638
  0
LINE
  8
_0-0_
  6
CONTINUOUS
 62
    1
 10
1102.7903299596146
 20
994.31797189275335
 11
1102.7903299596146
 21
986.84439150201638
  0
LINE
  8
_0-0_
  6
CONTINUOUS
 62
    1
 10
1101.7503299596156
 20
987.12900406409176
 11
1114.7503299596156
 21
988.26635668992844
  0
LINE
  8
_0-0_
  6
CONTINUOUS
 62
    1
 10
1101.7503299596156
 20
989.13664373917914
 11
1114.7503299596156
 21
990.27399636501582
  0
LINE
  8
_0-0_
  6
CONTINUOUS
 62
    1
 10
1101.7503299596156
 20
991.14428341426469
 11
1114.7503299596156
 21
992.28163604010228
  0
LINE
  8
_0-0_
  6
CONTINUOUS
 62
    1
 10
1101.7503299596156
 20
993.15192308935116
 11
1113.8203857161898
 21
994.20791613617735
  0
LINE
  8
_0-0_
  6
CONTINUOUS
 62
    1
 10
1237.5910499596157
 20
966.04439150201893
 11
1266.1910499596161
 21
966.04439150201893
  0
LINE
  8
_0-0_
  6
CONTINUOUS
 62
    1
 10
1262.9410499596142
 20
986.84439150201638
 11
1240.8410499596157
 21
986.84439150201638
  0
LINE
  8
_0-0_
  6
CONTINUOUS
 62
    1
 10
1258.7160499596157
 20
963.96439150201809
 11
1258.7160499596157
 21
966.04439150201893
  0
LINE
  8
_0-0_
  6
CONTINUOUS
 62
    1
 10
1266.1910499596161
 20
966.04439150201893
 11
1266.1910499596161
 21
963.96439150201809
  0
LINE
  8
_0-0_
  6
CONTINUOUS
 62
    1
 10
1266.1910499596161
 20
963.96439150201809
 11
1237.5910499596157
 21
963.96439150201809
  0
LINE
  8
_0-0_
  6
CONTINUOUS
 62
    1
 10
1245.0660499596161
 20
963.96439150201809
 11
1245.0660499596161
 21
966.04439150201893
  0
LINE
  8
_0-0_
  6
CONTINUOUS
 62
    1
 10
1237.5910499596157
 20
966.04439150201893
 11
1237.5910499596157
 21
963.96439150201809
  0
LINE
  8
_0-0_
  6
CONTINUOUS
 62
    1
 10
1264.6504909087034
 20
985.85744530989473
 11
1239.1316090105247
 21
985.85744530989473
  0
LINE
  8
_0-0_
  6
CONTINUOUS
 62
    1
 10
1240.8410499596157
 20
986.84439150201638
 11
1239.1316090105247
 21
985.85744530989473
  0
LINE
  8
_0-0_
  6
CONTINUOUS
 62
    1
 10
1239.1316090105247
 20
985.85744530989473
 11
1239.1316090105247
 21
976.44439150201765
  0
LINE
  8
_0-0_
  6
CONTINUOUS
 62
    1
 10
1264.6504909087034
 20
985.85744530989473
 11
1262.9410499596142
 21
986.84439150201638
  0
LINE
  8
_0-0_
  6
CONTINUOUS
 62
    1
 10
1264.6504909087034
 20
976.44439150201765
 11
1264.6504909087034
 21
985.85744530989473
  0
LINE
  8
_0-0_
  6
CONTINUOUS
 62
    1
 10
1239.1316090105229
 20
976.44439150201765
 11
1264.6504909087034
 21
976.44439150201765
  0
LINE
  8
_0-0_
  6
CONTINUOUS
 62
    1
 10
1256.270770434161
 20
976.44439150201765
 11
1256.270770434161
 21
985.85744530989473
  0
LINE
  8
_0-0_
  6
CONTINUOUS
 62
    1
 10
1243.5113294850689
 20
985.85744530989473
 11
1240.8410499596157
 21
986.84439150201638
  0
LINE
  8
_0-0_
  6
CONTINUOUS
 62
    1
 10
1256.270770434161
 20
985.85744530989473
 11
1262.9410499596142
 21
986.84439150201638
  0
LINE
  8
_0-0_
  6
CONTINUOUS
 62
    1
 10
1243.5113294850689
 20
985.85744530989473
 11
1243.5113294850689
 21
976.44439150201765
  0
ARC
  8
_0-0_
  6
CONTINUOUS
 62
    1
 10
1249.891049959615
 20
965.73133769413766
 40
21.113053807878593
 50
72.412046226006396
 51
107.5879537739936
  0
ARC
  8
_0-0_
  6
CONTINUOUS
 62
    1
 10
1249.891049959615
 20
965.73133769414585
 40
21.113053807870138
 50
72.412046225996733
 51
107.58795377400018
  0
LINE
  8
_0-0_
  6
CONTINUOUS
 62
    1
 10
1240.8410499596157
 20
976.44439150201765
 11
1262.9410499596161
 21
976.44439150201765
  0
LINE
  8
_0-0_
  6
CONTINUOUS
 62
    1
 10
1240.8410499596157
 20
966.04439150201893
 11
1262.9410499596142
 21
966.04439150201893
  0
LINE
  8
_0-0_
  6
CONTINUOUS
 62
    1
 10
1239.1316090105265
 20
975.457445309896
 11
1264.6504909087071
 21
975.457445309896
  0
LINE
  8
_0-0_
  6
CONTINUOUS
 62
    1
 10
1262.9410499596161
 20
976.44439150201765
 11
1264.6504909087071
 21
975.457445309896
  0
LINE
  8
_0-0_
  6
CONTINUOUS
 62
    1
 10
1264.6504909087071
 20
975.457445309896
 11
1264.6504909087071
 21
966.04439150201893
  0
LINE
  8
_0-0_
  6
CONTINUOUS
 62
    1
 10
1239.1316090105265
 20
975.457445309896
 11
1240.8410499596157
 21
976.44439150201765
  0
LINE
  8
_0-0_
  6
CONTINUOUS
 62
    1
 10
1239.1316090105265
 20
966.04439150201893
 11
1239.1316090105265
 21
975.457445309896
  0
LINE
  8
_0-0_
  6
CONTINUOUS
 62
    1
 10
1264.6504909087071
 20
966.04439150201893
 11
1239.1316090105265
 21
966.04439150201893
  0
LINE
  8
_0-0_
  6
CONTINUOUS
 62
    1
 10
1247.5113294850689
 20
966.04439150201893
 11
1247.5113294850689
 21
975.457445309896
  0
LINE
  8
_0-0_
  6
CONTINUOUS
 62
    1
 10
1260.270770434161
 20
975.457445309896
 11
1262.9410499596161
 21
976.44439150201765
  0
LINE
  8
_0-0_
  6
CONTINUOUS
 62
    1
 10
1247.5113294850689
 20
975.457445309896
 11
1240.8410499596157
 21
976.44439150201765
  0
LINE
  8
_0-0_
  6
CONTINUOUS
 62
    1
 10
1260.270770434161
 20
975.457445309896
 11
1260.270770434161
 21
966.04439150201893
  0
ARC
  8
_0-0_
  6
CONTINUOUS
 62
    1
 10
1253.891049959615
 20
955.33133769413894
 40
21.113053807878593
 50
72.412046226006396
 51
107.5879537739936
  0
ARC
  8
_0-0_
  6
CONTINUOUS
 62
    1
 10
1253.891049959615
 20
955.33133769414712
 40
21.113053807870138
 50
72.412046225999816
 51
107.58795377400327
  0
LINE
  8
_0-0_
  6
CONTINUOUS
 62
    1
 10
1245.391049959615
 20
993.27797189275248
 11
1258.391049959615
 21
993.27797189275248
  0
LINE
  8
_0-0_
  6
CONTINUOUS
 62
    1
 10
1257.3510499596159
 20
994.31797189275335
 11
1257.3510499596159
 21
986.84439150201638
  0
LINE
  8
_0-0_
  6
CONTINUOUS
 62
    1
 10
1258.391049959615
 20
986.84439150201638
 11
1258.391049959615
 21
993.27797189275248
  0
LINE
  8
_0-0_
  6
CONTINUOUS
 62
    1
 10
1258.391049959615
 20
993.27797189275248
 11
1256.4410499596161
 21
995.2279718927532
  0
LINE
  8
_0-0_
  6
CONTINUOUS
 62
    1
 10
1256.4410499596161
 20
995.2279718927532
 11
1247.3410499596157
 21
995.2279718927532
  0
LINE
  8
_0-0_
  6
CONTINUOUS
 62
    1
 10
1247.3410499596157
 20
995.2279718927532
 11
1245.391049959615
 21
993.27797189275248
  0
LINE
  8
_0-0_
  6
CONTINUOUS
 62
    1
 10
1245.391049959615
 20
993.27797189275248
 11
1245.391049959615
 21
986.84439150201638
  0
LINE
  8
_0-0_
  6
CONTINUOUS
 62
    1
 10
1246.4310499596158
 20
994.31797189275335
 11
1246.4310499596158
 21
986.84439150201638
  0
LINE
  8
_0-0_
  6
CONTINUOUS
 62
    1
 10
1245.391049959615
 20
987.12900406409176
 11
1258.391049959615
 21
988.26635668992844
  0
LINE
  8
_0-0_
  6
CONTINUOUS
 62
    1
 10
1245.391049959615
 20
989.13664373917914
 11
1258.391049959615
 21
990.27399636501582
  0
LINE
  8
_0-0_
  6
CONTINUOUS
 62
    1
 10
1245.391049959615
 20
991.14428341426469
 11
1258.391049959615
 21
992.28163604010228
  0
LINE
  8
_0-0_
  6
CONTINUOUS
 62
    1
 10
1245.391049959615
 20
993.15192308935116
 11
1257.461105716191
 21
994.20791613617735
  0
LINE
  8
_0-0_
  6
CONTINUOUS
 62
    7
 10
1092.0900759217711
 20
937.96439150201809
 11
1100.7503299596156
 21
922.96439150201809
  0
LINE
  8
_0-0_
  6
CONTINUOUS
 62
    7
 10
1100.7503299596156
 20
922.96439150201809
 11
1115.7503299596156
 21
922.96439150201809
  0
LINE
  8
_0-0_
  6
CONTINUOUS
 62
    7
 10
1115.7503299596156
 20
922.96439150201809
 11
1124.41058399746
 21
937.96439150201809
  0
LINE
  8
_0-0_
  6
CONTINUOUS
 62
    7
 10
1235.7307959217706
 20
937.96439150201809
 11
1244.391049959615
 21
922.96439150201809
  0
LINE
  8
_0-0_
  6
CONTINUOUS
 62
    7
 10
1259.391049959615
 20
922.96439150201809
 11
1268.0513039974594
 21
937.96439150201809
  0
LINE
  8
_0-0_
  6
CONTINUOUS
 62
    7
 10
1092.0900759217711
 20
937.96439150201809
 11
1062.036571677414
 21
937.96439150201809
  0
LINE
  8
_0-0_
  6
CONTINUOUS
 62
    7
 10
1298.1048082418165
 20
937.96439150201809
 11
1268.0513039974594
 21
937.96439150201809
  0
LINE
  8
_0-0_
  6
CONTINUOUS
 62
    7
 10
1235.7307959217706
 20
937.96439150201809
 11
1124.41058399746
 21
937.96439150201809
  0
LINE
  8
_0-0_
  6
CONTINUOUS
 62
    2
 10
1141.6944673707003
 20
944.09710479698811
 11
1149.9379766646452
 21
952.34061409093306
  0
LINE
  8
_0-0_
  6
CONTINUOUS
 62
    2
 10
1138.7333269509818
 20
943.96439150201718
 11
1148.7333269509818
 21
953.96439150201718
  0
LINE
  8
_0-0_
  6
CONTINUOUS
 62
    2
 10
1135.9048998262369
 20
943.96439150201718
 11
1145.9048998262388
 21
953.96439150201809
  0
LINE
  8
_0-0_
  6
CONTINUOUS
 62
    2
 10
1133.0764727014921
 20
943.964391502019
 11
1143.0764727014903
 21
953.96439150201718
  0
LINE
  8
_0-0_
  6
CONTINUOUS
 62
    2
 10
1130.2480455767436
 20
943.96439150201718
 11
1140.2480455767454
 21
953.96439150201718
  0
LINE
  8
_0-0_
  6
CONTINUOUS
 62
    2
 10
1124.5911913272503
 20
943.96439150201718
 11
1134.5911913272521
 21
953.96439150201809
  0
LINE
  8
_0-0_
  6
CONTINUOUS
 62
    2
 10
1121.7627642025054
 20
943.96439150201809
 11
1131.7627642025054
 21
953.96439150201809
  0
LINE
  8
_0-0_
  6
CONTINUOUS
 62
    2
 10
1084.993211580806
 20
943.96439150201809
 11
1094.9932115808078
 21
953.964391502019
  0
LINE
  8
_0-0_
  6
CONTINUOUS
 62
    2
 10
1082.1647844560612
 20
943.964391502019
 11
1092.1647844560594
 21
953.96439150201809
  0
LINE
  8
_0-0_
  6
CONTINUOUS
 62
    2
 10
1079.3363573313127
 20
943.96439150201809
 11
1089.3363573313127
 21
953.96439150201809
  0
LINE
  8
_0-0_
  6
CONTINUOUS
 62
    2
 10
1076.5079302065678
 20
943.96439150201718
 11
1086.5079302065678
 21
953.96439150201718
  0
LINE
  8
_0-0_
  6
CONTINUOUS
 62
    2
 10
1073.679503081823
 20
943.96439150201809
 11
1083.679503081823
 21
953.964391502019
  0
LINE
  8
_0-0_
  6
CONTINUOUS
 62
    2
 10
1070.8510759570763
 20
943.964391502019
 11
1080.8510759570763
 21
953.964391502019
  0
LINE
  8
_0-0_
  6
CONTINUOUS
 62
    2
 10
1068.0226488323278
 20
943.96439150201627
 11
1078.0226488323278
 21
953.96439150201809
  0
LINE
  8
_0-0_
  6
CONTINUOUS
 62
    2
 10
1065.194221707583
 20
943.96439150201809
 11
1075.1942217075812
 21
953.96439150201718
  0
LINE
  8
_0-0_
  6
CONTINUOUS
 62
    2
 10
1062.3657945828345
 20
943.96439150201627
 11
1072.3657945828363
 21
953.96439150201809
  0
LINE
  8
_0-0_
  6
CONTINUOUS
 62
    2
 10
1059.5742647640363
 20
944.00128880796387
 11
1069.5373674580878
 21
953.96439150201627
  0
LINE
  8
_0-0_
  6
CONTINUOUS
 62
    2
 10
1061.6114966403111
 20
948.86694780898347
 11
1066.708940333343
 21
953.96439150201627
  0
LINE
  8
_0-0_
  6
CONTINUOUS
 62
    2
 10
1062.0665439182521
 20
952.15042221167209
 11
1063.8805132085963
 21
953.96439150201627
  0
LINE
  8
_0-0_
  6
CONTINUOUS
 62
    2
 10
1299.9536730615164
 20
943.96439150201809
 11
1300.3501220718808
 21
944.36084051238254
  0
LINE
  8
_0-0_
  6
CONTINUOUS
 62
    2
 10
1297.1252459367697
 20
943.96439150201718
 11
1299.4018948461253
 21
946.24104041137457
  0
LINE
  8
_0-0_
  6
CONTINUOUS
 62
    2
 10
1294.296818812023
 20
943.96439150201809
 11
1298.6678315314766
 21
948.33540422147257
  0
LINE
  8
_0-0_
  6
CONTINUOUS
 62
    2
 10
1291.4683916872764
 20
943.96439150201718
 11
1298.1947806949593
 21
950.69078050969915
  0
LINE
  8
_0-0_
  6
CONTINUOUS
 62
    2
 10
1288.6399645625334
 20
943.964391502019
 11
1298.0742181912374
 21
953.39864513072303
  0
LINE
  8
_0-0_
  6
CONTINUOUS
 62
    2
 10
1285.8115374377867
 20
943.964391502019
 11
1295.8115374377867
 21
953.96439150201809
  0
LINE
  8
_0-0_
  6
CONTINUOUS
 62
    2
 10
1282.9831103130364
 20
943.96439150201627
 11
1292.98311031304
 21
953.96439150201809
  0
LINE
  8
_0-0_
  6
CONTINUOUS
 62
    2
 10
1280.1546831882933
 20
943.96439150201809
 11
1290.1546831882933
 21
953.96439150201718
  0
LINE
  8
_0-0_
  6
CONTINUOUS
 62
    2
 10
1277.3262560635467
 20
943.96439150201718
 11
1287.3262560635467
 21
953.96439150201809
  0
LINE
  8
_0-0_
  6
CONTINUOUS
 62
    2
 10
1274.4978289387982
 20
943.96439150201627
 11
1284.4978289387982
 21
953.96439150201627
  0
LINE
  8
_0-0_
  6
CONTINUOUS
 62
    2
 10
1271.6694018140533
 20
943.96439150201536
 11
1281.6694018140533
 21
953.96439150201627
  0
LINE
  8
_0-0_
  6
CONTINUOUS
 62
    2
 10
1268.8409746893067
 20
943.96439150201536
 11
1278.8409746893067
 21
953.96439150201627
  0
LINE
  8
_0-0_
  6
CONTINUOUS
 62
    2
 10
1266.0125475645636
 20
943.964391502019
 11
1276.0125475645636
 21
953.96439150201809
  0
LINE
  8
_0-0_
  6
CONTINUOUS
 62
    2
 10
1263.184120439817
 20
943.964391502019
 11
1273.184120439817
 21
953.96439150201809
  0
LINE
  8
_0-0_
  6
CONTINUOUS
 62
    2
 10
1229.2429949428606
 20
943.96439150201536
 11
1239.2429949428606
 21
953.96439150201627
  0
LINE
  8
_0-0_
  6
CONTINUOUS
 62
    2
 10
1226.4145678181139
 20
943.96439150201536
 11
1236.4145678181139
 21
953.96439150201627
  0
LINE
  8
_0-0_
  6
CONTINUOUS
 62
    2
 10
1223.5861406933709
 20
943.964391502019
 11
1233.5861406933709
 21
953.96439150201809
  0
LINE
  8
_0-0_
  6
CONTINUOUS
 62
    2
 10
1220.7577135686224
 20
943.96439150201718
 11
1230.7577135686242
 21
953.96439150201809
  0
LINE
  8
_0-0_
  6
CONTINUOUS
 62
    2
 10
1218.1211604848995
 20
944.15626554304004
 11
1227.9292864438776
 21
953.96439150201809
  0
LINE
  8
_0-0_
  6
CONTINUOUS
 62
    2
 10
1215.9771175099977
 20
944.84064969288579
 11
1225.1008593191309
 21
953.96439150201718
  0
LINE
  8
_0-0_
  6
CONTINUOUS
 62
    2
 10
1214.1867144227854
 20
945.87867373042013
 11
1222.2724321943842
 21
953.96439150201809
  0
LINE
  8
_0-0_
  6
CONTINUOUS
 62
    2
 10
1212.693225735371
 20
947.21361216775153
 11
1219.4440050696376
 21
953.96439150201809
  0
LINE
  8
_0-0_
  6
CONTINUOUS
 62
    2
 10
1211.4863453277303
 20
948.83515888485658
 11
1216.6155779448909
 21
953.96439150201809
  0
LINE
  8
_0-0_
  6
CONTINUOUS
 62
    2
 10
1210.594152519574
 20
950.77139320144602
 11
1213.7871508201442
 21
953.96439150201718
  0
LINE
  8
_0-0_
  6
CONTINUOUS
 62
    2
 10
1210.1070254667047
 20
953.11269327332252
 11
1210.9587236954012
 21
953.96439150201809
  0
LINE
  8
_0-0_
  6
CONTINUOUS
 62
    7
 10
1244.391049959615
 20
922.96439150201809
 11
1259.391049959615
 21
922.96439150201809
  0
LINE
  8
_0-0_
  6
CONTINUOUS
 62
    1
 10
1244.391049959615
 20
953.96439150201809
 11
1246.431049959614
 21
953.96439150201809
  0
LINE
  8
_0-0_
  6
CONTINUOUS
 62
    1
 10
1257.3510499596141
 20
953.96439150201809
 11
1259.391049959615
 21
953.96439150201809
  0
LINE
  8
_0-0_
  6
CONTINUOUS
 62
    7
 10
1062.036571677414
 20
953.96439150201809
 11
1298.0742181912374
 21
953.96439150201809
  0
LINE
  8
_0-0_
  6
CONTINUOUS
 62
    1
 10
1143.2503299596156
 20
795.47112337415842
 11
1143.2503299596156
 21
785.47112337415842
  0
LINE
  8
_0-0_
  6
CONTINUOUS
 62
    1
 10
1216.891049959615
 20
795.47112337415842
 11
1216.891049959615
 21
785.47112337415842
  0
LINE
  8
_0-0_
  6
CONTINUOUS
 62
    1
 10
1113.2503299596156
 20
785.47112337415842
 11
1143.2503299596156
 21
785.47112337415842
  0
ARC
  8
_0-0_
  6
CONTINUOUS
 62
    1
 10
1113.2503299596156
 20
795.47112337415842
 40
10
 50
180
 51
270
  0
LINE
  8
_0-0_
  6
CONTINUOUS
 62
    1
 10
1246.891049959615
 20
785.47112337415842
 11
1216.891049959615
 21
785.47112337415842
  0
ARC
  8
_0-0_
  6
CONTINUOUS
 62
    1
 10
1246.891049959615
 20
795.47112337415842
 40
10
 50
270
 51
0
  0
LINE
  8
_0-0_
  6
CONTINUOUS
 62
    1
 10
1117.2503299596156
 20
795.47112337415842
 11
1143.2503299596156
 21
795.47112337415842
  0
ARC
  8
_0-0_
  6
CONTINUOUS
 62
    1
 10
1117.2503299596156
 20
799.47112337415842
 40
4
 50
180
 51
270
  0
LINE
  8
_0-0_
  6
CONTINUOUS
 62
    1
 10
1242.891049959615
 20
795.47112337415842
 11
1216.891049959615
 21
795.47112337415842
  0
ARC
  8
_0-0_
  6
CONTINUOUS
 62
    1
 10
1242.891049959615
 20
799.47112337415842
 40
4
 50
270
 51
0
  0
LINE
  8
_0-0_
  6
CONTINUOUS
 62
    7
 10
1165.0706899596153
 20
963.96439150201809
 11
1062.036571677414
 21
963.96439150201809
  0
ARC
  8
_0-0_
  6
CONTINUOUS
 62
    7
 10
1165.0706899596153
 20
973.96439150201809
 40
10
 50
270
 51
0
  0
LINE
  8
_0-0_
  6
CONTINUOUS
 62
    7
 10
1195.0706899596153
 20
963.96439150201809
 11
1298.1048082418165
 21
963.96439150201809
  0
ARC
  8
_0-0_
  6
CONTINUOUS
 62
    7
 10
1195.0706899596153
 20
973.96439150201809
 40
10
 50
180
 51
270
  0
LINE
  8
_0-0_
  6
CONTINUOUS
 62
    7
 10
1062.036571677414
 20
1198.9643915020181
 11
1298.1048082418165
 21
1198.9643915020181
  0
LINE
  8
_0-0_
  6
CONTINUOUS
 62
    7
 10
1062.036571677414
 20
1198.9643915020181
 11
1062.036571677414
 21
1188.9643915020181
  0
LINE
  8
_0-0_
  6
CONTINUOUS
 62
    7
 10
1298.1048082418165
 20
1198.9643915020181
 11
1298.1048082418165
 21
1188.9643915020181
  0
LINE
  8
_0-0_
  6
CONTINUOUS
 62
    7
 10
1165.0706899596153
 20
1188.9643915020181
 11
1062.036571677414
 21
1188.9643915020181
  0
LINE
  8
_0-0_
  6
CONTINUOUS
 62
    7
 10
1175.0706899596153
 20
1178.9643915020181
 11
1175.0706899596153
 21
973.96439150201809
  0
ARC
  8
_0-0_
  6
CONTINUOUS
 62
    7
 10
1165.0706899596153
 20
1178.9643915020181
 40
10
 50
0
 51
90
  0
LINE
  8
_0-0_
  6
CONTINUOUS
 62
    7
 10
1195.0706899596153
 20
1188.9643915020181
 11
1298.1048082418165
 21
1188.9643915020181
  0
LINE
  8
_0-0_
  6
CONTINUOUS
 62
    7
 10
1185.0706899596153
 20
1178.9643915020181
 11
1185.0706899596153
 21
973.96439150201809
  0
ARC
  8
_0-0_
  6
CONTINUOUS
 62
    7
 10
1195.0706899596153
 20
1178.9643915020181
 40
10
 50
90
 51
180
  0
LINE
  8
_0-0_
  6
CONTINUOUS
 62
    1
 10
1246.891049959615
 20
799.47112337415842
 11
1246.891049959615
 21
963.96439150201809
  0
LINE
  8
_0-0_
  6
CONTINUOUS
 62
    1
 10
1256.891049959615
 20
795.47112337415842
 11
1256.891049959615
 21
963.96439150201809
  0
LINE
  8
_0-0_
  6
CONTINUOUS
 62
    1
 10
1113.2503299596156
 20
799.47112337415842
 11
1113.2503299596156
 21
963.96439150201809
  0
LINE
  8
_0-0_
  6
CONTINUOUS
 62
    1
 10
1103.2503299596156
 20
795.47112337415842
 11
1103.2503299596156
 21
963.96439150201809
  0
LINE
  8
_0-0_
  6
CONTINUOUS
 62
    5
 10
1088.2503299596156
 20
963.51638545728861
 11
1128.2503299596156
 21
963.51638545728861
  0
LINE
  8
_0-0_
  6
CONTINUOUS
 62
    5
 10
1231.891049959615
 20
963.51638545728861
 11
1271.891049959615
 21
963.51638545728861
  0
LINE
  8
_0-0_
  6
CONTINUOUS
 62
    5
 10
1271.891049959615
 20
978.41742386724331
 11
1271.891049959615
 21
978.41742386724331
  0
LINE
  8
_0-0_
  6
CONTINUOUS
 62
    5
 10
1271.891049959615
 20
978.41742386724331
 11
1271.3334172608227
 21
983.075949869243
  0
LINE
  8
_0-0_
  6
CONTINUOUS
 62
    5
 10
1271.3334172608227
 20
983.075949869243
 11
1270.1850380698957
 21
987.53297932598502
  0
LINE
  8
_0-0_
  6
CONTINUOUS
 62
    5
 10
1270.1850380698957
 20
987.53297932598502
 11
1268.4808053074423
 21
991.65308765279201
  0
LINE
  8
_0-0_
  6
CONTINUOUS
 62
    5
 10
1268.4808053074423
 20
991.65308765279201
 11
1266.2725012235667
 21
995.31108744302924
  0
LINE
  8
_0-0_
  6
CONTINUOUS
 62
    5
 10
1266.2725012235667
 20
995.31108744302924
 11
1263.6272240204014
 21
998.39583222410761
  0
LINE
  8
_0-0_
  6
CONTINUOUS
 62
    5
 10
1263.6272240204014
 20
998.39583222410761
 11
1260.6253491071895
 21
1000.8135935868103
  0
LINE
  8
_0-0_
  6
CONTINUOUS
 62
    5
 10
1260.6253491071895
 20
1000.8135935868103
 11
1257.3580869341474
 21
1002.4909090755779
  0
LINE
  8
_0-0_
  6
CONTINUOUS
 62
    5
 10
1257.3580869341474
 20
1002.4909090755779
 11
1253.9247116090883
 21
1003.3768143080466
  0
LINE
  8
_0-0_
  6
CONTINUOUS
 62
    5
 10
1253.9247116090883
 20
1003.3768143080466
 11
1250.4295445038922
 21
1003.4443915020177
  0
LINE
  8
_0-0_
  6
CONTINUOUS
 62
    5
 10
1250.4295445038922
 20
1003.4443915020177
 11
1246.9787845024109
 21
1002.6915873586479
  0
LINE
  8
_0-0_
  6
CONTINUOUS
 62
    5
 10
1246.9787845024109
 20
1002.6915873586479
 11
1243.6772812011206
 21
1001.1412754508965
  0
LINE
  8
_0-0_
  6
CONTINUOUS
 62
    5
 10
1243.6772812011206
 20
1001.1412754508965
 11
1240.6253491071895
 21
998.84056122158461
  0
LINE
  8
_0-0_
  6
CONTINUOUS
 62
    5
 10
1240.6253491071895
 20
998.84056122158461
 11
1237.9157196329397
 21
995.85935070835251
  0
LINE
  8
_0-0_
  6
CONTINUOUS
 62
    5
 10
1237.9157196329397
 20
995.85935070835251
 11
1235.6307234988076
 21
992.28822648407925
  0
LINE
  8
_0-0_
  6
CONTINUOUS
 62
    5
 10
1235.6307234988076
 20
992.28822648407925
 11
1233.8397891560649
 21
988.23569535124329
  0
LINE
  8
_0-0_
  6
CONTINUOUS
 62
    5
 10
1233.8397891560649
 20
988.23569535124329
 11
1232.5973332384592
 21
983.82489141763642
  0
LINE
  8
_0-0_
  6
CONTINUOUS
 62
    5
 10
1232.5973332384592
 20
983.82489141763642
 11
1231.9411071403342
 21
979.18983472880655
  0
LINE
  8
_0-0_
  6
CONTINUOUS
 62
    5
 10
1231.9411071403342
 20
979.18983472880655
 11
1231.891049959615
 21
978.41742386724331
  0
LINE
  8
_0-0_
  6
CONTINUOUS
 62
    5
 10
1231.891049959615
 20
978.41742386724331
 11
1231.891049959615
 21
963.51638545728861
  0
LINE
  8
_0-0_
  6
CONTINUOUS
 62
    5
 10
1271.891049959615
 20
963.51638545728861
 11
1271.891049959615
 21
978.41742386724331
  0
LINE
  8
_0-0_
  6
CONTINUOUS
 62
    5
 10
1128.2503299596156
 20
978.41742386724331
 11
1128.2503299596156
 21
978.41742386724331
  0
LINE
  8
_0-0_
  6
CONTINUOUS
 62
    5
 10
1128.2503299596156
 20
978.41742386724331
 11
1127.6926972608233
 21
983.075949869243
  0
LINE
  8
_0-0_
  6
CONTINUOUS
 62
    5
 10
1127.6926972608233
 20
983.075949869243
 11
1126.5443180698962
 21
987.53297932598502
  0
LINE
  8
_0-0_
  6
CONTINUOUS
 62
    5
 10
1126.5443180698962
 20
987.53297932598502
 11
1124.8400853074429
 21
991.65308765279201
  0
LINE
  8
_0-0_
  6
CONTINUOUS
 62
    5
 10
1124.8400853074429
 20
991.65308765279201
 11
1122.6317812235673
 21
995.31108744302924
  0
LINE
  8
_0-0_
  6
CONTINUOUS
 62
    5
 10
1122.6317812235673
 20
995.31108744302924
 11
1119.986504020402
 21
998.39583222410761
  0
LINE
  8
_0-0_
  6
CONTINUOUS
 62
    5
 10
1119.986504020402
 20
998.39583222410761
 11
1116.9846291071901
 21
1000.8135935868103
  0
LINE
  8
_0-0_
  6
CONTINUOUS
 62
    5
 10
1116.9846291071901
 20
1000.8135935868103
 11
1113.717366934148
 21
1002.4909090755779
  0
LINE
  8
_0-0_
  6
CONTINUOUS
 62
    5
 10
1113.717366934148
 20
1002.4909090755779
 11
1110.2839916090888
 21
1003.3768143080466
  0
LINE
  8
_0-0_
  6
CONTINUOUS
 62
    5
 10
1110.2839916090888
 20
1003.3768143080466
 11
1106.7888245038928
 21
1003.4443915020177
  0
LINE
  8
_0-0_
  6
CONTINUOUS
 62
    5
 10
1106.7888245038928
 20
1003.4443915020177
 11
1103.3380645024115
 21
1002.6915873586479
  0
LINE
  8
_0-0_
  6
CONTINUOUS
 62
    5
 10
1103.3380645024115
 20
1002.6915873586479
 11
1100.0365612011212
 21
1001.1412754508965
  0
LINE
  8
_0-0_
  6
CONTINUOUS
 62
    5
 10
1100.0365612011212
 20
1001.1412754508965
 11
1096.9846291071901
 21
998.84056122158461
  0
LINE
  8
_0-0_
  6
CONTINUOUS
 62
    5
 10
1096.9846291071901
 20
998.84056122158461
 11
1094.2749996329403
 21
995.85935070835251
  0
LINE
  8
_0-0_
  6
CONTINUOUS
 62
    5
 10
1094.2749996329403
 20
995.85935070835251
 11
1091.9900034988082
 21
992.28822648407925
  0
LINE
  8
_0-0_
  6
CONTINUOUS
 62
    5
 10
1091.9900034988082
 20
992.28822648407925
 11
1090.1990691560654
 21
988.23569535124329
  0
LINE
  8
_0-0_
  6
CONTINUOUS
 62
    5
 10
1090.1990691560654
 20
988.23569535124329
 11
1088.9566132384598
 21
983.82489141763642
  0
LINE
  8
_0-0_
  6
CONTINUOUS
 62
    5
 10
1088.9566132384598
 20
983.82489141763642
 11
1088.3003871403348
 21
979.18983472880655
  0
LINE
  8
_0-0_
  6
CONTINUOUS
 62
    5
 10
1088.3003871403348
 20
979.18983472880655
 11
1088.2503299596156
 21
978.41742386724331
  0
LINE
  8
_0-0_
  6
CONTINUOUS
 62
    5
 10
1128.2503299596156
 20
963.51638545728861
 11
1128.2503299596156
 21
978.41742386724331
  0
LINE
  8
_0-0_
  6
CONTINUOUS
 62
    5
 10
1088.2503299596156
 20
978.41742386724331
 11
1088.2503299596156
 21
963.51638545728861
  0
LINE
  8
_0-0_
  6
CONTINUOUS
 62
    7
 10
1295.4361522691361
 20
947.64408175655649
 11
1351.4464393078833
 21
1044.6567446541833
  0
POINT
  8
_0-0_
 62
    7
 10
1295.4361522691361
 20
947.64408175655649
  0
LINE
  8
_0-0_
  6
CONTINUOUS
 62
    7
 10
1112.595077439717
 20
1000.1722256292362
 11
1067.0556364139538
 21
1079.0488512341437
  0
POINT
  8
_0-0_
 62
    7
 10
1112.595077439717
 20
1000.1722256292362
  0
LINE
  8
_0-0_
  6
CONTINUOUS
 62
    7
 10
1099.2466750413259
 20
934.38367095145009
 11
1044.1004810359245
 21
1029.8996808128543
  0
POINT
  8
_0-0_
 62
    7
 10
1099.2466750413259
 20
934.38367095145009
  0
TEXT
  8
_0-0_
 62
    7
 10
1483.2465696893923
 20
844.19346331571819
 40
30
 41
1
 50
0
  1
防水層
  0
TEXT
  8
_0-0_
 62
    7
 10
940.0952257800019
 20
1068.4388617981551
 40
30
 41
1
 50
0
  1
塩ﾋﾞｷｬｯﾌﾟ
  0
TEXT
  8
_0-0_
 62
    7
 10
922.94816897165958
 20
1012.4251428909022
 40
30
 41
1
 50
0
  1
ｳﾚﾀﾝ充填
  0
TEXT
  8
_0-0_
 62
    7
 10
1354.4824319816144
 20
1031.5726896602184
 40
30
 41
1
 50
0
  1
ｼｰﾘﾝｸﾞ
  0
LINE
  8
_0-0_
  6
CONTINUOUS
 62
    7
 10
1470.7029225385431
 20
757.39433377700084
 11
1314.7114099596147
 21
757.39433377700084
  0
LINE
  8
_0-0_
  6
CONTINUOUS
 62
    7
 10
1334.7114099596147
 20
696.62433948614785
 11
1353.9414156687635
 21
677.39433377699993
  0
LINE
  8
_0-0_
  6
CONTINUOUS
 62
    7
 10
1334.7114099596147
 20
689.55327167428209
 11
1346.8703478568968
 21
677.39433377700084
  0
LINE
  8
_0-0_
  6
CONTINUOUS
 62
    7
 10
1334.7114099596147
 20
682.48220386241724
 11
1339.799280045032
 21
677.39433377700084
  0
LINE
  8
_0-0_
  6
CONTINUOUS
 62
    5
 10
1494.7029225385431
 20
753.89433377700084
 11
1494.7029225385431
 21
677.39433377700084
  0
LINE
  8
_0-0_
  6
CONTINUOUS
 62
    5
 10
1474.7029225385431
 20
753.89433377700084
 11
1494.7029225385431
 21
753.89433377700084
  0
LINE
  8
_0-0_
  6
CONTINUOUS
 62
    5
 10
1474.7029225385431
 20
677.39433377700084
 11
1474.7029225385431
 21
753.89433377700084
  0
LINE
  8
_0-0_
  6
CONTINUOUS
 62
    5
 10
1473.7029225385431
 20
755.39433377700084
 11
1495.7029225385431
 21
755.39433377700084
  0
LINE
  8
_0-0_
  6
CONTINUOUS
 62
    5
 10
1473.7029225385431
 20
754.39433377700084
 11
1473.7029225385431
 21
755.39433377700084
  0
LINE
  8
_0-0_
  6
CONTINUOUS
 62
    5
 10
1475.7029225385431
 20
754.39433377700084
 11
1473.7029225385431
 21
754.39433377700084
  0
LINE
  8
_0-0_
  6
CONTINUOUS
 62
    5
 10
1475.7029225385431
 20
753.89433377700084
 11
1475.7029225385431
 21
754.39433377700084
  0
LINE
  8
_0-0_
  6
CONTINUOUS
 62
    5
 10
1473.7029225385431
 20
753.89433377700084
 11
1475.7029225385431
 21
753.89433377700084
  0
LINE
  8
_0-0_
  6
CONTINUOUS
 62
    5
 10
1473.7029225385431
 20
742.39433377700084
 11
1473.7029225385431
 21
753.89433377700084
  0
LINE
  8
_0-0_
  6
CONTINUOUS
 62
    5
 10
1474.2029225385431
 20
742.39433377700084
 11
1473.7029225385431
 21
742.39433377700084
  0
LINE
  8
_0-0_
  6
CONTINUOUS
 62
    5
 10
1473.7029225385431
 20
741.39433377700084
 11
1474.2029225385431
 21
742.39433377700084
  0
LINE
  8
_0-0_
  6
CONTINUOUS
 62
    5
 10
1473.7029225385431
 20
728.39433377700084
 11
1473.7029225385431
 21
741.39433377700084
  0
LINE
  8
_0-0_
  6
CONTINUOUS
 62
    5
 10
1474.2029225385431
 20
728.39433377700084
 11
1473.7029225385431
 21
728.39433377700084
  0
LINE
  8
_0-0_
  6
CONTINUOUS
 62
    5
 10
1473.7029225385431
 20
727.39433377700084
 11
1474.2029225385431
 21
728.39433377700084
  0
LINE
  8
_0-0_
  6
CONTINUOUS
 62
    5
 10
1472.7029225385431
 20
727.39433377700084
 11
1473.7029225385431
 21
727.39433377700084
  0
LINE
  8
_0-0_
  6
CONTINUOUS
 62
    5
 10
1472.7029225385431
 20
753.89433377700084
 11
1472.7029225385431
 21
727.39433377700084
  0
LINE
  8
_0-0_
  6
CONTINUOUS
 62
    5
 10
1472.2029225385431
 20
753.89433377700084
 11
1472.7029225385431
 21
753.89433377700084
  0
LINE
  8
_0-0_
  6
CONTINUOUS
 62
    5
 10
1472.2029225385431
 20
755.89433377700084
 11
1472.2029225385431
 21
753.89433377700084
  0
LINE
  8
_0-0_
  6
CONTINUOUS
 62
    5
 10
1497.2029225385431
 20
755.89433377700084
 11
1472.2029225385431
 21
755.89433377700084
  0
LINE
  8
_0-0_
  6
CONTINUOUS
 62
    5
 10
1497.2029225385431
 20
753.89433377700084
 11
1497.2029225385431
 21
755.89433377700084
  0
LINE
  8
_0-0_
  6
CONTINUOUS
 62
    5
 10
1496.7029225385431
 20
753.89433377700084
 11
1497.2029225385431
 21
753.89433377700084
  0
LINE
  8
_0-0_
  6
CONTINUOUS
 62
    5
 10
1496.7029225385431
 20
727.39433377700084
 11
1496.7029225385431
 21
753.89433377700084
  0
LINE
  8
_0-0_
  6
CONTINUOUS
 62
    5
 10
1495.7029225385431
 20
727.39433377700084
 11
1496.7029225385431
 21
727.39433377700084
  0
LINE
  8
_0-0_
  6
CONTINUOUS
 62
    5
 10
1495.2029225385431
 20
728.39433377700084
 11
1495.7029225385431
 21
727.39433377700084
  0
LINE
  8
_0-0_
  6
CONTINUOUS
 62
    5
 10
1495.7029225385431
 20
728.39433377700084
 11
1495.2029225385431
 21
728.39433377700084
  0
LINE
  8
_0-0_
  6
CONTINUOUS
 62
    5
 10
1495.7029225385431
 20
741.39433377700084
 11
1495.7029225385431
 21
728.39433377700084
  0
LINE
  8
_0-0_
  6
CONTINUOUS
 62
    5
 10
1495.2029225385431
 20
742.39433377700084
 11
1495.7029225385431
 21
741.39433377700084
  0
LINE
  8
_0-0_
  6
CONTINUOUS
 62
    5
 10
1495.7029225385431
 20
742.39433377700084
 11
1495.2029225385431
 21
742.39433377700084
  0
LINE
  8
_0-0_
  6
CONTINUOUS
 62
    5
 10
1495.7029225385431
 20
753.89433377700084
 11
1495.7029225385431
 21
742.39433377700084
  0
LINE
  8
_0-0_
  6
CONTINUOUS
 62
    5
 10
1493.7029225385431
 20
753.89433377700084
 11
1495.7029225385431
 21
753.89433377700084
  0
LINE
  8
_0-0_
  6
CONTINUOUS
 62
    5
 10
1493.7029225385431
 20
754.39433377700084
 11
1493.7029225385431
 21
753.89433377700084
  0
LINE
  8
_0-0_
  6
CONTINUOUS
 62
    5
 10
1495.7029225385431
 20
754.39433377700084
 11
1493.7029225385431
 21
754.39433377700084
  0
LINE
  8
_0-0_
  6
CONTINUOUS
 62
    5
 10
1495.7029225385431
 20
755.39433377700084
 11
1495.7029225385431
 21
754.39433377700084
  0
LINE
  8
_0-0_
  6
CONTINUOUS
 62
    5
 10
1484.7029225385431
 20
756.89433377700084
 11
1497.2029225385431
 21
756.89433377700084
  0
LINE
  8
_0-0_
  6
CONTINUOUS
 62
    5
 10
1472.2029225385431
 20
756.89433377700084
 11
1484.7029225385431
 21
756.89433377700084
  0
LINE
  8
_0-0_
  6
CONTINUOUS
 62
    5
 10
1471.7029225385431
 20
757.39433377700084
 11
1472.2029225385431
 21
756.89433377700084
  0
LINE
  8
_0-0_
  6
CONTINUOUS
 62
    5
 10
1470.7029225385431
 20
757.39433377700084
 11
1471.7029225385431
 21
757.39433377700084
  0
LINE
  8
_0-0_
  6
CONTINUOUS
 62
    5
 10
1470.7029225385431
 20
754.39433377700084
 11
1470.7029225385431
 21
757.39433377700084
  0
LINE
  8
_0-0_
  6
CONTINUOUS
 62
    5
 10
1471.2029225385431
 20
754.39433377700084
 11
1470.7029225385431
 21
754.39433377700084
  0
LINE
  8
_0-0_
  6
CONTINUOUS
 62
    5
 10
1471.2029225385431
 20
739.39433377700084
 11
1471.2029225385431
 21
754.39433377700084
  0
LINE
  8
_0-0_
  6
CONTINUOUS
 62
    5
 10
1470.7029225385359
 20
739.39433377700084
 11
1471.2029225385431
 21
739.39433377700084
  0
LINE
  8
_0-0_
  6
CONTINUOUS
 62
    5
 10
1470.7029225385431
 20
737.39433377700084
 11
1470.7029225385359
 21
739.39433377700084
  0
LINE
  8
_0-0_
  6
CONTINUOUS
 62
    5
 10
1472.2029225385431
 20
737.39433377700084
 11
1470.7029225385431
 21
737.39433377700084
  0
LINE
  8
_0-0_
  6
CONTINUOUS
 62
    5
 10
1472.2029225385431
 20
755.89433377700084
 11
1472.2029225385431
 21
737.39433377700084
  0
LINE
  8
_0-0_
  6
CONTINUOUS
 62
    5
 10
1497.2029225385431
 20
755.89433377700084
 11
1472.2029225385431
 21
755.89433377700084
  0
LINE
  8
_0-0_
  6
CONTINUOUS
 62
    5
 10
1497.2029225385431
 20
737.39433377700084
 11
1497.2029225385431
 21
755.89433377700084
  0
LINE
  8
_0-0_
  6
CONTINUOUS
 62
    5
 10
1498.7029225385431
 20
737.39433377700084
 11
1497.2029225385431
 21
737.39433377700084
  0
LINE
  8
_0-0_
  6
CONTINUOUS
 62
    5
 10
1498.7029225385486
 20
739.39433377700084
 11
1498.7029225385431
 21
737.39433377700084
  0
LINE
  8
_0-0_
  6
CONTINUOUS
 62
    5
 10
1498.2029225385431
 20
739.39433377700084
 11
1498.7029225385486
 21
739.39433377700084
  0
LINE
  8
_0-0_
  6
CONTINUOUS
 62
    5
 10
1498.2029225385431
 20
754.39433377700084
 11
1498.2029225385431
 21
739.39433377700084
  0
LINE
  8
_0-0_
  6
CONTINUOUS
 62
    5
 10
1498.7029225385431
 20
754.39433377700084
 11
1498.2029225385431
 21
754.39433377700084
  0
LINE
  8
_0-0_
  6
CONTINUOUS
 62
    5
 10
1498.7029225385431
 20
757.39433377700084
 11
1498.7029225385431
 21
754.39433377700084
  0
LINE
  8
_0-0_
  6
CONTINUOUS
 62
    5
 10
1497.7029225385431
 20
757.39433377700084
 11
1498.7029225385431
 21
757.39433377700084
  0
LINE
  8
_0-0_
  6
CONTINUOUS
 62
    5
 10
1497.2029225385431
 20
756.89433377700084
 11
1497.7029225385431
 21
757.39433377700084
  0
LINE
  8
_0-0_
  6
CONTINUOUS
 62
    5
 10
1477.9170076371502
 20
677.39433377700084
 11
1477.9170076371502
 21
753.89433377700084
  0
LINE
  8
_0-0_
  6
CONTINUOUS
 62
    5
 10
1481.6670076371502
 20
677.39433377700084
 11
1481.6670076371502
 21
753.89433377700084
  0
LINE
  8
_0-0_
  6
CONTINUOUS
 62
    5
 10
1485.4170076371502
 20
677.39433377700084
 11
1485.4170076371502
 21
753.89433377700084
  0
LINE
  8
_0-0_
  6
CONTINUOUS
 62
    5
 10
1489.1670076371502
 20
677.39433377700084
 11
1489.1670076371502
 21
753.89433377700084
  0
LINE
  8
_0-0_
  6
CONTINUOUS
 62
    5
 10
1492.9170076371502
 20
677.39433377700084
 11
1492.9170076371502
 21
753.89433377700084
  0
LINE
  8
_0-0_
  6
CONTINUOUS
 62
    5
 10
1334.7114099596147
 20
757.39433377700084
 11
1334.7114099596147
 21
677.39433377700084
  0
LINE
  8
_0-0_
  6
CONTINUOUS
 62
    5
 10
1314.7114099596147
 20
757.39433377700084
 11
1334.7114099596147
 21
757.39433377700084
  0
LINE
  8
_0-0_
  6
CONTINUOUS
 62
    5
 10
1314.7114099596147
 20
682.79260706575974
 11
1320.1096832483745
 21
677.39433377700084
  0
LINE
  8
_0-0_
  6
CONTINUOUS
 62
    5
 10
1314.7114099596147
 20
688.44946131525126
 11
1325.766537497866
 21
677.39433377699993
  0
LINE
  8
_0-0_
  6
CONTINUOUS
 62
    5
 10
1314.7114099596147
 20
694.10631556474368
 11
1331.4233917473575
 21
677.39433377700084
  0
LINE
  8
_0-0_
  6
CONTINUOUS
 62
    5
 10
1314.7114099596147
 20
699.76316981423702
 11
1334.7114099596147
 21
679.76316981423702
  0
LINE
  8
_0-0_
  6
CONTINUOUS
 62
    5
 10
1314.7114099596147
 20
705.42002406372944
 11
1334.7114099596147
 21
685.42002406372944
  0
LINE
  8
_0-0_
  6
CONTINUOUS
 62
    5
 10
1314.7114099596147
 20
711.07687831322096
 11
1334.7114099596147
 21
691.07687831322187
  0
LINE
  8
_0-0_
  6
CONTINUOUS
 62
    5
 10
1314.7114099596147
 20
716.73373256271429
 11
1334.7114099596147
 21
696.73373256271429
  0
LINE
  8
_0-0_
  6
CONTINUOUS
 62
    5
 10
1314.7114099596147
 20
722.39058681220672
 11
1334.7114099596147
 21
702.39058681220672
  0
LINE
  8
_0-0_
  6
CONTINUOUS
 62
    5
 10
1314.7114099596147
 20
728.04744106169733
 11
1334.7114099596147
 21
708.04744106169642
  0
LINE
  8
_0-0_
  6
CONTINUOUS
 62
    5
 10
1314.7114099596147
 20
733.70429531118884
 11
1334.7114099596147
 21
713.70429531118975
  0
LINE
  8
_0-0_
  6
CONTINUOUS
 62
    5
 10
1314.7114099596147
 20
739.36114956068309
 11
1334.7114099596147
 21
719.36114956068218
  0
LINE
  8
_0-0_
  6
CONTINUOUS
 62
    5
 10
1314.7114099596147
 20
745.01800381017642
 11
1334.7114099596147
 21
725.01800381017642
  0
LINE
  8
_0-0_
  6
CONTINUOUS
 62
    5
 10
1314.7114099596147
 20
750.67485805966885
 11
1334.7114099596147
 21
730.67485805966885
  0
LINE
  8
_0-0_
  6
CONTINUOUS
 62
    5
 10
1314.7114099596147
 20
756.33171230916128
 11
1334.7114099596147
 21
736.33171230916128
  0
LINE
  8
_0-0_
  6
CONTINUOUS
 62
    5
 10
1319.3056427412666
 20
757.39433377699993
 11
1334.7114099596147
 21
741.98856655865188
  0
LINE
  8
_0-0_
  6
CONTINUOUS
 62
    5
 10
1324.96249699076
 20
757.39433377700084
 11
1334.7114099596147
 21
747.64542080814613
  0
LINE
  8
_0-0_
  6
CONTINUOUS
 62
    5
 10
1330.6193512402533
 20
757.39433377699993
 11
1334.7114099596147
 21
753.30227505763673
  0
LINE
  8
_0-0_
  6
CONTINUOUS
 62
    7
 10
889.43845738068751
 20
757.39433377700084
 11
1045.4299699596158
 21
757.39433377700084
  0
LINE
  8
_0-0_
  6
CONTINUOUS
 62
    5
 10
865.43845738068751
 20
753.89433377700084
 11
865.43845738068751
 21
677.39433377700084
  0
LINE
  8
_0-0_
  6
CONTINUOUS
 62
    5
 10
885.43845738068751
 20
753.89433377700084
 11
865.43845738068751
 21
753.89433377700084
  0
LINE
  8
_0-0_
  6
CONTINUOUS
 62
    5
 10
885.43845738068751
 20
677.39433377700084
 11
885.43845738068751
 21
753.89433377700084
  0
LINE
  8
_0-0_
  6
CONTINUOUS
 62
    5
 10
886.43845738068751
 20
755.39433377700084
 11
864.43845738068751
 21
755.39433377700084
  0
LINE
  8
_0-0_
  6
CONTINUOUS
 62
    5
 10
886.43845738068751
 20
754.39433377700084
 11
886.43845738068751
 21
755.39433377700084
  0
LINE
  8
_0-0_
  6
CONTINUOUS
 62
    5
 10
884.43845738068751
 20
754.39433377700084
 11
886.43845738068751
 21
754.39433377700084
  0
LINE
  8
_0-0_
  6
CONTINUOUS
 62
    5
 10
884.43845738068751
 20
753.89433377700084
 11
884.43845738068751
 21
754.39433377700084
  0
LINE
  8
_0-0_
  6
CONTINUOUS
 62
    5
 10
886.43845738068751
 20
753.89433377700084
 11
884.43845738068751
 21
753.89433377700084
  0
LINE
  8
_0-0_
  6
CONTINUOUS
 62
    5
 10
886.43845738068751
 20
742.39433377700084
 11
886.43845738068751
 21
753.89433377700084
  0
LINE
  8
_0-0_
  6
CONTINUOUS
 62
    5
 10
885.93845738068751
 20
742.39433377700084
 11
886.43845738068751
 21
742.39433377700084
  0
LINE
  8
_0-0_
  6
CONTINUOUS
 62
    5
 10
886.43845738068751
 20
741.39433377700084
 11
885.93845738068751
 21
742.39433377700084
  0
LINE
  8
_0-0_
  6
CONTINUOUS
 62
    5
 10
886.43845738068751
 20
728.39433377700084
 11
886.43845738068751
 21
741.39433377700084
  0
LINE
  8
_0-0_
  6
CONTINUOUS
 62
    5
 10
885.93845738068751
 20
728.39433377700084
 11
886.43845738068751
 21
728.39433377700084
  0
LINE
  8
_0-0_
  6
CONTINUOUS
 62
    5
 10
886.43845738068751
 20
727.39433377700084
 11
885.93845738068751
 21
728.39433377700084
  0
LINE
  8
_0-0_
  6
CONTINUOUS
 62
    5
 10
887.43845738068751
 20
727.39433377700084
 11
886.43845738068751
 21
727.39433377700084
  0
LINE
  8
_0-0_
  6
CONTINUOUS
 62
    5
 10
887.43845738068751
 20
753.89433377700084
 11
887.43845738068751
 21
727.39433377700084
  0
LINE
  8
_0-0_
  6
CONTINUOUS
 62
    5
 10
887.93845738068751
 20
753.89433377700084
 11
887.43845738068751
 21
753.89433377700084
  0
LINE
  8
_0-0_
  6
CONTINUOUS
 62
    5
 10
887.93845738068751
 20
755.89433377700084
 11
887.93845738068751
 21
753.89433377700084
  0
LINE
  8
_0-0_
  6
CONTINUOUS
 62
    5
 10
862.93845738068751
 20
755.89433377700084
 11
887.93845738068751
 21
755.89433377700084
  0
LINE
  8
_0-0_
  6
CONTINUOUS
 62
    5
 10
862.93845738068751
 20
753.89433377700084
 11
862.93845738068751
 21
755.89433377700084
  0
LINE
  8
_0-0_
  6
CONTINUOUS
 62
    5
 10
863.43845738068751
 20
753.89433377700084
 11
862.93845738068751
 21
753.89433377700084
  0
LINE
  8
_0-0_
  6
CONTINUOUS
 62
    5
 10
863.43845738068751
 20
727.39433377700084
 11
863.43845738068751
 21
753.89433377700084
  0
LINE
  8
_0-0_
  6
CONTINUOUS
 62
    5
 10
864.43845738068751
 20
727.39433377700084
 11
863.43845738068751
 21
727.39433377700084
  0
LINE
  8
_0-0_
  6
CONTINUOUS
 62
    5
 10
864.93845738068751
 20
728.39433377700084
 11
864.43845738068751
 21
727.39433377700084
  0
LINE
  8
_0-0_
  6
CONTINUOUS
 62
    5
 10
864.43845738068751
 20
728.39433377700084
 11
864.93845738068751
 21
728.39433377700084
  0
LINE
  8
_0-0_
  6
CONTINUOUS
 62
    5
 10
864.43845738068751
 20
741.39433377700084
 11
864.43845738068751
 21
728.39433377700084
  0
LINE
  8
_0-0_
  6
CONTINUOUS
 62
    5
 10
864.93845738068751
 20
742.39433377700084
 11
864.43845738068751
 21
741.39433377700084
  0
LINE
  8
_0-0_
  6
CONTINUOUS
 62
    5
 10
864.43845738068751
 20
742.39433377700084
 11
864.93845738068751
 21
742.39433377700084
  0
LINE
  8
_0-0_
  6
CONTINUOUS
 62
    5
 10
864.43845738068751
 20
753.89433377700084
 11
864.43845738068751
 21
742.39433377700084
  0
LINE
  8
_0-0_
  6
CONTINUOUS
 62
    5
 10
866.43845738068751
 20
753.89433377700084
 11
864.43845738068751
 21
753.89433377700084
  0
LINE
  8
_0-0_
  6
CONTINUOUS
 62
    5
 10
866.43845738068751
 20
754.39433377700084
 11
866.43845738068751
 21
753.89433377700084
  0
LINE
  8
_0-0_
  6
CONTINUOUS
 62
    5
 10
864.43845738068751
 20
754.39433377700084
 11
866.43845738068751
 21
754.39433377700084
  0
LINE
  8
_0-0_
  6
CONTINUOUS
 62
    5
 10
864.43845738068751
 20
755.39433377700084
 11
864.43845738068751
 21
754.39433377700084
  0
LINE
  8
_0-0_
  6
CONTINUOUS
 62
    5
 10
875.43845738068751
 20
756.89433377700084
 11
862.93845738068751
 21
756.89433377700084
  0
LINE
  8
_0-0_
  6
CONTINUOUS
 62
    5
 10
887.93845738068751
 20
756.89433377700084
 11
875.43845738068751
 21
756.89433377700084
  0
LINE
  8
_0-0_
  6
CONTINUOUS
 62
    5
 10
888.43845738068751
 20
757.39433377700084
 11
887.93845738068751
 21
756.89433377700084
  0
LINE
  8
_0-0_
  6
CONTINUOUS
 62
    5
 10
889.43845738068751
 20
757.39433377700084
 11
888.43845738068751
 21
757.39433377700084
  0
LINE
  8
_0-0_
  6
CONTINUOUS
 62
    5
 10
889.43845738068751
 20
754.39433377700084
 11
889.43845738068751
 21
757.39433377700084
  0
LINE
  8
_0-0_
  6
CONTINUOUS
 62
    5
 10
888.93845738068751
 20
754.39433377700084
 11
889.43845738068751
 21
754.39433377700084
  0
LINE
  8
_0-0_
  6
CONTINUOUS
 62
    5
 10
888.93845738068751
 20
739.39433377700084
 11
888.93845738068751
 21
754.39433377700084
  0
LINE
  8
_0-0_
  6
CONTINUOUS
 62
    5
 10
889.43845738069479
 20
739.39433377700084
 11
888.93845738068751
 21
739.39433377700084
  0
LINE
  8
_0-0_
  6
CONTINUOUS
 62
    5
 10
889.43845738068751
 20
737.39433377700084
 11
889.43845738069479
 21
739.39433377700084
  0
LINE
  8
_0-0_
  6
CONTINUOUS
 62
    5
 10
887.93845738068751
 20
737.39433377700084
 11
889.43845738068751
 21
737.39433377700084
  0
LINE
  8
_0-0_
  6
CONTINUOUS
 62
    5
 10
887.93845738068751
 20
755.89433377700084
 11
887.93845738068751
 21
737.39433377700084
  0
LINE
  8
_0-0_
  6
CONTINUOUS
 62
    5
 10
862.93845738068751
 20
755.89433377700084
 11
887.93845738068751
 21
755.89433377700084
  0
LINE
  8
_0-0_
  6
CONTINUOUS
 62
    5
 10
862.93845738068751
 20
737.39433377700084
 11
862.93845738068751
 21
755.89433377700084
  0
LINE
  8
_0-0_
  6
CONTINUOUS
 62
    5
 10
861.43845738068751
 20
737.39433377700084
 11
862.93845738068751
 21
737.39433377700084
  0
LINE
  8
_0-0_
  6
CONTINUOUS
 62
    5
 10
861.43845738068205
 20
739.39433377700084
 11
861.43845738068751
 21
737.39433377700084
  0
LINE
  8
_0-0_
  6
CONTINUOUS
 62
    5
 10
861.93845738068751
 20
739.39433377700084
 11
861.43845738068205
 21
739.39433377700084
  0
LINE
  8
_0-0_
  6
CONTINUOUS
 62
    5
 10
861.93845738068751
 20
754.39433377700084
 11
861.93845738068751
 21
739.39433377700084
  0
LINE
  8
_0-0_
  6
CONTINUOUS
 62
    5
 10
861.43845738068751
 20
754.39433377700084
 11
861.93845738068751
 21
754.39433377700084
  0
LINE
  8
_0-0_
  6
CONTINUOUS
 62
    5
 10
861.43845738068751
 20
757.39433377700084
 11
861.43845738068751
 21
754.39433377700084
  0
LINE
  8
_0-0_
  6
CONTINUOUS
 62
    5
 10
862.43845738068751
 20
757.39433377700084
 11
861.43845738068751
 21
757.39433377700084
  0
LINE
  8
_0-0_
  6
CONTINUOUS
 62
    5
 10
862.93845738068751
 20
756.89433377700084
 11
862.43845738068751
 21
757.39433377700084
  0
LINE
  8
_0-0_
  6
CONTINUOUS
 62
    5
 10
882.22437228208048
 20
677.39433377700084
 11
882.22437228208048
 21
753.89433377700084
  0
LINE
  8
_0-0_
  6
CONTINUOUS
 62
    5
 10
878.47437228208048
 20
677.39433377700084
 11
878.47437228208048
 21
753.89433377700084
  0
LINE
  8
_0-0_
  6
CONTINUOUS
 62
    5
 10
874.72437228208048
 20
677.39433377700084
 11
874.72437228208048
 21
753.89433377700084
  0
LINE
  8
_0-0_
  6
CONTINUOUS
 62
    5
 10
870.97437228208048
 20
677.39433377700084
 11
870.97437228208048
 21
753.89433377700084
  0
LINE
  8
_0-0_
  6
CONTINUOUS
 62
    5
 10
867.22437228208048
 20
677.39433377700084
 11
867.22437228208048
 21
753.89433377700084
  0
LINE
  8
_0-0_
  6
CONTINUOUS
 62
    5
 10
1025.4299699596158
 20
757.39433377700084
 11
1025.4299699596158
 21
677.39433377700084
  0
LINE
  8
_0-0_
  6
CONTINUOUS
 62
    5
 10
1045.4299699596158
 20
757.39433377700084
 11
1025.4299699596158
 21
757.39433377700084
  0
LINE
  8
_0-0_
  6
CONTINUOUS
 62
    5
 10
1045.4299699596158
 20
682.79260706575974
 11
1040.031696670856
 21
677.39433377700084
  0
LINE
  8
_0-0_
  6
CONTINUOUS
 62
    5
 10
1045.4299699596158
 20
688.44946131525126
 11
1034.3748424213645
 21
677.39433377699993
  0
LINE
  8
_0-0_
  6
CONTINUOUS
 62
    5
 10
1045.4299699596158
 20
694.10631556474368
 11
1028.717988171873
 21
677.39433377700084
  0
LINE
  8
_0-0_
  6
CONTINUOUS
 62
    5
 10
1045.4299699596158
 20
699.76316981423702
 11
1025.4299699596158
 21
679.76316981423702
  0
LINE
  8
_0-0_
  6
CONTINUOUS
 62
    5
 10
1045.4299699596158
 20
705.42002406372944
 11
1025.4299699596158
 21
685.42002406372944
  0
LINE
  8
_0-0_
  6
CONTINUOUS
 62
    5
 10
1045.4299699596158
 20
711.07687831322096
 11
1025.4299699596158
 21
691.07687831322187
  0
LINE
  8
_0-0_
  6
CONTINUOUS
 62
    5
 10
1045.4299699596158
 20
716.73373256271429
 11
1025.4299699596158
 21
696.73373256271429
  0
LINE
  8
_0-0_
  6
CONTINUOUS
 62
    5
 10
1045.4299699596158
 20
722.39058681220672
 11
1025.4299699596158
 21
702.39058681220672
  0
LINE
  8
_0-0_
  6
CONTINUOUS
 62
    5
 10
1045.4299699596158
 20
728.04744106169733
 11
1025.4299699596158
 21
708.04744106169642
  0
LINE
  8
_0-0_
  6
CONTINUOUS
 62
    5
 10
1045.4299699596158
 20
733.70429531118884
 11
1025.4299699596158
 21
713.70429531118975
  0
LINE
  8
_0-0_
  6
CONTINUOUS
 62
    5
 10
1045.4299699596158
 20
739.36114956068309
 11
1025.4299699596158
 21
719.36114956068218
  0
LINE
  8
_0-0_
  6
CONTINUOUS
 62
    5
 10
1045.4299699596158
 20
745.01800381017642
 11
1025.4299699596158
 21
725.01800381017642
  0
LINE
  8
_0-0_
  6
CONTINUOUS
 62
    5
 10
1045.4299699596158
 20
750.67485805966885
 11
1025.4299699596158
 21
730.67485805966885
  0
LINE
  8
_0-0_
  6
CONTINUOUS
 62
    5
 10
1045.4299699596158
 20
756.33171230916128
 11
1025.4299699596158
 21
736.33171230916128
  0
LINE
  8
_0-0_
  6
CONTINUOUS
 62
    5
 10
1040.8357371779639
 20
757.39433377699993
 11
1025.4299699596158
 21
741.98856655865188
  0
LINE
  8
_0-0_
  6
CONTINUOUS
 62
    5
 10
1035.1788829284706
 20
757.39433377700084
 11
1025.4299699596158
 21
747.64542080814613
  0
LINE
  8
_0-0_
  6
CONTINUOUS
 62
    5
 10
1029.5220286789772
 20
757.39433377699993
 11
1025.4299699596158
 21
753.30227505763673
  0
LINE
  8
_0-0_
  6
CONTINUOUS
 62
    7
 10
1051.4299699596158
 20
927.3577897842199
 11
1051.4299699596158
 21
666.39433377699993
  0
LINE
  8
_0-0_
  6
CONTINUOUS
 62
    4
 10
1314.7114099596147
 20
929.84307115845809
 11
1314.7114099596147
 21
675.39433377699993
  0
LINE
  8
_0-0_
  6
CONTINUOUS
 62
    4
 10
1045.4299699596158
 20
929.84307115845809
 11
1045.4299699596158
 21
675.39433377699993
  0
LINE
  8
_0-0_
  6
CONTINUOUS
 62
    7
 10
1308.7114099596147
 20
666.39433377699993
 11
1523.158587959615
 21
666.39433377699993
  0
LINE
  8
_0-0_
  6
CONTINUOUS
 62
    4
 10
1314.7114099596147
 20
675.39433377699993
 11
1523.158587959615
 21
675.39433377699993
  0
LINE
  8
_0-0_
  6
CONTINUOUS
 62
    7
 10
1314.7114099596147
 20
677.39433377699993
 11
1523.158587959615
 21
677.39433377699993
  0
LINE
  8
_0-0_
  6
CONTINUOUS
 62
    5
 10
1314.7114099596147
 20
676.39433377699993
 11
1523.158587959615
 21
676.39433377699993
  0
LINE
  8
_0-0_
  6
CONTINUOUS
 62
    7
 10
1521.4287890840533
 20
757.39433377700084
 11
1523.158587959615
 21
755.66453490143908
  0
LINE
  8
_0-0_
  6
CONTINUOUS
 62
    7
 10
1498.7029225385431
 20
757.39433377700084
 11
1523.158587959615
 21
757.39433377700084
  0
LINE
  8
_0-0_
  6
CONTINUOUS
 62
    7
 10
1514.3577212721884
 20
757.39433377699993
 11
1523.158587959615
 21
748.59346708957332
  0
LINE
  8
_0-0_
  6
CONTINUOUS
 62
    7
 10
861.43845738068751
 20
757.39433377700084
 11
820.41859295961524
 21
757.39433377700084
  0
LINE
  8
_0-0_
  6
CONTINUOUS
 62
    7
 10
1045.4299699596158
 20
677.39433377699993
 11
820.41859295961524
 21
677.39433377699993
  0
LINE
  8
_0-0_
  6
CONTINUOUS
 62
    5
 10
1045.4299699596158
 20
676.39433377699993
 11
820.41859295961524
 21
676.39433377699993
  0
LINE
  8
_0-0_
  6
CONTINUOUS
 62
    4
 10
1045.4299699596158
 20
675.39433377699993
 11
820.41859295961524
 21
675.39433377699993
  0
LINE
  8
_0-0_
  6
CONTINUOUS
 62
    7
 10
1051.4299699596158
 20
666.39433377699993
 11
820.41859295961524
 21
666.39433377699993
  0
LINE
  8
_0-0_
  6
CONTINUOUS
 62
    7
 10
820.41859295961524
 20
587.47536497314582
 11
899.33756176346844
 21
666.39433377699993
  0
LINE
  8
_0-0_
  6
CONTINUOUS
 62
    7
 10
820.41859295961524
 20
580.40429716128278
 11
906.40862957533329
 21
666.39433377699993
  0
LINE
  8
_0-0_
  6
CONTINUOUS
 62
    7
 10
820.41859295961524
 20
573.33322934941611
 11
913.47969738719814
 21
666.39433377699993
  0
LINE
  8
_0-0_
  6
CONTINUOUS
 62
    7
 10
1398.1600717025576
 20
486.39433377699902
 11
1523.158587959615
 21
611.39285003406189
  0
LINE
  8
_0-0_
  6
CONTINUOUS
 62
    7
 10
1405.2311395144188
 20
486.39433377699902
 11
1523.158587959615
 21
604.32178222219522
  0
LINE
  8
_0-0_
  6
CONTINUOUS
 62
    7
 10
1412.3022073262873
 20
486.39433377699902
 11
1523.158587959615
 21
597.25071441033219
  0
LINE
  8
_0-0_
  6
CONTINUOUS
 62
    7
 10
1171.8859017228588
 20
486.39433377699902
 11
1351.8859017228606
 21
666.39433377700084
  0
LINE
  8
_0-0_
  6
CONTINUOUS
 62
    7
 10
1178.9569695347236
 20
486.39433377699902
 11
1358.9569695347236
 21
666.39433377699993
  0
LINE
  8
_0-0_
  6
CONTINUOUS
 62
    7
 10
1186.0280373465903
 20
486.39433377699902
 11
1366.0280373465885
 21
666.39433377699993
  0
LINE
  8
_0-0_
  6
CONTINUOUS
 62
    7
 10
945.61173174316366
 20
486.39433377699902
 11
1308.7114099596147
 21
849.49401199345107
  0
LINE
  8
_0-0_
  6
CONTINUOUS
 62
    7
 10
952.68279955502851
 20
486.39433377699902
 11
1308.7114099596147
 21
842.42294418158622
  0
LINE
  8
_0-0_
  6
CONTINUOUS
 62
    7
 10
959.75386736689518
 20
486.39433377699902
 11
1308.7114099596147
 21
835.35187636972137
  0
LINE
  8
_0-0_
  6
CONTINUOUS
 62
    7
 10
1371.0964370349432
 20
670.92648638986634
 11
1478.2817226654388
 21
856.5768469256675
  0
POINT
  8
_0-0_
 62
    7
 10
1371.0964370349432
 20
670.92648638986634
  0
LINE
  8
_0-0_
  6
CONTINUOUS
 62
    4
 10
1097.2503299596156
 20
943.96439150201809
 11
1097.2503299596156
 21
963.96439150201809
  0
LINE
  8
_0-0_
  6
CONTINUOUS
 62
    4
 10
1119.2503299596156
 20
943.96439150201809
 11
1119.2503299596156
 21
963.96439150201809
  0
LINE
  8
_0-0_
  6
CONTINUOUS
 62
    2
 10
1090.6500658302994
 20
943.964391502019
 11
1097.2503299596156
 21
950.5646556313352
  0
LINE
  8
_0-0_
  6
CONTINUOUS
 62
    2
 10
1087.8216387055509
 20
943.96439150201627
 11
1097.2503299596156
 21
953.39308275608266
  0
LINE
  8
_0-0_
  6
CONTINUOUS
 62
    2
 10
1093.478492955046
 20
943.964391502019
 11
1097.2503299596156
 21
947.73622850658887
  0
LINE
  8
_0-0_
  6
CONTINUOUS
 62
    2
 10
1096.3069200797891
 20
943.96439150201627
 11
1097.2503299596156
 21
944.90780138184277
  0
LINE
  8
_0-0_
  6
CONTINUOUS
 62
    4
 10
1140.0706899596153
 20
943.96439150201809
 11
1119.2503299596156
 21
943.96439150201809
  0
LINE
  8
_0-0_
  6
CONTINUOUS
 62
    4
 10
1097.2503299596156
 20
943.96439150201809
 11
1059.5512903031758
 21
943.96439150201809
  0
LINE
  8
_0-0_
  6
CONTINUOUS
 62
    2
 10
1119.2503299596156
 20
944.28038438387216
 11
1128.9343370777606
 21
953.96439150201718
  0
LINE
  8
_0-0_
  6
CONTINUOUS
 62
    2
 10
1119.2503299596156
 20
947.10881150861906
 11
1126.1059099530139
 21
953.96439150201809
  0
LINE
  8
_0-0_
  6
CONTINUOUS
 62
    2
 10
1119.2503299596156
 20
949.9372386333655
 11
1123.2774828282691
 21
953.964391502019
  0
LINE
  8
_0-0_
  6
CONTINUOUS
 62
    2
 10
1119.2503299596156
 20
952.76566575811285
 11
1120.4490557035206
 21
953.96439150201809
  0
LINE
  8
_0-0_
  6
CONTINUOUS
 62
    4
 10
1240.891049959615
 20
943.96439150201627
 11
1240.891049959615
 21
963.96439150201809
  0
LINE
  8
_0-0_
  6
CONTINUOUS
 62
    4
 10
1262.891049959615
 20
943.96439150201809
 11
1262.891049959615
 21
963.96439150201809
  0
LINE
  8
_0-0_
  6
CONTINUOUS
 62
    2
 10
1232.0714220676055
 20
943.96439150201627
 11
1240.891049959615
 21
952.78401939402579
  0
LINE
  8
_0-0_
  6
CONTINUOUS
 62
    2
 10
1234.8998491923539
 20
943.964391502019
 11
1240.891049959615
 21
949.95559226927946
  0
LINE
  8
_0-0_
  6
CONTINUOUS
 62
    2
 10
1237.7282763171006
 20
943.96439150201809
 11
1240.891049959615
 21
947.12716514453223
  0
LINE
  8
_0-0_
  6
CONTINUOUS
 62
    2
 10
1240.5567034418436
 20
943.96439150201627
 11
1240.891049959615
 21
944.29873801978761
  0
LINE
  8
_0-0_
  6
CONTINUOUS
 62
    2
 10
1262.891049959615
 20
952.15660239605631
 11
1264.698839065577
 21
953.96439150201809
  0
LINE
  8
_0-0_
  6
CONTINUOUS
 62
    2
 10
1262.891049959615
 20
949.32817527130896
 11
1267.5272661903236
 21
953.96439150201718
  0
LINE
  8
_0-0_
  6
CONTINUOUS
 62
    2
 10
1262.891049959615
 20
946.49974814656412
 11
1270.3556933150703
 21
953.96439150201809
  0
LINE
  8
_0-0_
  6
CONTINUOUS
 62
    4
 10
1300.5900896160547
 20
943.96439150201809
 11
1262.891049959615
 21
943.96439150201809
  0
LINE
  8
_0-0_
  6
CONTINUOUS
 62
    4
 10
1240.891049959615
 20
943.96439150201809
 11
1220.0706899596153
 21
943.96439150201809
  0
LINE
  8
_0-0_
  6
CONTINUOUS
 62
    7
 10
672.13606690525205
 20
1633.3565543671132
 11
1706.8525777203686
 21
1633.3565543671132
  0
LINE
  8
_0-0_
  6
CONTINUOUS
 62
    7
 10
672.13606690525205
 20
1553.3565543671132
 11
1706.8525777203686
 21
1553.3565543671132
  0
LINE
  8
_0-0_
  6
CONTINUOUS
 62
    7
 10
672.13606690525205
 20
1473.3565543671132
 11
1706.8525777203686
 21
1473.3565543671132
  0
LINE
  8
_0-0_
  6
CONTINUOUS
 62
    7
 10
1189.4943223128103
 20
1633.3565543671132
 11
1189.4943223128103
 21
1473.3565543671132
  0
TEXT
  8
_0-0_
 62
    7
 10
1213.4943223128103
 20
1577.3565543671132
 40
20
 41
1
 50
0
  1
構造：ＲＣ造
  0
TEXT
  8
_0-0_
 62
    7
 10
1213.4943223128103
 20
1497.3565543671132
 40
20
 41
1
 50
0
  1
下地：コンクリートスラブ
  0
TEXT
  8
_0-0_
 62
    7
 10
696.13606690525194
 20
1577.3565543671132
 40
20
 41
1
 50
0
  1
図面番号：UPM-10C-kiso-02
  0
TEXT
  8
_0-0_
 62
    7
 10
696.13606690525205
 20
1497.3565543671132
 40
20
 41
1
 50
0
  1
施工部位：基礎・架台(Ｈ鋼)
  0
ENDSEC
  0
EOF
