  0
SECTION
  2
HEADER
  9
$ACADVER
  1
AC1009
  9
$INSBASE
 10
0
 20
0
 30
0
  9
$EXTMIN
 10
0
 20
0
  9
$EXTMAX
 10
2378
 20
1682
  9
$LIMMIN
 10
0
 20
0
  9
$LIMMAX
 10
2378
 20
1682
  9
$LTSCALE
 40
1
  0
ENDSEC
  0
SECTION
  2
TABLES
  0
TABLE
  2
LTYPE
 70
     9
  0
LTYPE
  2
CONTINUOUS
 70
    64
  3
実線
 72
    65
 73
     0
 40
0.0
  0
LTYPE
  2
DASHED1
 70
    64
  3
--  --  --  --  --  --  --  --  
 72
    65
 73
     2
 40
2.5
 49
1.25
 49
-1.25
  0
LTYPE
  2
DASHED2
 70
    64
  3
----    ----    ----    ----    
 72
    65
 73
     2
 40
5.0
 49
2.5
 49
-2.5
  0
LTYPE
  2
DASHED3
 70
    64
  3
------  ------  ------  ------  
 72
    65
 73
     2
 40
5.0
 49
3.75
 49
-1.25
  0
LTYPE
  2
CENTER1
 70
    64
  3
----- - ----- - ----- - ----- - 
 72
    65
 73
     4
 40
10.0
 49
6.25
 49
-1.25
 49
1.25
 49
-1.25
  0
LTYPE
  2
CENTER2
 70
    64
  3
----------  --  ----------  --  
 72
    65
 73
     4
 40
20.0
 49
12.5
 49
-2.5
 49
2.5
 49
-2.5
  0
LTYPE
  2
PHANTOM1
 70
    64
  3
--- - - --- - - --- - - --- - - 
 72
    65
 73
     6
 40
10.0
 49
3.25
 49
-1.25
 49
1.25
 49
-1.25
 49
1.25
 49
-1.25
  0
LTYPE
  2
PHANTOM2
 70
    64
  3
--------  -  -  --------  -  -  
 72
    65
 73
     6
 40
20.0
 49
10.0
 49
-2.5
 49
1.25
 49
-2.5
 49
1.25
 49
-2.5
  0
LTYPE
  2
DOT
 70
    64
  3
-   -   -   -   -   -   -   -   
 72
    65
 73
     2
 40
2.5
 49
0.625
 49
-1.875
  0
LTYPE
  2
DUMMY
 70
    64
  3
ダミー
 72
    65
 73
     0
 40
0.0
  0
LTYPE
  2
RAND1
 70
    64
  3
ランダム線1
 72
    65
 73
     4
 40
10.0
 49
1.0
 49
-2.0
 49
3.0
 49
-4.0
  0
LTYPE
  2
RAND2
 70
    64
  3
ランダム線2
 72
    65
 73
     4
 40
14.0
 49
2.0
 49
-3.0
 49
4.0
 49
-5.0
  0
LTYPE
  2
RAND3
 70
    64
  3
ランダム線3
 72
    65
 73
     4
 40
18.0
 49
3.0
 49
-4.0
 49
5.0
 49
-6.0
  0
LTYPE
  2
RAND4
 70
    64
  3
ランダム線4
 72
    65
 73
     4
 40
22.0
 49
4.0
 49
-5.0
 49
6.0
 49
-7.0
  0
LTYPE
  2
RAND5
 70
    64
  3
ランダム線5
 72
    65
 73
     4
 40
26.0
 49
5.0
 49
-6.0
 49
7.0
 49
-8.0
  0
LTYPE
  2
LONG1
 70
    64
  3
----------  --  ----------  --  
 72
    65
 73
     4
 40
40.0
 49
32.5
 49
-2.5
 49
2.5
 49
-2.5
  0
LTYPE
  2
LONG2
 70
    64
  3
--------  -  -  --------  -  -  
 72
    65
 73
     6
 40
40.0
 49
30.0
 49
-2.5
 49
1.25
 49
-2.5
 49
1.25
 49
-2.5
  0
LTYPE
  2
LONG3
 70
    64
  3
+++++++++++++++..+++++++++++++++
 72
    65
 73
     2
 40
40.0
 49
37.5
 49
-2.5
  0
LTYPE
  2
LONG4
 70
    64
  3
+++++++++++++++..+++++++++++++++
 72
    65
 73
     2
 40
80.0
 49
75.0
 49
-5.0
  0
LTYPE
  2
LONG5
 70
    64
  3
----------  --  ----------  --  
 72
    65
 73
     4
 40
60.0
 49
37.5
 49
-7.5
 49
7.5
 49
-7.5
  0
LTYPE
  2
dashed
 70
   64
  3
-------   -------------   ------
 72
   65
 73
    2
 40
7.5
 49
6
 49
-1.5
  0
LTYPE
  2
dashed_spaced
 70
   64
  3
----        --------        ----
 72
   65
 73
    2
 40
12
 49
6
 49
-6
  0
LTYPE
  2
long_dashed_dotted
 70
   64
  3
------------- --- --------------
 72
   65
 73
    4
 40
15.25
 49
12
 49
-1.5
 49
0.25
 49
-1.5
  0
LTYPE
  2
long_dashed_double-dotted
 70
   64
  3
----------- --- --- ------------
 72
   65
 73
    6
 40
17
 49
12
 49
-1.5
 49
0.25
 49
-1.5
 49
0.25
 49
-1.5
  0
LTYPE
  2
long_dashed_triplicate-dotted
 70
   64
  3
--------- --- --- --- ----------
 72
   65
 73
    8
 40
18.75
 49
12
 49
-1.5
 49
0.25
 49
-1.5
 49
0.25
 49
-1.5
 49
0.25
 49
-1.5
  0
LTYPE
  2
dotted
 70
   64
  3
   -       -       -       -    
 72
   65
 73
    2
 40
1.75
 49
0.25
 49
-1.5
  0
LTYPE
  2
chain
 70
   64
  3
-------------- -- --------------
 72
   65
 73
    4
 40
18.5
 49
12
 49
-1.5
 49
3.5
 49
-1.5
  0
LTYPE
  2
chain_double_dash
 70
   64
  3
------------ -- -- -------------
 72
   65
 73
    6
 40
23.5
 49
12
 49
-1.5
 49
3.5
 49
-1.5
 49
3.5
 49
-1.5
  0
LTYPE
  2
dashed_dotted
 70
   64
  3
-----------     -     ----------
 72
   65
 73
    4
 40
9.25
 49
6
 49
-1.5
 49
0.25
 49
-1.5
  0
LTYPE
  2
double-dashed_dotted
 70
   64
  3
------   -----------   -   -----
 72
   65
 73
    6
 40
16.75
 49
6
 49
-1.5
 49
6
 49
-1.5
 49
0.25
 49
-1.5
  0
LTYPE
  2
dashed_double-dotted
 70
   64
  3
---------    -    -    ---------
 72
   65
 73
    6
 40
11
 49
6
 49
-1.5
 49
0.25
 49
-1.5
 49
0.25
 49
-1.5
  0
LTYPE
  2
double-dashed_double-dotted
 70
   64
  3
-----   ---------   -   -   ----
 72
   65
 73
    8
 40
18.5
 49
6
 49
-1.5
 49
6
 49
-1.5
 49
0.25
 49
-1.5
 49
0.25
 49
-1.5
  0
LTYPE
  2
dashed_triplicate-dotted
 70
   64
  3
-------    -    -    -    ------
 72
   65
 73
    8
 40
12.75
 49
6
 49
-1.5
 49
0.25
 49
-1.5
 49
0.25
 49
-1.5
 49
0.25
 49
-1.5
  0
LTYPE
  2
double-dashed_triplicate-dotted
 70
   64
  3
-----  ---------  -  -  -  -----
 72
   65
 73
   10
 40
20.25
 49
6
 49
-1.5
 49
6
 49
-1.5
 49
0.25
 49
-1.5
 49
0.25
 49
-1.5
 49
0.25
 49
-1.5
  0
LTYPE
  2
undefined
 70
   64
  3
--------------------------------
 72
   65
 73
    0
 40
0
  0
ENDTAB
  0
TABLE
  2
STYLE
  5
3
100
AcDbSymbolTable
 70
     1
  0
STYLE
  5
10
100
AcDbSymbolTableRecord
100
AcDbTextStyleTableRecord
  2
STANDARD
 70
     0
 40
0.0
 41
1.0
 50
0.0
 71
     0
 42
0.2
  3
txt
  4
bigfont.shx
  0
STYLE
  5
26
100
AcDbSymbolTableRecord
100
AcDbTextStyleTableRecord
  2
TATEGAKI
 70
    68
 40
0.0
 41
1.0
 50
0.0
 71
     0
 42
1.0
  3
txt
  4
bigfont.shx
  0
ENDTAB
  0
TABLE
  2
LAYER
 70
    2
  0
LAYER
  2
_0-0_
 70
   64
 62
    7
  6
CONTINUOUS
  0
LAYER
  2
ADD_LINE
 70
   64
 62
    7
  6
CONTINUOUS
  0
ENDTAB
  0
ENDSEC
  0
SECTION
  2
BLOCKS
  0
ENDSEC
  0
SECTION
  2
ENTITIES
  0
LINE
  8
_0-0_
  6
CONTINUOUS
 62
    7
 10
939.50457202305199
 20
332.52048861090702
 11
905.75457202305199
 21
332.52048861090702
  0
LINE
  8
_0-0_
  6
CONTINUOUS
 62
    7
 10
1023.9254991561139
 20
1167.9922480620155
 11
1023.9254991561139
 21
1434.4326702173551
  0
LINE
  8
_0-0_
  6
CONTINUOUS
 62
    7
 10
672.13606690525205
 20
567.53106997205509
 11
1706.8525777203686
 21
567.53106997205509
  0
LINE
  8
_0-0_
  6
CONTINUOUS
 62
    7
 10
672.13606690525205
 20
167.53106997205509
 11
1706.8525777203686
 21
167.53106997205509
  0
LINE
  8
_0-0_
  6
CONTINUOUS
 62
    7
 10
672.13606690525205
 20
627.53106997205509
 11
1706.8525777203686
 21
627.53106997205509
  0
LINE
  8
_0-0_
  6
CONTINUOUS
 62
    7
 10
1189.4943223128103
 20
627.53106997205509
 11
1189.4943223128103
 21
167.53106997205509
  0
LINE
  8
_0-0_
  6
CONTINUOUS
 62
    7
 10
672.13606690525205
 20
1633.3565543671132
 11
672.13606690525205
 21
167.53106997205509
  0
LINE
  8
_0-0_
  6
CONTINUOUS
 62
    7
 10
1706.8525777203686
 20
1633.3565543671132
 11
1706.8525777203686
 21
167.53106997205509
  0
TEXT
  8
_0-0_
 62
    7
 10
906.73245032900388
 20
575.67973412101242
 40
40
 41
1
 50
0
  1
Ａ
  0
TEXT
  8
_0-0_
 62
    7
 10
1429.6891920142098
 20
576.02721287347708
 40
40
 41
1
 50
0
  1
Ｂ
  0
LINE
  8
_0-0_
  6
CONTINUOUS
 62
    7
 10
1023.9254991561139
 20
1152.9922480620155
 11
1008.9254991561139
 21
1152.9922480620155
  0
LINE
  8
_0-0_
  6
CONTINUOUS
 62
    7
 10
1008.9254991561139
 20
1152.9922480620155
 11
1008.9254991561139
 21
1167.9922480620155
  0
LINE
  8
_0-0_
  6
CONTINUOUS
 62
    7
 10
1008.9254991561139
 20
1167.9922480620155
 11
1023.9254991561139
 21
1167.9922480620155
  0
LINE
  8
_0-0_
  6
CONTINUOUS
 62
    4
 10
1029.9254991561138
 20
1158.9922480620155
 11
1008.9254991561139
 21
1158.9922480620155
  0
LINE
  8
_0-0_
  6
CONTINUOUS
 62
    7
 10
873.92549915611391
 20
1020.2671375299308
 11
1008.9254991561139
 21
1155.2671375299308
  0
LINE
  8
_0-0_
  6
CONTINUOUS
 62
    7
 10
1021.6506096881968
 20
1167.9922480620155
 11
1023.9254991561139
 21
1170.2671375299308
  0
LINE
  8
_0-0_
  6
CONTINUOUS
 62
    7
 10
873.92549915611391
 20
1013.1960697180659
 11
1013.7216775000635
 21
1152.9922480620155
  0
LINE
  8
_0-0_
  6
CONTINUOUS
 62
    7
 10
873.92549915611391
 20
1006.125001906202
 11
1020.7927453119265
 21
1152.9922480620155
  0
ARC
  8
_0-0_
  6
CONTINUOUS
 62
    2
 10
1047.7450274843159
 20
1177.3719336141514
 40
25.599774038749615
 50
201.49359415795911
 51
225.88654089400154
  0
LINE
  8
_0-0_
  6
CONTINUOUS
 62
    2
 10
1029.1536752893735
 20
1158.9922480620155
 11
1029.5377297269733
 21
1159.3763024996153
  0
LINE
  8
_0-0_
  6
CONTINUOUS
 62
    2
 10
1026.3252481646268
 20
1158.9922480620155
 11
1028.1871405721795
 21
1160.85414046957
  0
LINE
  8
_0-0_
  6
CONTINUOUS
 62
    2
 10
1023.4968210398803
 20
1158.9922480620155
 11
1026.9483951057609
 21
1162.4438221278954
  0
LINE
  8
_0-0_
  6
CONTINUOUS
 62
    2
 10
1020.6683939151336
 20
1158.9922480620146
 11
1025.8248435642709
 21
1164.148697711152
  0
LINE
  8
_0-0_
  6
CONTINUOUS
 62
    2
 10
1017.8399667903869
 20
1158.9922480620146
 11
1024.8223385329511
 21
1165.9746198045798
  0
LINE
  8
_0-0_
  6
CONTINUOUS
 62
    2
 10
1015.0115396656439
 20
1158.9922480620155
 11
1023.9498741703629
 21
1167.9305825667363
  0
LINE
  8
_0-0_
  6
CONTINUOUS
 62
    2
 10
1012.1831125408972
 20
1158.9922480620155
 11
1021.1831125408972
 21
1167.9922480620164
  0
LINE
  8
_0-0_
  6
CONTINUOUS
 62
    2
 10
1009.3546854161506
 20
1158.9922480620164
 11
1018.3546854161506
 21
1167.9922480620155
  0
LINE
  8
_0-0_
  6
CONTINUOUS
 62
    2
 10
1008.9254991561139
 20
1161.3914889267264
 11
1015.5262582914021
 21
1167.9922480620155
  0
LINE
  8
_0-0_
  6
CONTINUOUS
 62
    2
 10
1008.9254991561139
 20
1164.2199160514704
 11
1012.6978311666572
 21
1167.9922480620146
  0
LINE
  8
_0-0_
  6
CONTINUOUS
 62
    2
 10
1008.9254991561139
 20
1167.048343176217
 11
1009.8694040419106
 21
1167.9922480620155
  0
LINE
  8
_0-0_
  6
CONTINUOUS
 62
    7
 10
905.75457202305199
 20
332.52048861090702
 11
905.75457202305199
 21
366.27048861090702
  0
LINE
  8
_0-0_
  6
CONTINUOUS
 62
    7
 10
905.75457202305199
 20
366.27048861090702
 11
939.50457202305199
 21
366.27048861090702
  0
LINE
  8
_0-0_
  6
CONTINUOUS
 62
    4
 10
953.00457202305199
 20
346.02048861090702
 11
905.75457202305199
 21
346.02048861090702
  0
LINE
  8
_0-0_
  6
CONTINUOUS
 62
    7
 10
934.38607072024035
 20
366.27048861090702
 11
939.50457202305199
 21
371.38898991371866
  0
ARC
  8
_0-0_
  6
CONTINUOUS
 62
    2
 10
993.09851076150892
 20
387.37478110321285
 40
57.599491587186634
 50
201.49359415795911
 51
225.88654089400154
  0
LINE
  8
_0-0_
  6
CONTINUOUS
 62
    2
 10
951.26796832288539
 20
346.02048861090702
 11
952.13209080748504
 21
346.88461109550667
  0
LINE
  8
_0-0_
  6
CONTINUOUS
 62
    2
 10
944.90400729220539
 20
346.02048861090702
 11
949.0932652092016
 21
350.20974652790505
  0
LINE
  8
_0-0_
  6
CONTINUOUS
 62
    2
 10
938.54004626152903
 20
346.02048861090702
 11
946.30608790975941
 21
353.78653025913923
  0
LINE
  8
_0-0_
  6
CONTINUOUS
 62
    2
 10
932.17608523084721
 20
346.02048861090702
 11
943.77809694140535
 21
357.62250032146517
  0
LINE
  8
_0-0_
  6
CONTINUOUS
 62
    2
 10
925.8121242001672
 20
346.02048861090702
 11
941.52246062093775
 21
361.73082503167757
  0
LINE
  8
_0-0_
  6
CONTINUOUS
 62
    2
 10
919.44816316949448
 20
346.02048861090702
 11
939.55941580511364
 21
366.13174124652983
  0
LINE
  8
_0-0_
  6
CONTINUOUS
 62
    2
 10
913.08420213881266
 20
346.02048861090702
 11
933.33420213881266
 21
366.27048861091066
  0
LINE
  8
_0-0_
  6
CONTINUOUS
 62
    2
 10
906.72024110813447
 20
346.02048861091066
 11
926.97024110813447
 21
366.27048861090702
  0
LINE
  8
_0-0_
  6
CONTINUOUS
 62
    2
 10
905.75457202305199
 20
351.41878055650636
 11
920.60628007745265
 21
366.27048861090702
  0
LINE
  8
_0-0_
  6
CONTINUOUS
 62
    2
 10
905.75457202305199
 20
357.78274158718091
 11
914.24231904677447
 21
366.27048861090702
  0
LINE
  8
_0-0_
  6
CONTINUOUS
 62
    2
 10
905.75457202305199
 20
364.14670261786273
 11
907.87835801609629
 21
366.27048861090702
  0
LINE
  8
_0-0_
  6
CONTINUOUS
 62
    7
 10
939.50457202305199
 20
366.27048861090702
 11
939.50457202305199
 21
511.18606721464062
  0
LINE
  8
_0-0_
  6
CONTINUOUS
 62
    7
 10
791.24028774411647
 20
223.12470563478314
 11
905.75457202305199
 21
337.63898991371866
  0
LINE
  8
_0-0_
  6
CONTINUOUS
 62
    7
 10
807.15019032081193
 20
223.12470563478314
 11
916.54597329693763
 21
332.52048861090702
  0
LINE
  8
_0-0_
  6
CONTINUOUS
 62
    7
 10
823.06009289750739
 20
223.12470563478314
 11
932.45587587363491
 21
332.52048861090702
  0
LINE
  8
_0-0_
  6
CONTINUOUS
 62
    4
 10
953.00457202305199
 20
346.02048861090702
 11
953.00457202305199
 21
223.12470563478314
  0
LINE
  8
_0-0_
  6
CONTINUOUS
 62
    7
 10
939.50457202305199
 20
223.12470563478314
 11
939.50457202305199
 21
332.52048861090702
  0
LINE
  8
_0-0_
  6
CONTINUOUS
 62
    7
 10
953.51410748944556
 20
1440.9858702173553
 11
951.12900748944605
 21
1434.4326702173551
  0
LINE
  8
_0-0_
  6
CONTINUOUS
 62
    7
 10
953.51410748944556
 20
1440.9858702173553
 11
944.33690748944548
 21
1427.8794702173548
  0
LINE
  8
_0-0_
  6
CONTINUOUS
 62
    7
 10
944.33690748944548
 20
1427.8794702173539
 11
946.72200748944681
 21
1434.4326702173551
  0
LINE
  8
_0-0_
  6
CONTINUOUS
 62
    7
 10
860.86667720276466
 20
1434.4326702173551
 11
946.72200748944681
 21
1434.4326702173551
  0
LINE
  8
_0-0_
  6
CONTINUOUS
 62
    7
 10
951.12900748944605
 20
1434.4326702173551
 11
1037.5246414752928
 21
1434.4326702173551
  0
LINE
  8
_0-0_
  6
CONTINUOUS
 62
    7
 10
873.92549915611391
 20
1246.541307509626
 11
1023.9254991561139
 21
1396.541307509626
  0
LINE
  8
_0-0_
  6
CONTINUOUS
 62
    7
 10
873.92549915611391
 20
1239.4702396977611
 11
1023.9254991561139
 21
1389.4702396977611
  0
LINE
  8
_0-0_
  6
CONTINUOUS
 62
    7
 10
873.92549915611391
 20
1232.3991718858972
 11
1023.9254991561139
 21
1382.3991718858981
  0
LINE
  8
_0-0_
  6
CONTINUOUS
 62
    7
 10
873.92549915611391
 20
1434.4326702173551
 11
873.92549915611391
 21
772.99224806201551
  0
CIRCLE
  8
_0-0_
  6
DASHED2
 62
    1
 10
1023.9254991561139
 20
1167.9922480620155
 40
47.507213168919911
  0
TEXT
  8
_0-0_
 62
    7
 10
990.88025748601297
 20
1199.3142823383025
 40
24
 41
1
 50
0
  1
Ａ
  0
LINE
  8
_0-0_
  6
CONTINUOUS
 62
    7
 10
929.34307284690306
 20
352.70888111874342
 11
985.75992633854742
 21
450.42573776944232
  0
POINT
  8
_0-0_
 62
    7
 10
929.34307284690306
 20
352.70888111874342
  0
TEXT
  8
_0-0_
 62
    7
 10
987.28360781871027
 20
442.52673463905126
 40
21.617968000000001
 41
1
 50
0
  1
ｼｰﾘﾝｸﾞ
  0
LINE
  8
_0-0_
  6
CONTINUOUS
 62
    7
 10
1022.6196214063494
 20
1163.4106373771494
 11
1072.0357106807751
 21
1249.0018147118146
  0
POINT
  8
_0-0_
 62
    7
 10
1022.6196214063494
 20
1163.4106373771494
  0
TEXT
  8
_0-0_
 62
    7
 10
1074.5088904301938
 20
1234.19599858887
 40
30
 41
1
 50
0
  1
ｼｰﾘﾝｸﾞ
  0
LINE
  8
_0-0_
  6
CONTINUOUS
 62
    7
 10
1615.032389857166
 20
240.05666711011622
 11
1295.5173125941528
 21
240.05666711011622
  0
LINE
  8
_0-0_
  6
CONTINUOUS
 62
    7
 10
1295.5173125941528
 20
240.05666711011804
 11
1295.5173125941528
 21
472.10536325953331
  0
LINE
  8
_0-0_
  6
CONTINUOUS
 62
    7
 10
1354.0173125941528
 20
308.07417995570108
 11
1397.2848254397377
 21
264.80666711011804
  0
LINE
  8
_0-0_
  6
CONTINUOUS
 62
    5
 10
1354.0173125941528
 20
444.80666711011986
 11
1354.0173125941528
 21
264.80666711011986
  0
LINE
  8
_0-0_
  6
CONTINUOUS
 62
    5
 10
1309.0173125941528
 20
444.80666711011986
 11
1354.0173125941528
 21
444.80666711011986
  0
LINE
  8
_0-0_
  6
CONTINUOUS
 62
    5
 10
1309.0173125941528
 20
276.95278200982762
 11
1321.1634274938624
 21
264.80666711011986
  0
LINE
  8
_0-0_
  6
CONTINUOUS
 62
    5
 10
1309.0173125941546
 20
289.68070407118398
 11
1333.8913495552188
 21
264.80666711011804
  0
LINE
  8
_0-0_
  6
CONTINUOUS
 62
    5
 10
1309.0173125941528
 20
302.40862613254035
 11
1346.6192716165751
 21
264.80666711011986
  0
LINE
  8
_0-0_
  6
CONTINUOUS
 62
    5
 10
1309.0173125941528
 20
315.13654819390035
 11
1354.0173125941528
 21
270.13654819390035
  0
LINE
  8
_0-0_
  6
CONTINUOUS
 62
    5
 10
1309.0173125941528
 20
327.86447025526036
 11
1354.0173125941528
 21
282.86447025526036
  0
LINE
  8
_0-0_
  6
CONTINUOUS
 62
    5
 10
1309.0173125941528
 20
340.59239231661672
 11
1354.0173125941528
 21
295.59239231661672
  0
LINE
  8
_0-0_
  6
CONTINUOUS
 62
    5
 10
1309.0173125941546
 20
353.32031437797673
 11
1354.0173125941528
 21
308.32031437797673
  0
LINE
  8
_0-0_
  6
CONTINUOUS
 62
    5
 10
1309.0173125941528
 20
366.0482364393331
 11
1354.0173125941528
 21
321.0482364393331
  0
LINE
  8
_0-0_
  6
CONTINUOUS
 62
    5
 10
1309.0173125941528
 20
378.77615850068764
 11
1354.0173125941546
 21
333.77615850068582
  0
LINE
  8
_0-0_
  6
CONTINUOUS
 62
    5
 10
1309.0173125941546
 20
391.50408056204219
 11
1354.0173125941528
 21
346.50408056204401
  0
LINE
  8
_0-0_
  6
CONTINUOUS
 62
    5
 10
1309.0173125941528
 20
404.23200262340401
 11
1354.0173125941546
 21
359.2320026234022
  0
LINE
  8
_0-0_
  6
CONTINUOUS
 62
    5
 10
1309.0173125941528
 20
416.95992468476402
 11
1354.0173125941528
 21
371.95992468476584
  0
LINE
  8
_0-0_
  6
CONTINUOUS
 62
    5
 10
1309.0173125941546
 20
429.6878467461222
 11
1354.0173125941546
 21
384.6878467461222
  0
LINE
  8
_0-0_
  6
CONTINUOUS
 62
    5
 10
1309.0173125941528
 20
442.41576880748221
 11
1354.0173125941528
 21
397.41576880748039
  0
LINE
  8
_0-0_
  6
CONTINUOUS
 62
    5
 10
1319.3543363528697
 20
444.80666711011804
 11
1354.0173125941546
 21
410.14369086883494
  0
LINE
  8
_0-0_
  6
CONTINUOUS
 62
    5
 10
1332.0822584142297
 20
444.80666711011986
 11
1354.0173125941528
 21
422.87161293019494
  0
LINE
  8
_0-0_
  6
CONTINUOUS
 62
    5
 10
1344.8101804755879
 20
444.80666711011804
 11
1354.0173125941528
 21
435.59953499155131
  0
LINE
  8
_0-0_
  6
CONTINUOUS
 62
    7
 10
1354.0173125941528
 20
339.89398510909564
 11
1429.1046305931341
 21
264.80666711011804
  0
LINE
  8
_0-0_
  6
CONTINUOUS
 62
    7
 10
1354.0173125941528
 20
323.98408253239836
 11
1413.194728016435
 21
264.80666711011804
  0
LINE
  8
_0-0_
  6
CONTINUOUS
 62
    4
 10
1309.0173125941528
 20
472.10536325953331
 11
1309.0173125941528
 21
260.30666711011804
  0
LINE
  8
_0-0_
  6
CONTINUOUS
 62
    7
 10
1615.032389857166
 20
444.80666711011986
 11
1309.0173125941528
 21
444.80666711011986
  0
LINE
  8
_0-0_
  6
CONTINUOUS
 62
    7
 10
1309.0173125941528
 20
264.80666711011804
 11
1615.032389857166
 21
264.80666711011804
  0
LINE
  8
_0-0_
  6
CONTINUOUS
 62
    5
 10
1309.0173125941528
 20
262.55666711011804
 11
1615.032389857166
 21
262.55666711011804
  0
LINE
  8
_0-0_
  6
CONTINUOUS
 62
    4
 10
1309.0173125941528
 20
260.30666711011804
 11
1615.032389857166
 21
260.30666711011804
  0
LINE
  8
_0-0_
  6
CONTINUOUS
 62
    7
 10
1480.7656937456595
 20
180.05666711011804
 11
1540.7656937456577
 21
240.05666711011622
  0
LINE
  8
_0-0_
  6
CONTINUOUS
 62
    7
 10
1496.6755963223532
 20
180.05666711011804
 11
1556.6755963223513
 21
240.05666711011622
  0
LINE
  8
_0-0_
  6
CONTINUOUS
 62
    7
 10
1512.5854988990504
 20
180.05666711011804
 11
1572.5854988990486
 21
240.05666711011622
  0
LINE
  8
_0-0_
  6
CONTINUOUS
 62
    7
 10
1235.5173125941528
 20
412.10536325953512
 11
1295.5173125941528
 21
472.10536325953331
  0
LINE
  8
_0-0_
  6
CONTINUOUS
 62
    7
 10
1235.5173125941528
 20
428.0152658362324
 11
1279.6074100174555
 21
472.10536325953331
  0
LINE
  8
_0-0_
  6
CONTINUOUS
 62
    7
 10
1235.5173125941528
 20
443.92516841292786
 11
1263.6975074407601
 21
472.10536325953331
  0
LINE
  8
_0-0_
  6
CONTINUOUS
 62
    7
 10
1336.7528335952629
 20
420.24082298808321
 11
1365.1877204845059
 21
469.49149178772609
  0
TEXT
  8
_0-0_
 62
    7
 10
1366.6407685513077
 20
461.88896552224946
 40
21.617968000000001
 41
1
 50
0
  1
成型緩衝材
  0
LINE
  8
_0-0_
  6
CONTINUOUS
 62
    7
 10
1572.5854988990486
 20
240.05666711011622
 11
1616.0783986910883
 21
315.38857931842836
  0
POINT
  8
_0-0_
 62
    7
 10
1572.5854988990486
 20
240.05666711011622
  0
TEXT
  8
_0-0_
 62
    7
 10
1621.4422044427993
 20
303.7397671543124
 40
21.617968000000001
 41
1
 50
0
  1
ﾌﾟﾗｲﾏｰ
  0
TEXT
  8
_0-0_
 62
    7
 10
1588.1367125514716
 20
364.5983425931438
 40
21.617968000000001
 41
1
 50
0
  1
ｳﾚﾀﾝ防水
  0
LINE
  8
_0-0_
  6
CONTINUOUS
 62
    7
 10
1516.1379024742037
 20
252.44634997278558
 11
1585.1812222460503
 21
372.03288774084763
  0
POINT
  8
_0-0_
 62
    7
 10
1516.1379024742037
 20
252.44634997278558
  0
LINE
  8
_0-0_
  6
CONTINUOUS
 62
    7
 10
1476.9180705027084
 20
262.55666711011804
 11
1590.3869669355736
 21
459.09056081061249
  0
POINT
  8
_0-0_
 62
    7
 10
1476.9180705027084
 20
262.55666711011804
  0
TEXT
  8
_0-0_
 62
    7
 10
1592.6373731030108
 20
452.47366636977426
 40
21.617968000000001
 41
1
 50
0
  1
絶縁ﾌｨﾙﾑ
  0
POINT
  8
_0-0_
 62
    7
 10
1336.7528335952629
 20
420.24082298808321
  0
POINT
  8
_0-0_
 62
    7
 10
1475.7348465497398
 20
420.24082298808321
  0
LINE
  8
_0-0_
  6
CONTINUOUS
 62
    7
 10
1475.7348465497398
 20
420.24082298808321
 11
1517.6342091955903
 21
492.81264789545025
  0
TEXT
  8
_0-0_
 62
    7
 10
1518.8041984377869
 20
486.07722663407662
 40
21.617968000000001
 41
1
 50
0
  1
保護ｺﾝｸﾘｰﾄ
  0
POINT
  8
_0-0_
 62
    7
 10
1319.3543363528697
 20
444.80666711011804
  0
LINE
  8
_0-0_
  6
CONTINUOUS
 62
    7
 10
1309.0173125941528
 20
462.71091745926356
 11
1345.3256950343111
 21
525.59888058625916
  0
POINT
  8
_0-0_
 62
    7
 10
1309.0173125941528
 20
462.71091745926356
  0
TEXT
  8
_0-0_
 62
    7
 10
1348.19962136295
 20
520.27175076614481
 40
21.617968000000001
 41
1
 50
0
  1
ﾄｯﾌﾟｺｰﾄ(露出部のみ)
  0
LINE
  8
_0-0_
  6
CONTINUOUS
 62
    7
 10
1223.9254991561138
 20
802.99224806201551
 11
1523.9254991561138
 21
802.99224806201551
  0
LINE
  8
_0-0_
  6
CONTINUOUS
 62
    7
 10
873.92549915611391
 20
793.99296755023647
 11
1062.9247796678937
 21
982.99224806201551
  0
LINE
  8
_0-0_
  6
CONTINUOUS
 62
    7
 10
873.92549915611391
 20
786.92189973837071
 11
1069.9958474797586
 21
982.99224806201551
  0
LINE
  8
_0-0_
  6
CONTINUOUS
 62
    7
 10
873.92549915611391
 20
779.85083192650677
 11
1077.0669152916234
 21
982.99224806201551
  0
LINE
  8
_0-0_
  6
CONTINUOUS
 62
    7
 10
1079.1989496475871
 20
772.99224806201551
 11
1289.1989496475871
 21
982.99224806201551
  0
LINE
  8
_0-0_
  6
CONTINUOUS
 62
    7
 10
1086.2700174594538
 20
772.99224806201551
 11
1296.2700174594538
 21
982.99224806201551
  0
LINE
  8
_0-0_
  6
CONTINUOUS
 62
    7
 10
1093.3410852713168
 20
772.9922480620146
 11
1303.3410852713168
 21
982.99224806201551
  0
LINE
  8
_0-0_
  6
CONTINUOUS
 62
    7
 10
1223.9254991561138
 20
802.99224806201551
 11
1223.9254991561138
 21
772.99224806201551
  0
LINE
  8
_0-0_
  6
CONTINUOUS
 62
    5
 10
1029.9254991561138
 20
992.99224806201551
 11
1523.9254991561138
 21
992.99224806201551
  0
LINE
  8
_0-0_
  6
CONTINUOUS
 62
    7
 10
1029.9254991561138
 20
993.99224806201551
 11
1523.9254991561138
 21
993.99224806201551
  0
LINE
  8
_0-0_
  6
CONTINUOUS
 62
    7
 10
1185.9170117350423
 20
1073.9922480620164
 11
1029.9254991561138
 21
1073.9922480620164
  0
LINE
  8
_0-0_
  6
CONTINUOUS
 62
    7
 10
1243.7139460924191
 20
1073.9922480620164
 11
1323.7139460924191
 21
993.99224806201642
  0
LINE
  8
_0-0_
  6
CONTINUOUS
 62
    7
 10
1236.6428782805524
 20
1073.9922480620164
 11
1316.6428782805524
 21
993.99224806201642
  0
LINE
  8
_0-0_
  6
CONTINUOUS
 62
    7
 10
1229.5718104686875
 20
1073.9922480620155
 11
1309.5718104686875
 21
993.99224806201551
  0
LINE
  8
_0-0_
  6
CONTINUOUS
 62
    7
 10
1213.9170117350423
 20
1073.9922480620164
 11
1523.9254991561138
 21
1073.9922480620164
  0
LINE
  8
_0-0_
  6
CONTINUOUS
 62
    7
 10
1484.1302516958458
 20
1073.9922480620155
 11
1523.9254991561138
 21
1034.1970006017466
  0
LINE
  8
_0-0_
  6
CONTINUOUS
 62
    7
 10
1491.2013195077107
 20
1073.9922480620155
 11
1523.9254991561138
 21
1041.2680684136124
  0
LINE
  8
_0-0_
  6
CONTINUOUS
 62
    7
 10
1498.2723873195755
 20
1073.9922480620164
 11
1523.9254991561138
 21
1048.3391362254772
  0
LINE
  8
_0-0_
  6
CONTINUOUS
 62
    7
 10
1049.9254991561138
 20
1013.2222537711634
 11
1069.1555048652626
 21
993.99224806201551
  0
LINE
  8
_0-0_
  6
CONTINUOUS
 62
    7
 10
1049.9254991561138
 20
1006.1511859592977
 11
1062.084437053396
 21
993.99224806201642
  0
LINE
  8
_0-0_
  6
CONTINUOUS
 62
    7
 10
1049.9254991561138
 20
999.08011814743281
 11
1055.0133692415311
 21
993.99224806201642
  0
LINE
  8
_0-0_
  6
CONTINUOUS
 62
    5
 10
1209.9170117350423
 20
1070.4922480620164
 11
1209.9170117350423
 21
993.99224806201642
  0
LINE
  8
_0-0_
  6
CONTINUOUS
 62
    5
 10
1189.9170117350423
 20
1070.4922480620164
 11
1209.9170117350423
 21
1070.4922480620164
  0
LINE
  8
_0-0_
  6
CONTINUOUS
 62
    5
 10
1189.9170117350423
 20
993.99224806201642
 11
1189.9170117350423
 21
1070.4922480620164
  0
LINE
  8
_0-0_
  6
CONTINUOUS
 62
    5
 10
1188.9170117350423
 20
1071.9922480620164
 11
1210.9170117350423
 21
1071.9922480620164
  0
LINE
  8
_0-0_
  6
CONTINUOUS
 62
    5
 10
1188.9170117350423
 20
1070.9922480620164
 11
1188.9170117350423
 21
1071.9922480620164
  0
LINE
  8
_0-0_
  6
CONTINUOUS
 62
    5
 10
1190.9170117350423
 20
1070.9922480620164
 11
1188.9170117350423
 21
1070.9922480620164
  0
LINE
  8
_0-0_
  6
CONTINUOUS
 62
    5
 10
1190.9170117350423
 20
1070.4922480620164
 11
1190.9170117350423
 21
1070.9922480620164
  0
LINE
  8
_0-0_
  6
CONTINUOUS
 62
    5
 10
1188.9170117350423
 20
1070.4922480620164
 11
1190.9170117350423
 21
1070.4922480620164
  0
LINE
  8
_0-0_
  6
CONTINUOUS
 62
    5
 10
1188.9170117350423
 20
1058.9922480620164
 11
1188.9170117350423
 21
1070.4922480620164
  0
LINE
  8
_0-0_
  6
CONTINUOUS
 62
    5
 10
1189.4170117350423
 20
1058.9922480620164
 11
1188.9170117350423
 21
1058.9922480620164
  0
LINE
  8
_0-0_
  6
CONTINUOUS
 62
    5
 10
1188.9170117350423
 20
1057.9922480620164
 11
1189.4170117350423
 21
1058.9922480620164
  0
LINE
  8
_0-0_
  6
CONTINUOUS
 62
    5
 10
1188.9170117350423
 20
1044.9922480620164
 11
1188.9170117350423
 21
1057.9922480620164
  0
LINE
  8
_0-0_
  6
CONTINUOUS
 62
    5
 10
1189.4170117350423
 20
1044.9922480620164
 11
1188.9170117350423
 21
1044.9922480620164
  0
LINE
  8
_0-0_
  6
CONTINUOUS
 62
    5
 10
1188.9170117350423
 20
1043.9922480620164
 11
1189.4170117350423
 21
1044.9922480620164
  0
LINE
  8
_0-0_
  6
CONTINUOUS
 62
    5
 10
1187.9170117350423
 20
1043.9922480620164
 11
1188.9170117350423
 21
1043.9922480620164
  0
LINE
  8
_0-0_
  6
CONTINUOUS
 62
    5
 10
1187.9170117350423
 20
1070.4922480620164
 11
1187.9170117350423
 21
1043.9922480620164
  0
LINE
  8
_0-0_
  6
CONTINUOUS
 62
    5
 10
1187.4170117350423
 20
1070.4922480620164
 11
1187.9170117350423
 21
1070.4922480620164
  0
LINE
  8
_0-0_
  6
CONTINUOUS
 62
    5
 10
1187.4170117350423
 20
1072.4922480620164
 11
1187.4170117350423
 21
1070.4922480620164
  0
LINE
  8
_0-0_
  6
CONTINUOUS
 62
    5
 10
1212.4170117350423
 20
1072.4922480620164
 11
1187.4170117350423
 21
1072.4922480620164
  0
LINE
  8
_0-0_
  6
CONTINUOUS
 62
    5
 10
1212.4170117350423
 20
1070.4922480620164
 11
1212.4170117350423
 21
1072.4922480620164
  0
LINE
  8
_0-0_
  6
CONTINUOUS
 62
    5
 10
1211.9170117350423
 20
1070.4922480620164
 11
1212.4170117350423
 21
1070.4922480620164
  0
LINE
  8
_0-0_
  6
CONTINUOUS
 62
    5
 10
1211.9170117350423
 20
1043.9922480620164
 11
1211.9170117350423
 21
1070.4922480620164
  0
LINE
  8
_0-0_
  6
CONTINUOUS
 62
    5
 10
1210.9170117350423
 20
1043.9922480620164
 11
1211.9170117350423
 21
1043.9922480620164
  0
LINE
  8
_0-0_
  6
CONTINUOUS
 62
    5
 10
1210.4170117350423
 20
1044.9922480620164
 11
1210.9170117350423
 21
1043.9922480620164
  0
LINE
  8
_0-0_
  6
CONTINUOUS
 62
    5
 10
1210.9170117350423
 20
1044.9922480620164
 11
1210.4170117350423
 21
1044.9922480620164
  0
LINE
  8
_0-0_
  6
CONTINUOUS
 62
    5
 10
1210.9170117350423
 20
1057.9922480620164
 11
1210.9170117350423
 21
1044.9922480620164
  0
LINE
  8
_0-0_
  6
CONTINUOUS
 62
    5
 10
1210.4170117350423
 20
1058.9922480620164
 11
1210.9170117350423
 21
1057.9922480620164
  0
LINE
  8
_0-0_
  6
CONTINUOUS
 62
    5
 10
1210.9170117350423
 20
1058.9922480620164
 11
1210.4170117350423
 21
1058.9922480620164
  0
LINE
  8
_0-0_
  6
CONTINUOUS
 62
    5
 10
1210.9170117350423
 20
1070.4922480620164
 11
1210.9170117350423
 21
1058.9922480620164
  0
LINE
  8
_0-0_
  6
CONTINUOUS
 62
    5
 10
1208.9170117350423
 20
1070.4922480620164
 11
1210.9170117350423
 21
1070.4922480620164
  0
LINE
  8
_0-0_
  6
CONTINUOUS
 62
    5
 10
1208.9170117350423
 20
1070.9922480620164
 11
1208.9170117350423
 21
1070.4922480620164
  0
LINE
  8
_0-0_
  6
CONTINUOUS
 62
    5
 10
1210.9170117350423
 20
1070.9922480620164
 11
1208.9170117350423
 21
1070.9922480620164
  0
LINE
  8
_0-0_
  6
CONTINUOUS
 62
    5
 10
1210.9170117350423
 20
1071.9922480620164
 11
1210.9170117350423
 21
1070.9922480620164
  0
LINE
  8
_0-0_
  6
CONTINUOUS
 62
    5
 10
1199.9170117350423
 20
1073.4922480620164
 11
1212.4170117350423
 21
1073.4922480620164
  0
LINE
  8
_0-0_
  6
CONTINUOUS
 62
    5
 10
1187.4170117350423
 20
1073.4922480620164
 11
1199.9170117350423
 21
1073.4922480620164
  0
LINE
  8
_0-0_
  6
CONTINUOUS
 62
    5
 10
1186.9170117350423
 20
1073.9922480620164
 11
1187.4170117350423
 21
1073.4922480620164
  0
LINE
  8
_0-0_
  6
CONTINUOUS
 62
    5
 10
1185.9170117350423
 20
1073.9922480620164
 11
1186.9170117350423
 21
1073.9922480620164
  0
LINE
  8
_0-0_
  6
CONTINUOUS
 62
    5
 10
1185.9170117350423
 20
1070.9922480620164
 11
1185.9170117350423
 21
1073.9922480620164
  0
LINE
  8
_0-0_
  6
CONTINUOUS
 62
    5
 10
1186.4170117350423
 20
1070.9922480620164
 11
1185.9170117350423
 21
1070.9922480620164
  0
LINE
  8
_0-0_
  6
CONTINUOUS
 62
    5
 10
1186.4170117350423
 20
1055.9922480620164
 11
1186.4170117350423
 21
1070.9922480620164
  0
LINE
  8
_0-0_
  6
CONTINUOUS
 62
    5
 10
1185.917011735035
 20
1055.9922480620164
 11
1186.4170117350423
 21
1055.9922480620164
  0
LINE
  8
_0-0_
  6
CONTINUOUS
 62
    5
 10
1185.9170117350423
 20
1053.9922480620164
 11
1185.917011735035
 21
1055.9922480620164
  0
LINE
  8
_0-0_
  6
CONTINUOUS
 62
    5
 10
1187.4170117350423
 20
1053.9922480620164
 11
1185.9170117350423
 21
1053.9922480620164
  0
LINE
  8
_0-0_
  6
CONTINUOUS
 62
    5
 10
1187.4170117350423
 20
1072.4922480620164
 11
1187.4170117350423
 21
1053.9922480620164
  0
LINE
  8
_0-0_
  6
CONTINUOUS
 62
    5
 10
1212.4170117350423
 20
1072.4922480620164
 11
1187.4170117350423
 21
1072.4922480620164
  0
LINE
  8
_0-0_
  6
CONTINUOUS
 62
    5
 10
1212.4170117350423
 20
1053.9922480620164
 11
1212.4170117350423
 21
1072.4922480620164
  0
LINE
  8
_0-0_
  6
CONTINUOUS
 62
    5
 10
1213.9170117350423
 20
1053.9922480620164
 11
1212.4170117350423
 21
1053.9922480620164
  0
LINE
  8
_0-0_
  6
CONTINUOUS
 62
    5
 10
1213.9170117350477
 20
1055.9922480620164
 11
1213.9170117350423
 21
1053.9922480620164
  0
LINE
  8
_0-0_
  6
CONTINUOUS
 62
    5
 10
1213.4170117350423
 20
1055.9922480620164
 11
1213.9170117350477
 21
1055.9922480620164
  0
LINE
  8
_0-0_
  6
CONTINUOUS
 62
    5
 10
1213.4170117350423
 20
1070.9922480620164
 11
1213.4170117350423
 21
1055.9922480620164
  0
LINE
  8
_0-0_
  6
CONTINUOUS
 62
    5
 10
1213.9170117350423
 20
1070.9922480620164
 11
1213.4170117350423
 21
1070.9922480620164
  0
LINE
  8
_0-0_
  6
CONTINUOUS
 62
    5
 10
1213.9170117350423
 20
1073.9922480620164
 11
1213.9170117350423
 21
1070.9922480620164
  0
LINE
  8
_0-0_
  6
CONTINUOUS
 62
    5
 10
1212.9170117350423
 20
1073.9922480620164
 11
1213.9170117350423
 21
1073.9922480620164
  0
LINE
  8
_0-0_
  6
CONTINUOUS
 62
    5
 10
1212.4170117350423
 20
1073.4922480620164
 11
1212.9170117350423
 21
1073.9922480620164
  0
LINE
  8
_0-0_
  6
CONTINUOUS
 62
    5
 10
1193.1310968336493
 20
993.99224806201642
 11
1193.1310968336493
 21
1070.4922480620164
  0
LINE
  8
_0-0_
  6
CONTINUOUS
 62
    5
 10
1196.8810968336493
 20
993.99224806201642
 11
1196.8810968336493
 21
1070.4922480620164
  0
LINE
  8
_0-0_
  6
CONTINUOUS
 62
    5
 10
1200.6310968336493
 20
993.99224806201642
 11
1200.6310968336493
 21
1070.4922480620164
  0
LINE
  8
_0-0_
  6
CONTINUOUS
 62
    5
 10
1204.3810968336493
 20
993.99224806201642
 11
1204.3810968336493
 21
1070.4922480620164
  0
LINE
  8
_0-0_
  6
CONTINUOUS
 62
    5
 10
1208.1310968336493
 20
993.99224806201642
 11
1208.1310968336493
 21
1070.4922480620164
  0
LINE
  8
_0-0_
  6
CONTINUOUS
 62
    5
 10
1049.9254991561138
 20
1073.9922480620164
 11
1049.9254991561138
 21
993.99224806201642
  0
LINE
  8
_0-0_
  6
CONTINUOUS
 62
    5
 10
1029.9254991561138
 20
1073.9922480620164
 11
1049.9254991561138
 21
1073.9922480620164
  0
LINE
  8
_0-0_
  6
CONTINUOUS
 62
    5
 10
1029.9254991561138
 20
999.39052135077532
 11
1035.3237724448736
 21
993.99224806201642
  0
LINE
  8
_0-0_
  6
CONTINUOUS
 62
    5
 10
1029.9254991561138
 20
1005.0473756002668
 11
1040.9806266943651
 21
993.99224806201551
  0
LINE
  8
_0-0_
  6
CONTINUOUS
 62
    5
 10
1029.9254991561138
 20
1010.7042298497593
 11
1046.6374809438566
 21
993.99224806201642
  0
LINE
  8
_0-0_
  6
CONTINUOUS
 62
    5
 10
1029.9254991561138
 20
1016.3610840992526
 11
1049.9254991561138
 21
996.36108409925259
  0
LINE
  8
_0-0_
  6
CONTINUOUS
 62
    5
 10
1029.9254991561138
 20
1022.017938348745
 11
1049.9254991561138
 21
1002.017938348745
  0
LINE
  8
_0-0_
  6
CONTINUOUS
 62
    5
 10
1029.9254991561138
 20
1027.6747925982365
 11
1049.9254991561138
 21
1007.6747925982374
  0
LINE
  8
_0-0_
  6
CONTINUOUS
 62
    5
 10
1029.9254991561138
 20
1033.3316468477299
 11
1049.9254991561138
 21
1013.3316468477299
  0
LINE
  8
_0-0_
  6
CONTINUOUS
 62
    5
 10
1029.9254991561138
 20
1038.9885010972223
 11
1049.9254991561138
 21
1018.9885010972223
  0
LINE
  8
_0-0_
  6
CONTINUOUS
 62
    5
 10
1029.9254991561138
 20
1044.6453553467129
 11
1049.9254991561138
 21
1024.645355346712
  0
LINE
  8
_0-0_
  6
CONTINUOUS
 62
    5
 10
1029.9254991561138
 20
1050.3022095962044
 11
1049.9254991561138
 21
1030.3022095962053
  0
LINE
  8
_0-0_
  6
CONTINUOUS
 62
    5
 10
1029.9254991561138
 20
1055.9590638456987
 11
1049.9254991561138
 21
1035.9590638456978
  0
LINE
  8
_0-0_
  6
CONTINUOUS
 62
    5
 10
1029.9254991561138
 20
1061.615918095192
 11
1049.9254991561138
 21
1041.615918095192
  0
LINE
  8
_0-0_
  6
CONTINUOUS
 62
    5
 10
1029.9254991561138
 20
1067.2727723446844
 11
1049.9254991561138
 21
1047.2727723446844
  0
LINE
  8
_0-0_
  6
CONTINUOUS
 62
    5
 10
1029.9254991561138
 20
1072.9296265941769
 11
1049.9254991561138
 21
1052.9296265941769
  0
LINE
  8
_0-0_
  6
CONTINUOUS
 62
    5
 10
1034.5197319377658
 20
1073.9922480620155
 11
1049.9254991561138
 21
1058.5864808436675
  0
LINE
  8
_0-0_
  6
CONTINUOUS
 62
    5
 10
1040.1765861872591
 20
1073.9922480620164
 11
1049.9254991561138
 21
1064.2433350931617
  0
LINE
  8
_0-0_
  6
CONTINUOUS
 62
    5
 10
1045.8334404367524
 20
1073.9922480620155
 11
1049.9254991561138
 21
1069.9001893426523
  0
POINT
  8
_0-0_
 62
    7
 10
1337.1185834863554
 20
987.32039321624802
  0
LINE
  8
_0-0_
  6
CONTINUOUS
 62
    7
 10
1337.1185834863554
 20
987.32039321624802
 11
1430.456563907328
 21
1148.9865175812413
  0
LINE
  8
_0-0_
  6
CONTINUOUS
 62
    7
 10
1197.1600913417678
 20
1062.7899397535059
 11
1279.2117055487361
 21
1204.9075044030171
  0
POINT
  8
_0-0_
 62
    7
 10
1197.1600913417678
 20
1062.7899397535059
  0
LINE
  8
_0-0_
  6
CONTINUOUS
 62
    7
 10
1038.6767518981214
 20
1066.8700245262964
 11
1080.62235775302
 21
1139.5219450212373
  0
POINT
  8
_0-0_
 62
    7
 10
1038.6767518981214
 20
1066.8700245262964
  0
TEXT
  8
_0-0_
 62
    7
 10
1284.5422982082782
 20
1190.1606141690966
 40
30
 41
1
 50
0
  1
伸縮目地
  0
TEXT
  8
_0-0_
 62
    7
 10
1069.4792594106002
 20
1144.5234048098548
 40
30
 41
1
 50
0
  1
成型緩衝材
  0
TEXT
  8
_0-0_
 62
    7
 10
1434.9264839000734
 20
1136.8791128179157
 40
30
 41
1
 50
0
  1
防水層
  0
CIRCLE
  8
_0-0_
  6
DASHED2
 62
    1
 10
1029.9254991561138
 20
1033.3316468477299
 40
80
  0
TEXT
  8
_0-0_
 62
    7
 10
988.80137739395298
 20
1095.061746710476
 40
24
 41
1
 50
0
  1
Ｂ
  0
LINE
  8
_0-0_
  6
CONTINUOUS
 62
    7
 10
1023.9254991561139
 20
982.99224806201551
 11
1023.9254991561139
 21
1152.9922480620155
  0
LINE
  8
_0-0_
  6
CONTINUOUS
 62
    7
 10
1023.9254991561139
 20
982.99224806201551
 11
1523.9254991561138
 21
982.99224806201551
  0
LINE
  8
_0-0_
  6
CONTINUOUS
 62
    4
 10
1029.9254991561138
 20
1158.9922480620155
 11
1029.9254991561138
 21
991.99224806201551
  0
LINE
  8
_0-0_
  6
CONTINUOUS
 62
    4
 10
1029.9254991561138
 20
991.99224806201551
 11
1523.9254991561138
 21
991.99224806201551
  0
LINE
  8
_0-0_
  6
CONTINUOUS
 62
    7
 10
1335.4731196272842
 20
802.99224806201551
 11
1515.4731196272842
 21
982.99224806201551
  0
LINE
  8
_0-0_
  6
CONTINUOUS
 62
    7
 10
1342.5441874391472
 20
802.99224806201551
 11
1522.544187439149
 21
982.99224806201551
  0
LINE
  8
_0-0_
  6
CONTINUOUS
 62
    7
 10
1349.6152552510139
 20
802.99224806201551
 11
1523.9254991561138
 21
977.30249196711543
  0
LINE
  8
_0-0_
  6
CONTINUOUS
 62
    7
 10
672.13606690525205
 20
1553.3565543671132
 11
1706.8525777203686
 21
1553.3565543671132
  0
LINE
  8
_0-0_
  6
CONTINUOUS
 62
    7
 10
672.13606690525205
 20
1633.3565543671132
 11
1706.8525777203686
 21
1633.3565543671132
  0
LINE
  8
_0-0_
  6
CONTINUOUS
 62
    7
 10
672.13606690525205
 20
1473.3565543671132
 11
1706.8525777203686
 21
1473.3565543671132
  0
LINE
  8
_0-0_
  6
CONTINUOUS
 62
    7
 10
1189.4943223128103
 20
1633.3565543671132
 11
1189.4943223128103
 21
1473.3565543671132
  0
TEXT
  8
_0-0_
 62
    7
 10
1213.4943223128103
 20
1577.3565543671132
 40
20
 41
1
 50
0
  1
構造：ＲＣ造
  0
TEXT
  8
_0-0_
 62
    7
 10
1213.4943223128103
 20
1497.3565543671132
 40
20
 41
1
 50
0
  1
下地：コンクリートスラブ
  0
TEXT
  8
_0-0_
 62
    7
 10
696.13606690525205
 20
1577.3565543671132
 40
20
 41
1
 50
0
  1
図面番号：UPM-10C-kabe-02
  0
TEXT
  8
_0-0_
 62
    7
 10
696.13606690525205
 20
1497.3565543671132
 40
20
 41
1
 50
0
  1
施工部位：壁面立上り（目地切り）
  0
ENDSEC
  0
EOF
