  0
SECTION
  2
HEADER
  9
$ACADVER
  1
AC1009
  9
$INSBASE
 10
0
 20
0
 30
0
  9
$EXTMIN
 10
0
 20
0
  9
$EXTMAX
 10
2378
 20
1682
  9
$LIMMIN
 10
0
 20
0
  9
$LIMMAX
 10
2378
 20
1682
  9
$LTSCALE
 40
1
  0
ENDSEC
  0
SECTION
  2
TABLES
  0
TABLE
  2
LTYPE
 70
     9
  0
LTYPE
  2
CONTINUOUS
 70
    64
  3
実線
 72
    65
 73
     0
 40
0.0
  0
LTYPE
  2
DASHED1
 70
    64
  3
--  --  --  --  --  --  --  --  
 72
    65
 73
     2
 40
2.5
 49
1.25
 49
-1.25
  0
LTYPE
  2
DASHED2
 70
    64
  3
----    ----    ----    ----    
 72
    65
 73
     2
 40
5.0
 49
2.5
 49
-2.5
  0
LTYPE
  2
DASHED3
 70
    64
  3
------  ------  ------  ------  
 72
    65
 73
     2
 40
5.0
 49
3.75
 49
-1.25
  0
LTYPE
  2
CENTER1
 70
    64
  3
----- - ----- - ----- - ----- - 
 72
    65
 73
     4
 40
10.0
 49
6.25
 49
-1.25
 49
1.25
 49
-1.25
  0
LTYPE
  2
CENTER2
 70
    64
  3
----------  --  ----------  --  
 72
    65
 73
     4
 40
20.0
 49
12.5
 49
-2.5
 49
2.5
 49
-2.5
  0
LTYPE
  2
PHANTOM1
 70
    64
  3
--- - - --- - - --- - - --- - - 
 72
    65
 73
     6
 40
10.0
 49
3.25
 49
-1.25
 49
1.25
 49
-1.25
 49
1.25
 49
-1.25
  0
LTYPE
  2
PHANTOM2
 70
    64
  3
--------  -  -  --------  -  -  
 72
    65
 73
     6
 40
20.0
 49
10.0
 49
-2.5
 49
1.25
 49
-2.5
 49
1.25
 49
-2.5
  0
LTYPE
  2
DOT
 70
    64
  3
-   -   -   -   -   -   -   -   
 72
    65
 73
     2
 40
2.5
 49
0.625
 49
-1.875
  0
LTYPE
  2
DUMMY
 70
    64
  3
ダミー
 72
    65
 73
     0
 40
0.0
  0
LTYPE
  2
RAND1
 70
    64
  3
ランダム線1
 72
    65
 73
     4
 40
10.0
 49
1.0
 49
-2.0
 49
3.0
 49
-4.0
  0
LTYPE
  2
RAND2
 70
    64
  3
ランダム線2
 72
    65
 73
     4
 40
14.0
 49
2.0
 49
-3.0
 49
4.0
 49
-5.0
  0
LTYPE
  2
RAND3
 70
    64
  3
ランダム線3
 72
    65
 73
     4
 40
18.0
 49
3.0
 49
-4.0
 49
5.0
 49
-6.0
  0
LTYPE
  2
RAND4
 70
    64
  3
ランダム線4
 72
    65
 73
     4
 40
22.0
 49
4.0
 49
-5.0
 49
6.0
 49
-7.0
  0
LTYPE
  2
RAND5
 70
    64
  3
ランダム線5
 72
    65
 73
     4
 40
26.0
 49
5.0
 49
-6.0
 49
7.0
 49
-8.0
  0
LTYPE
  2
LONG1
 70
    64
  3
----------  --  ----------  --  
 72
    65
 73
     4
 40
40.0
 49
32.5
 49
-2.5
 49
2.5
 49
-2.5
  0
LTYPE
  2
LONG2
 70
    64
  3
--------  -  -  --------  -  -  
 72
    65
 73
     6
 40
40.0
 49
30.0
 49
-2.5
 49
1.25
 49
-2.5
 49
1.25
 49
-2.5
  0
LTYPE
  2
LONG3
 70
    64
  3
+++++++++++++++..+++++++++++++++
 72
    65
 73
     2
 40
40.0
 49
37.5
 49
-2.5
  0
LTYPE
  2
LONG4
 70
    64
  3
+++++++++++++++..+++++++++++++++
 72
    65
 73
     2
 40
80.0
 49
75.0
 49
-5.0
  0
LTYPE
  2
LONG5
 70
    64
  3
----------  --  ----------  --  
 72
    65
 73
     4
 40
60.0
 49
37.5
 49
-7.5
 49
7.5
 49
-7.5
  0
LTYPE
  2
dashed
 70
   64
  3
-------   -------------   ------
 72
   65
 73
    2
 40
7.5
 49
6
 49
-1.5
  0
LTYPE
  2
dashed_spaced
 70
   64
  3
----        --------        ----
 72
   65
 73
    2
 40
12
 49
6
 49
-6
  0
LTYPE
  2
long_dashed_dotted
 70
   64
  3
------------- --- --------------
 72
   65
 73
    4
 40
15.25
 49
12
 49
-1.5
 49
0.25
 49
-1.5
  0
LTYPE
  2
long_dashed_double-dotted
 70
   64
  3
----------- --- --- ------------
 72
   65
 73
    6
 40
17
 49
12
 49
-1.5
 49
0.25
 49
-1.5
 49
0.25
 49
-1.5
  0
LTYPE
  2
long_dashed_triplicate-dotted
 70
   64
  3
--------- --- --- --- ----------
 72
   65
 73
    8
 40
18.75
 49
12
 49
-1.5
 49
0.25
 49
-1.5
 49
0.25
 49
-1.5
 49
0.25
 49
-1.5
  0
LTYPE
  2
dotted
 70
   64
  3
   -       -       -       -    
 72
   65
 73
    2
 40
1.75
 49
0.25
 49
-1.5
  0
LTYPE
  2
chain
 70
   64
  3
-------------- -- --------------
 72
   65
 73
    4
 40
18.5
 49
12
 49
-1.5
 49
3.5
 49
-1.5
  0
LTYPE
  2
chain_double_dash
 70
   64
  3
------------ -- -- -------------
 72
   65
 73
    6
 40
23.5
 49
12
 49
-1.5
 49
3.5
 49
-1.5
 49
3.5
 49
-1.5
  0
LTYPE
  2
dashed_dotted
 70
   64
  3
-----------     -     ----------
 72
   65
 73
    4
 40
9.25
 49
6
 49
-1.5
 49
0.25
 49
-1.5
  0
LTYPE
  2
double-dashed_dotted
 70
   64
  3
------   -----------   -   -----
 72
   65
 73
    6
 40
16.75
 49
6
 49
-1.5
 49
6
 49
-1.5
 49
0.25
 49
-1.5
  0
LTYPE
  2
dashed_double-dotted
 70
   64
  3
---------    -    -    ---------
 72
   65
 73
    6
 40
11
 49
6
 49
-1.5
 49
0.25
 49
-1.5
 49
0.25
 49
-1.5
  0
LTYPE
  2
double-dashed_double-dotted
 70
   64
  3
-----   ---------   -   -   ----
 72
   65
 73
    8
 40
18.5
 49
6
 49
-1.5
 49
6
 49
-1.5
 49
0.25
 49
-1.5
 49
0.25
 49
-1.5
  0
LTYPE
  2
dashed_triplicate-dotted
 70
   64
  3
-------    -    -    -    ------
 72
   65
 73
    8
 40
12.75
 49
6
 49
-1.5
 49
0.25
 49
-1.5
 49
0.25
 49
-1.5
 49
0.25
 49
-1.5
  0
LTYPE
  2
double-dashed_triplicate-dotted
 70
   64
  3
-----  ---------  -  -  -  -----
 72
   65
 73
   10
 40
20.25
 49
6
 49
-1.5
 49
6
 49
-1.5
 49
0.25
 49
-1.5
 49
0.25
 49
-1.5
 49
0.25
 49
-1.5
  0
LTYPE
  2
undefined
 70
   64
  3
--------------------------------
 72
   65
 73
    0
 40
0
  0
ENDTAB
  0
TABLE
  2
STYLE
  5
3
100
AcDbSymbolTable
 70
     1
  0
STYLE
  5
10
100
AcDbSymbolTableRecord
100
AcDbTextStyleTableRecord
  2
STANDARD
 70
     0
 40
0.0
 41
1.0
 50
0.0
 71
     0
 42
0.2
  3
txt
  4
bigfont.shx
  0
STYLE
  5
26
100
AcDbSymbolTableRecord
100
AcDbTextStyleTableRecord
  2
TATEGAKI
 70
    68
 40
0.0
 41
1.0
 50
0.0
 71
     0
 42
1.0
  3
txt
  4
bigfont.shx
  0
ENDTAB
  0
TABLE
  2
LAYER
 70
    2
  0
LAYER
  2
_0-0_
 70
   64
 62
    7
  6
CONTINUOUS
  0
LAYER
  2
ADD_LINE
 70
   64
 62
    7
  6
CONTINUOUS
  0
ENDTAB
  0
ENDSEC
  0
SECTION
  2
BLOCKS
  0
ENDSEC
  0
SECTION
  2
ENTITIES
  0
LINE
  8
_0-0_
  6
CONTINUOUS
 62
    7
 10
1023.925499156113
 20
1167.9922480620155
 11
1023.925499156113
 21
1434.4326702173551
  0
LINE
  8
_0-0_
  6
CONTINUOUS
 62
    7
 10
672.13606690525205
 20
567.53106997205509
 11
1706.8525777203677
 21
567.53106997205509
  0
LINE
  8
_0-0_
  6
CONTINUOUS
 62
    7
 10
672.13606690525205
 20
167.53106997205509
 11
1706.8525777203677
 21
167.53106997205509
  0
LINE
  8
_0-0_
  6
CONTINUOUS
 62
    7
 10
672.13606690525205
 20
627.53106997205509
 11
1706.8525777203677
 21
627.53106997205509
  0
LINE
  8
_0-0_
  6
CONTINUOUS
 62
    7
 10
1189.4943223128112
 20
627.53106997205509
 11
1189.4943223128112
 21
167.53106997205509
  0
LINE
  8
_0-0_
  6
CONTINUOUS
 62
    7
 10
672.13606690525205
 20
1633.3565543671132
 11
672.13606690525205
 21
167.53106997205509
  0
LINE
  8
_0-0_
  6
CONTINUOUS
 62
    7
 10
1706.8525777203677
 20
1633.3565543671132
 11
1706.8525777203677
 21
167.53106997205509
  0
LINE
  8
_0-0_
  6
CONTINUOUS
 62
    7
 10
1093.3410852713178
 20
772.9922480620146
 11
1373.3410852713178
 21
1052.9922480620155
  0
LINE
  8
_0-0_
  6
CONTINUOUS
 62
    7
 10
1086.2700174594529
 20
772.99224806201551
 11
1366.2700174594529
 21
1052.9922480620146
  0
LINE
  8
_0-0_
  6
CONTINUOUS
 62
    7
 10
873.92549915611482
 20
779.85083192650677
 11
1147.0669152916225
 21
1052.9922480620146
  0
LINE
  8
_0-0_
  6
CONTINUOUS
 62
    7
 10
873.92549915611301
 20
786.92189973837071
 11
1139.9958474797577
 21
1052.9922480620146
  0
LINE
  8
_0-0_
  6
CONTINUOUS
 62
    7
 10
873.92549915611301
 20
793.99296755023647
 11
1132.9247796678928
 21
1052.9922480620146
  0
LINE
  8
_0-0_
  6
CONTINUOUS
 62
    7
 10
1223.9254991561129
 20
872.99224806201551
 11
1523.9254991561129
 21
872.99224806201551
  0
LINE
  8
_0-0_
  6
CONTINUOUS
 62
    7
 10
1223.9254991561129
 20
872.99224806201551
 11
1223.9254991561129
 21
772.99224806201551
  0
LINE
  8
_0-0_
  6
CONTINUOUS
 62
    7
 10
1405.4731196272833
 20
872.99224806201551
 11
1523.9254991561147
 21
991.44462759084604
  0
LINE
  8
_0-0_
  6
CONTINUOUS
 62
    7
 10
1412.5441874391481
 20
872.99224806201551
 11
1523.9254991561129
 21
984.37355977898028
  0
LINE
  8
_0-0_
  6
CONTINUOUS
 62
    7
 10
1419.615255251013
 20
872.99224806201551
 11
1523.9254991561147
 21
977.30249196711543
  0
LINE
  8
_0-0_
  6
CONTINUOUS
 62
    7
 10
1079.1989496475881
 20
772.99224806201551
 11
1359.1989496475881
 21
1052.9922480620155
  0
LINE
  8
_0-0_
  6
CONTINUOUS
 62
    7
 10
1023.925499156113
 20
1052.9922480620155
 11
1523.9254991561129
 21
1052.9922480620155
  0
TEXT
  8
_0-0_
 62
    7
 10
906.73245032900479
 20
575.67973412101151
 40
40
 41
1
 50
0
  1
Ａ
  0
TEXT
  8
_0-0_
 62
    7
 10
1429.6891920142089
 20
576.02721287347708
 40
40
 41
1
 50
0
  1
Ｂ
  0
LINE
  8
_0-0_
  6
CONTINUOUS
 62
    7
 10
1216.1733265094581
 20
1060.4922480620155
 11
1275.9312715000369
 21
1163.9960449416042
  0
POINT
  8
_0-0_
 62
    7
 10
1216.1733265094581
 20
1060.4922480620155
  0
LINE
  8
_0-0_
  6
CONTINUOUS
 62
    7
 10
1023.925499156113
 20
1152.9922480620155
 11
1008.925499156113
 21
1152.9922480620155
  0
LINE
  8
_0-0_
  6
CONTINUOUS
 62
    7
 10
1008.925499156113
 20
1152.9922480620155
 11
1008.925499156113
 21
1167.9922480620155
  0
LINE
  8
_0-0_
  6
CONTINUOUS
 62
    7
 10
1008.925499156113
 20
1167.9922480620155
 11
1023.925499156113
 21
1167.9922480620155
  0
LINE
  8
_0-0_
  6
CONTINUOUS
 62
    4
 10
1029.9254991561129
 20
1158.9922480620155
 11
1008.925499156113
 21
1158.9922480620155
  0
LINE
  8
_0-0_
  6
CONTINUOUS
 62
    7
 10
873.92549915611301
 20
1020.2671375299308
 11
1008.925499156113
 21
1155.2671375299308
  0
LINE
  8
_0-0_
  6
CONTINUOUS
 62
    7
 10
1021.6506096881977
 20
1167.9922480620155
 11
1023.925499156113
 21
1170.2671375299308
  0
LINE
  8
_0-0_
  6
CONTINUOUS
 62
    7
 10
873.92549915611301
 20
1013.1960697180659
 11
1013.7216775000626
 21
1152.9922480620155
  0
LINE
  8
_0-0_
  6
CONTINUOUS
 62
    7
 10
873.92549915611482
 20
1006.125001906202
 11
1020.7927453119274
 21
1152.9922480620155
  0
LINE
  8
_0-0_
  6
CONTINUOUS
 62
    7
 10
1023.925499156113
 20
1052.9922480620155
 11
1023.925499156113
 21
1152.9922480620155
  0
ARC
  8
_0-0_
  6
CONTINUOUS
 62
    2
 10
1047.7450274843168
 20
1177.3719336141514
 40
25.599774038749615
 50
201.49359415795911
 51
225.88654089400154
  0
LINE
  8
_0-0_
  6
CONTINUOUS
 62
    2
 10
1029.1536752893726
 20
1158.9922480620155
 11
1029.5377297269724
 21
1159.3763024996153
  0
LINE
  8
_0-0_
  6
CONTINUOUS
 62
    2
 10
1026.3252481646259
 20
1158.9922480620155
 11
1028.1871405721804
 21
1160.85414046957
  0
LINE
  8
_0-0_
  6
CONTINUOUS
 62
    2
 10
1023.4968210398812
 20
1158.9922480620155
 11
1026.94839510576
 21
1162.4438221278954
  0
LINE
  8
_0-0_
  6
CONTINUOUS
 62
    2
 10
1020.6683939151345
 20
1158.9922480620146
 11
1025.8248435642718
 21
1164.148697711152
  0
LINE
  8
_0-0_
  6
CONTINUOUS
 62
    2
 10
1017.8399667903878
 20
1158.9922480620146
 11
1024.822338532952
 21
1165.9746198045798
  0
LINE
  8
_0-0_
  6
CONTINUOUS
 62
    2
 10
1015.011539665643
 20
1158.9922480620155
 11
1023.949874170362
 21
1167.9305825667363
  0
LINE
  8
_0-0_
  6
CONTINUOUS
 62
    2
 10
1012.1831125408963
 20
1158.9922480620155
 11
1021.1831125408963
 21
1167.9922480620164
  0
LINE
  8
_0-0_
  6
CONTINUOUS
 62
    2
 10
1009.3546854161497
 20
1158.9922480620164
 11
1018.3546854161497
 21
1167.9922480620155
  0
LINE
  8
_0-0_
  6
CONTINUOUS
 62
    2
 10
1008.9254991561148
 20
1161.3914889267264
 11
1015.5262582914012
 21
1167.9922480620155
  0
LINE
  8
_0-0_
  6
CONTINUOUS
 62
    2
 10
1008.925499156113
 20
1164.2199160514704
 11
1012.6978311666581
 21
1167.9922480620146
  0
LINE
  8
_0-0_
  6
CONTINUOUS
 62
    2
 10
1008.925499156113
 20
1167.048343176217
 11
1009.8694040419115
 21
1167.9922480620155
  0
LINE
  8
_0-0_
  6
CONTINUOUS
 62
    7
 10
939.50457202305108
 20
332.52048861090793
 11
905.75457202305108
 21
332.52048861090793
  0
LINE
  8
_0-0_
  6
CONTINUOUS
 62
    7
 10
905.75457202305108
 20
332.52048861090793
 11
905.75457202305108
 21
366.27048861090793
  0
LINE
  8
_0-0_
  6
CONTINUOUS
 62
    7
 10
905.75457202305108
 20
366.27048861090793
 11
939.50457202305108
 21
366.27048861090793
  0
LINE
  8
_0-0_
  6
CONTINUOUS
 62
    4
 10
953.00457202305108
 20
346.02048861090793
 11
905.75457202305108
 21
346.02048861090793
  0
LINE
  8
_0-0_
  6
CONTINUOUS
 62
    7
 10
934.38607072024126
 20
366.27048861090793
 11
939.50457202305108
 21
371.38898991371775
  0
ARC
  8
_0-0_
  6
CONTINUOUS
 62
    2
 10
993.09851076150983
 20
387.37478110321376
 40
57.599491587186634
 50
201.49359415795911
 51
225.88654089400154
  0
LINE
  8
_0-0_
  6
CONTINUOUS
 62
    2
 10
951.2679683228863
 20
346.02048861090793
 11
952.13209080748595
 21
346.88461109550758
  0
LINE
  8
_0-0_
  6
CONTINUOUS
 62
    2
 10
944.90400729220448
 20
346.02048861090793
 11
949.09326520920251
 21
350.20974652790596
  0
LINE
  8
_0-0_
  6
CONTINUOUS
 62
    2
 10
938.54004626152994
 20
346.02048861090793
 11
946.3060879097585
 21
353.78653025913832
  0
LINE
  8
_0-0_
  6
CONTINUOUS
 62
    2
 10
932.17608523084812
 20
346.02048861090611
 11
943.77809694140626
 21
357.62250032146517
  0
LINE
  8
_0-0_
  6
CONTINUOUS
 62
    2
 10
925.81212420016629
 20
346.02048861090611
 11
941.52246062093684
 21
361.73082503167757
  0
LINE
  8
_0-0_
  6
CONTINUOUS
 62
    2
 10
919.44816316949357
 20
346.02048861090793
 11
939.55941580511455
 21
366.13174124652983
  0
LINE
  8
_0-0_
  6
CONTINUOUS
 62
    2
 10
913.08420213881357
 20
346.02048861090793
 11
933.33420213881357
 21
366.27048861090975
  0
LINE
  8
_0-0_
  6
CONTINUOUS
 62
    2
 10
906.72024110813356
 20
346.02048861090975
 11
926.97024110813356
 21
366.27048861090793
  0
LINE
  8
_0-0_
  6
CONTINUOUS
 62
    2
 10
905.7545720230529
 20
351.41878055650727
 11
920.60628007745174
 21
366.27048861090793
  0
LINE
  8
_0-0_
  6
CONTINUOUS
 62
    2
 10
905.75457202305108
 20
357.78274158718182
 11
914.24231904677538
 21
366.27048861090611
  0
LINE
  8
_0-0_
  6
CONTINUOUS
 62
    2
 10
905.75457202305108
 20
364.14670261786182
 11
907.8783580160972
 21
366.27048861090793
  0
LINE
  8
_0-0_
  6
CONTINUOUS
 62
    7
 10
939.50457202305108
 20
366.27048861090793
 11
939.50457202305108
 21
511.18606721464153
  0
LINE
  8
_0-0_
  6
CONTINUOUS
 62
    7
 10
791.24028774411556
 20
223.12470563478223
 11
905.75457202305108
 21
337.63898991371775
  0
LINE
  8
_0-0_
  6
CONTINUOUS
 62
    7
 10
807.15019032081284
 20
223.12470563478223
 11
916.54597329693672
 21
332.52048861090793
  0
LINE
  8
_0-0_
  6
CONTINUOUS
 62
    7
 10
823.0600928975083
 20
223.12470563478223
 11
932.455875873634
 21
332.52048861090793
  0
LINE
  8
_0-0_
  6
CONTINUOUS
 62
    4
 10
953.00457202305108
 20
346.02048861090793
 11
953.00457202305108
 21
223.12470563478223
  0
LINE
  8
_0-0_
  6
CONTINUOUS
 62
    7
 10
939.50457202305108
 20
223.12470563478223
 11
939.50457202305108
 21
332.52048861090793
  0
LINE
  8
_0-0_
  6
CONTINUOUS
 62
    7
 10
953.51410748944647
 20
1440.9858702173553
 11
951.12900748944696
 21
1434.4326702173551
  0
LINE
  8
_0-0_
  6
CONTINUOUS
 62
    7
 10
953.51410748944647
 20
1440.9858702173553
 11
944.33690748944639
 21
1427.8794702173548
  0
LINE
  8
_0-0_
  6
CONTINUOUS
 62
    7
 10
944.33690748944457
 20
1427.8794702173539
 11
946.7220074894459
 21
1434.4326702173551
  0
LINE
  8
_0-0_
  6
CONTINUOUS
 62
    7
 10
860.86667720276557
 20
1434.4326702173551
 11
946.7220074894459
 21
1434.4326702173551
  0
LINE
  8
_0-0_
  6
CONTINUOUS
 62
    7
 10
951.12900748944696
 20
1434.4326702173551
 11
1037.5246414752919
 21
1434.4326702173551
  0
LINE
  8
_0-0_
  6
CONTINUOUS
 62
    7
 10
873.92549915611301
 20
1246.541307509626
 11
1023.925499156113
 21
1396.541307509626
  0
LINE
  8
_0-0_
  6
CONTINUOUS
 62
    7
 10
873.92549915611301
 20
1239.4702396977611
 11
1023.925499156113
 21
1389.4702396977611
  0
LINE
  8
_0-0_
  6
CONTINUOUS
 62
    7
 10
873.92549915611482
 20
1232.3991718858972
 11
1023.925499156113
 21
1382.3991718858981
  0
LINE
  8
_0-0_
  6
CONTINUOUS
 62
    7
 10
873.92549915611301
 20
1434.4326702173551
 11
873.92549915611301
 21
772.99224806201551
  0
CIRCLE
  8
_0-0_
  6
DASHED2
 62
    1
 10
1073.9254991561129
 20
1058.9922480620155
 40
67.350194333739935
  0
TEXT
  8
_0-0_
 62
    7
 10
1062.1027257609067
 20
1114.3468449759378
 40
24
 41
1
 50
0
  1
Ｂ
  0
CIRCLE
  8
_0-0_
  6
DASHED2
 62
    1
 10
1023.925499156113
 20
1167.9922480620155
 40
47.507213168919911
  0
TEXT
  8
_0-0_
 62
    7
 10
990.88025748601387
 20
1199.3142823383025
 40
24
 41
1
 50
0
  1
Ａ
  0
LINE
  8
_0-0_
  6
CONTINUOUS
 62
    7
 10
929.34307284690215
 20
352.70888111874274
 11
985.75992633854833
 21
450.42573776944187
  0
POINT
  8
_0-0_
 62
    7
 10
929.34307284690215
 20
352.70888111874274
  0
TEXT
  8
_0-0_
 62
    7
 10
987.28360781870936
 20
442.52673463905262
 40
21.617968000000001
 41
1
 50
0
  1
ｼｰﾘﾝｸﾞ
  0
TEXT
  8
_0-0_
 62
    7
 10
1280.2451333720028
 20
1151.6190414852783
 40
30
 41
1
 50
0
  1
防水層
  0
LINE
  8
_0-0_
  6
CONTINUOUS
 62
    7
 10
1022.6196214063485
 20
1163.4106373771499
 11
1072.0357106807742
 21
1249.0018147118151
  0
POINT
  8
_0-0_
 62
    7
 10
1022.6196214063485
 20
1163.4106373771499
  0
TEXT
  8
_0-0_
 62
    7
 10
1074.5088904301947
 20
1234.19599858887
 40
30
 41
1
 50
0
  1
ｼｰﾘﾝｸﾞ
  0
LINE
  8
_0-0_
  6
CONTINUOUS
 62
    4
 10
1029.9254991561129
 20
1158.9922480620155
 11
1029.9254991561129
 21
1061.9922480620155
  0
LINE
  8
_0-0_
  6
CONTINUOUS
 62
    4
 10
1029.9254991561129
 20
1061.9922480620155
 11
1523.9254991561129
 21
1061.9922480620155
  0
LINE
  8
_0-0_
  6
CONTINUOUS
 62
    7
 10
1218.1429556409721
 20
424.22582504523598
 11
1292.666543545386
 21
498.74941294964901
  0
LINE
  8
_0-0_
  6
CONTINUOUS
 62
    7
 10
1218.1429556409721
 20
440.13572762193326
 11
1276.7566409686888
 21
498.74941294964901
  0
LINE
  8
_0-0_
  6
CONTINUOUS
 62
    7
 10
1218.1429556409721
 20
456.04563019862871
 11
1260.8467383919933
 21
498.74941294964901
  0
LINE
  8
_0-0_
  6
CONTINUOUS
 62
    7
 10
1307.5642940689604
 20
281.5984673238072
 11
1667.7358966883521
 21
281.5984673238072
  0
LINE
  8
_0-0_
  6
CONTINUOUS
 62
    7
 10
1503.4146771125206
 20
200.3806640624698
 11
1584.6324803738562
 21
281.59846732380447
  0
LINE
  8
_0-0_
  6
CONTINUOUS
 62
    7
 10
1487.5047745358233
 20
200.3806640624698
 11
1568.7225777971589
 21
281.59846732380447
  0
LINE
  8
_0-0_
  6
CONTINUOUS
 62
    7
 10
1471.5948719591279
 20
200.3806640624698
 11
1552.8126752204653
 21
281.59846732380447
  0
LINE
  8
_0-0_
  6
CONTINUOUS
 62
    7
 10
1307.5642940689604
 20
281.5984673238072
 11
1307.5642940689604
 21
498.74941294964901
  0
LINE
  8
_0-0_
  6
CONTINUOUS
 62
    7
 10
1572.7992904858993
 20
281.5984673238072
 11
1604.1639985010561
 21
335.92373517062151
  0
POINT
  8
_0-0_
 62
    7
 10
1572.7992904858993
 20
281.5984673238072
  0
TEXT
  8
_0-0_
 62
    7
 10
1598.7587306129344
 20
337.28383300759629
 40
21.617968000000001
 41
1
 50
0
  1
ﾌﾟﾗｲﾏｰ
  0
LINE
  8
_0-0_
  6
CONTINUOUS
 62
    4
 10
1321.0642940689604
 20
498.74941294964901
 11
1321.0642940689604
 21
301.8484673238072
  0
LINE
  8
_0-0_
  6
CONTINUOUS
 62
    4
 10
1321.0642940689604
 20
301.8484673238072
 11
1667.7358966883521
 21
301.8484673238072
  0
LINE
  8
_0-0_
  6
CONTINUOUS
 62
    7
 10
1432.7362033217823
 20
290.60599687999456
 11
1496.1490842843605
 21
400.4403285614967
  0
TEXT
  8
_0-0_
 62
    7
 10
1500.0097131097036
 20
391.01422044405672
 40
21.617968000000001
 41
1
 50
0
  1
ｳﾚﾀﾝ防水
  0
POINT
  8
_0-0_
 62
    7
 10
1432.7362033217823
 20
290.60599687999456
  0
LINE
  8
_0-0_
  6
CONTINUOUS
 62
    7
 10
1350.070979470217
 20
301.8484673238072
 11
1441.3278505550124
 21
459.91000458243366
  0
POINT
  8
_0-0_
 62
    7
 10
1350.070979470217
 20
301.8484673238072
  0
TEXT
  8
_0-0_
 62
    7
 10
1447.2953957385698
 20
450.75711346467369
 40
21.617968000000001
 41
1
 50
0
  1
ﾄｯﾌﾟｺｰﾄ
  0
LINE
  8
_0-0_
  6
CONTINUOUS
 62
    7
 10
672.13606690525205
 20
1553.3565543671132
 11
1706.8525777203677
 21
1553.3565543671132
  0
LINE
  8
_0-0_
  6
CONTINUOUS
 62
    7
 10
672.13606690525205
 20
1633.3565543671132
 11
1706.8525777203677
 21
1633.3565543671132
  0
LINE
  8
_0-0_
  6
CONTINUOUS
 62
    7
 10
672.13606690525205
 20
1473.3565543671132
 11
1706.8525777203677
 21
1473.3565543671132
  0
LINE
  8
_0-0_
  6
CONTINUOUS
 62
    7
 10
1189.4943223128093
 20
1633.3565543671132
 11
1189.4943223128093
 21
1473.3565543671132
  0
TEXT
  8
_0-0_
 62
    7
 10
1213.4943223128093
 20
1577.3565543671132
 40
20
 41
1
 50
0
  1
構造：ＲＣ造
  0
TEXT
  8
_0-0_
 62
    7
 10
1213.4943223128093
 20
1497.3565543671132
 40
20
 41
1
 50
0
  1
下地：コンクリートスラブ
  0
TEXT
  8
_0-0_
 62
    7
 10
696.13606690525205
 20
1577.3565543671132
 40
20
 41
1
 50
0
  1
図面番号：UPM-10-kabe-02
  0
TEXT
  8
_0-0_
 62
    7
 10
696.13606690525205
 20
1497.3565543671132
 40
20
 41
1
 50
0
  1
施工部位：壁面立上り（目地切り）
  0
ENDSEC
  0
EOF
