  0
SECTION
  2
HEADER
  9
$ACADVER
  1
AC1009
  9
$INSBASE
 10
0
 20
0
 30
0
  9
$EXTMIN
 10
0
 20
0
  9
$EXTMAX
 10
2378
 20
1682
  9
$LIMMIN
 10
0
 20
0
  9
$LIMMAX
 10
2378
 20
1682
  9
$LTSCALE
 40
1
  0
ENDSEC
  0
SECTION
  2
TABLES
  0
TABLE
  2
LTYPE
 70
     9
  0
LTYPE
  2
CONTINUOUS
 70
    64
  3
実線
 72
    65
 73
     0
 40
0.0
  0
LTYPE
  2
DASHED1
 70
    64
  3
--  --  --  --  --  --  --  --  
 72
    65
 73
     2
 40
2.5
 49
1.25
 49
-1.25
  0
LTYPE
  2
DASHED2
 70
    64
  3
----    ----    ----    ----    
 72
    65
 73
     2
 40
5.0
 49
2.5
 49
-2.5
  0
LTYPE
  2
DASHED3
 70
    64
  3
------  ------  ------  ------  
 72
    65
 73
     2
 40
5.0
 49
3.75
 49
-1.25
  0
LTYPE
  2
CENTER1
 70
    64
  3
----- - ----- - ----- - ----- - 
 72
    65
 73
     4
 40
10.0
 49
6.25
 49
-1.25
 49
1.25
 49
-1.25
  0
LTYPE
  2
CENTER2
 70
    64
  3
----------  --  ----------  --  
 72
    65
 73
     4
 40
20.0
 49
12.5
 49
-2.5
 49
2.5
 49
-2.5
  0
LTYPE
  2
PHANTOM1
 70
    64
  3
--- - - --- - - --- - - --- - - 
 72
    65
 73
     6
 40
10.0
 49
3.25
 49
-1.25
 49
1.25
 49
-1.25
 49
1.25
 49
-1.25
  0
LTYPE
  2
PHANTOM2
 70
    64
  3
--------  -  -  --------  -  -  
 72
    65
 73
     6
 40
20.0
 49
10.0
 49
-2.5
 49
1.25
 49
-2.5
 49
1.25
 49
-2.5
  0
LTYPE
  2
DOT
 70
    64
  3
-   -   -   -   -   -   -   -   
 72
    65
 73
     2
 40
2.5
 49
0.625
 49
-1.875
  0
LTYPE
  2
DUMMY
 70
    64
  3
ダミー
 72
    65
 73
     0
 40
0.0
  0
LTYPE
  2
RAND1
 70
    64
  3
ランダム線1
 72
    65
 73
     4
 40
10.0
 49
1.0
 49
-2.0
 49
3.0
 49
-4.0
  0
LTYPE
  2
RAND2
 70
    64
  3
ランダム線2
 72
    65
 73
     4
 40
14.0
 49
2.0
 49
-3.0
 49
4.0
 49
-5.0
  0
LTYPE
  2
RAND3
 70
    64
  3
ランダム線3
 72
    65
 73
     4
 40
18.0
 49
3.0
 49
-4.0
 49
5.0
 49
-6.0
  0
LTYPE
  2
RAND4
 70
    64
  3
ランダム線4
 72
    65
 73
     4
 40
22.0
 49
4.0
 49
-5.0
 49
6.0
 49
-7.0
  0
LTYPE
  2
RAND5
 70
    64
  3
ランダム線5
 72
    65
 73
     4
 40
26.0
 49
5.0
 49
-6.0
 49
7.0
 49
-8.0
  0
LTYPE
  2
LONG1
 70
    64
  3
----------  --  ----------  --  
 72
    65
 73
     4
 40
40.0
 49
32.5
 49
-2.5
 49
2.5
 49
-2.5
  0
LTYPE
  2
LONG2
 70
    64
  3
--------  -  -  --------  -  -  
 72
    65
 73
     6
 40
40.0
 49
30.0
 49
-2.5
 49
1.25
 49
-2.5
 49
1.25
 49
-2.5
  0
LTYPE
  2
LONG3
 70
    64
  3
+++++++++++++++..+++++++++++++++
 72
    65
 73
     2
 40
40.0
 49
37.5
 49
-2.5
  0
LTYPE
  2
LONG4
 70
    64
  3
+++++++++++++++..+++++++++++++++
 72
    65
 73
     2
 40
80.0
 49
75.0
 49
-5.0
  0
LTYPE
  2
LONG5
 70
    64
  3
----------  --  ----------  --  
 72
    65
 73
     4
 40
60.0
 49
37.5
 49
-7.5
 49
7.5
 49
-7.5
  0
LTYPE
  2
dashed
 70
   64
  3
-------   -------------   ------
 72
   65
 73
    2
 40
7.5
 49
6
 49
-1.5
  0
LTYPE
  2
dashed_spaced
 70
   64
  3
----        --------        ----
 72
   65
 73
    2
 40
12
 49
6
 49
-6
  0
LTYPE
  2
long_dashed_dotted
 70
   64
  3
------------- --- --------------
 72
   65
 73
    4
 40
15.25
 49
12
 49
-1.5
 49
0.25
 49
-1.5
  0
LTYPE
  2
long_dashed_double-dotted
 70
   64
  3
----------- --- --- ------------
 72
   65
 73
    6
 40
17
 49
12
 49
-1.5
 49
0.25
 49
-1.5
 49
0.25
 49
-1.5
  0
LTYPE
  2
long_dashed_triplicate-dotted
 70
   64
  3
--------- --- --- --- ----------
 72
   65
 73
    8
 40
18.75
 49
12
 49
-1.5
 49
0.25
 49
-1.5
 49
0.25
 49
-1.5
 49
0.25
 49
-1.5
  0
LTYPE
  2
dotted
 70
   64
  3
   -       -       -       -    
 72
   65
 73
    2
 40
1.75
 49
0.25
 49
-1.5
  0
LTYPE
  2
chain
 70
   64
  3
-------------- -- --------------
 72
   65
 73
    4
 40
18.5
 49
12
 49
-1.5
 49
3.5
 49
-1.5
  0
LTYPE
  2
chain_double_dash
 70
   64
  3
------------ -- -- -------------
 72
   65
 73
    6
 40
23.5
 49
12
 49
-1.5
 49
3.5
 49
-1.5
 49
3.5
 49
-1.5
  0
LTYPE
  2
dashed_dotted
 70
   64
  3
-----------     -     ----------
 72
   65
 73
    4
 40
9.25
 49
6
 49
-1.5
 49
0.25
 49
-1.5
  0
LTYPE
  2
double-dashed_dotted
 70
   64
  3
------   -----------   -   -----
 72
   65
 73
    6
 40
16.75
 49
6
 49
-1.5
 49
6
 49
-1.5
 49
0.25
 49
-1.5
  0
LTYPE
  2
dashed_double-dotted
 70
   64
  3
---------    -    -    ---------
 72
   65
 73
    6
 40
11
 49
6
 49
-1.5
 49
0.25
 49
-1.5
 49
0.25
 49
-1.5
  0
LTYPE
  2
double-dashed_double-dotted
 70
   64
  3
-----   ---------   -   -   ----
 72
   65
 73
    8
 40
18.5
 49
6
 49
-1.5
 49
6
 49
-1.5
 49
0.25
 49
-1.5
 49
0.25
 49
-1.5
  0
LTYPE
  2
dashed_triplicate-dotted
 70
   64
  3
-------    -    -    -    ------
 72
   65
 73
    8
 40
12.75
 49
6
 49
-1.5
 49
0.25
 49
-1.5
 49
0.25
 49
-1.5
 49
0.25
 49
-1.5
  0
LTYPE
  2
double-dashed_triplicate-dotted
 70
   64
  3
-----  ---------  -  -  -  -----
 72
   65
 73
   10
 40
20.25
 49
6
 49
-1.5
 49
6
 49
-1.5
 49
0.25
 49
-1.5
 49
0.25
 49
-1.5
 49
0.25
 49
-1.5
  0
LTYPE
  2
undefined
 70
   64
  3
--------------------------------
 72
   65
 73
    0
 40
0
  0
ENDTAB
  0
TABLE
  2
STYLE
  5
3
100
AcDbSymbolTable
 70
     1
  0
STYLE
  5
10
100
AcDbSymbolTableRecord
100
AcDbTextStyleTableRecord
  2
STANDARD
 70
     0
 40
0.0
 41
1.0
 50
0.0
 71
     0
 42
0.2
  3
txt
  4
bigfont.shx
  0
STYLE
  5
26
100
AcDbSymbolTableRecord
100
AcDbTextStyleTableRecord
  2
TATEGAKI
 70
    68
 40
0.0
 41
1.0
 50
0.0
 71
     0
 42
1.0
  3
txt
  4
bigfont.shx
  0
ENDTAB
  0
TABLE
  2
LAYER
 70
    2
  0
LAYER
  2
_0-0_
 70
   64
 62
    7
  6
CONTINUOUS
  0
LAYER
  2
ADD_LINE
 70
   64
 62
    7
  6
CONTINUOUS
  0
ENDTAB
  0
ENDSEC
  0
SECTION
  2
BLOCKS
  0
ENDSEC
  0
SECTION
  2
ENTITIES
  0
LINE
  8
_0-0_
  6
CONTINUOUS
 62
    7
 10
1043.925499156112
 20
1158.9922480620155
 11
1023.9254991561121
 21
1158.9922480620155
  0
LINE
  8
_0-0_
  6
CONTINUOUS
 62
    7
 10
672.13606690525205
 20
567.53106997205509
 11
1706.8525777203668
 21
567.53106997205509
  0
LINE
  8
_0-0_
  6
CONTINUOUS
 62
    7
 10
672.13606690525205
 20
167.53106997205509
 11
1706.8525777203668
 21
167.53106997205509
  0
LINE
  8
_0-0_
  6
CONTINUOUS
 62
    7
 10
672.13606690525205
 20
627.53106997205509
 11
1706.8525777203668
 21
627.53106997205509
  0
LINE
  8
_0-0_
  6
CONTINUOUS
 62
    7
 10
1189.4943223128103
 20
627.53106997205509
 11
1189.4943223128103
 21
167.53106997205509
  0
LINE
  8
_0-0_
  6
CONTINUOUS
 62
    7
 10
672.13606690525205
 20
1633.3565543671132
 11
672.13606690525205
 21
167.53106997205509
  0
LINE
  8
_0-0_
  6
CONTINUOUS
 62
    7
 10
1706.8525777203668
 20
1633.3565543671132
 11
1706.8525777203668
 21
167.53106997205509
  0
LINE
  8
_0-0_
  6
CONTINUOUS
 62
    7
 10
1093.3410852713168
 20
772.9922480620146
 11
1373.3410852713168
 21
1052.9922480620155
  0
LINE
  8
_0-0_
  6
CONTINUOUS
 62
    7
 10
1086.270017459452
 20
772.99224806201551
 11
1366.270017459452
 21
1052.9922480620146
  0
LINE
  8
_0-0_
  6
CONTINUOUS
 62
    7
 10
873.92549915611391
 20
779.85083192650677
 11
1147.0669152916216
 21
1052.9922480620146
  0
LINE
  8
_0-0_
  6
CONTINUOUS
 62
    7
 10
873.9254991561121
 20
786.92189973837071
 11
1139.9958474797568
 21
1052.9922480620146
  0
LINE
  8
_0-0_
  6
CONTINUOUS
 62
    7
 10
873.9254991561121
 20
793.99296755023647
 11
1132.9247796678919
 21
1052.9922480620146
  0
LINE
  8
_0-0_
  6
CONTINUOUS
 62
    7
 10
1223.925499156112
 20
872.99224806201551
 11
1523.925499156112
 21
872.99224806201551
  0
LINE
  8
_0-0_
  6
CONTINUOUS
 62
    7
 10
1223.925499156112
 20
872.99224806201551
 11
1223.925499156112
 21
772.99224806201551
  0
LINE
  8
_0-0_
  6
CONTINUOUS
 62
    7
 10
1405.4731196272824
 20
872.99224806201551
 11
1523.9254991561138
 21
991.44462759084604
  0
LINE
  8
_0-0_
  6
CONTINUOUS
 62
    7
 10
1412.5441874391472
 20
872.99224806201551
 11
1523.925499156112
 21
984.37355977898028
  0
LINE
  8
_0-0_
  6
CONTINUOUS
 62
    7
 10
1419.6152552510121
 20
872.99224806201551
 11
1523.9254991561138
 21
977.30249196711543
  0
LINE
  8
_0-0_
  6
CONTINUOUS
 62
    7
 10
1079.1989496475871
 20
772.99224806201551
 11
1359.1989496475871
 21
1052.9922480620155
  0
LINE
  8
_0-0_
  6
CONTINUOUS
 62
    7
 10
1023.9254991561121
 20
1052.9922480620155
 11
1523.925499156112
 21
1052.9922480620155
  0
TEXT
  8
_0-0_
 62
    7
 10
906.73245032900388
 20
575.67973412101151
 40
40
 41
1
 50
0
  1
Ａ
  0
TEXT
  8
_0-0_
 62
    7
 10
1429.6891920142098
 20
576.02721287347708
 40
40
 41
1
 50
0
  1
Ｂ
  0
LINE
  8
_0-0_
  6
CONTINUOUS
 62
    7
 10
1216.1733265094572
 20
1060.4922480620155
 11
1275.931271500036
 21
1163.9960449416042
  0
POINT
  8
_0-0_
 62
    7
 10
1216.1733265094572
 20
1060.4922480620155
  0
LINE
  8
_0-0_
  6
CONTINUOUS
 62
    7
 10
1023.9254991561121
 20
1052.9922480620155
 11
1023.9254991561121
 21
1158.9922480620155
  0
LINE
  8
_0-0_
  6
CONTINUOUS
 62
    7
 10
873.9254991561121
 20
1020.2671375299308
 11
1043.925499156112
 21
1190.2671375299308
  0
LINE
  8
_0-0_
  6
CONTINUOUS
 62
    7
 10
873.9254991561121
 20
1013.1960697180659
 11
1043.925499156112
 21
1183.1960697180659
  0
LINE
  8
_0-0_
  6
CONTINUOUS
 62
    7
 10
1026.7927453119264
 20
1158.9922480620155
 11
1043.925499156112
 21
1176.1250019062011
  0
LINE
  8
_0-0_
  6
CONTINUOUS
 62
    7
 10
873.92549915611391
 20
1006.125001906202
 11
1023.9254991561121
 21
1156.1250019062011
  0
LINE
  8
_0-0_
  6
CONTINUOUS
 62
    7
 10
963.42404853958408
 20
1440.9858702173553
 11
954.24684853958399
 21
1427.8794702173548
  0
LINE
  8
_0-0_
  6
CONTINUOUS
 62
    7
 10
963.42404853958408
 20
1440.9858702173553
 11
961.03894853958457
 21
1434.4326702173551
  0
LINE
  8
_0-0_
  6
CONTINUOUS
 62
    7
 10
954.24684853958399
 20
1427.8794702173539
 11
956.63194853958532
 21
1434.4326702173551
  0
LINE
  8
_0-0_
  6
CONTINUOUS
 62
    7
 10
860.77661825290318
 20
1434.4326702173551
 11
956.63194853958532
 21
1434.4326702173551
  0
LINE
  8
_0-0_
  6
CONTINUOUS
 62
    7
 10
961.03894853958457
 20
1434.4326702173551
 11
1057.4345825254313
 21
1434.4326702173551
  0
LINE
  8
_0-0_
  6
CONTINUOUS
 62
    7
 10
873.9254991561121
 20
1434.4326702173551
 11
873.9254991561121
 21
772.99224806201551
  0
LINE
  8
_0-0_
  6
CONTINUOUS
 62
    7
 10
1043.925499156112
 20
1158.9922480620155
 11
1043.925499156112
 21
1434.4326702173551
  0
LINE
  8
_0-0_
  6
CONTINUOUS
 62
    7
 10
873.9254991561121
 20
1246.541307509626
 11
1043.925499156112
 21
1416.5413075096251
  0
LINE
  8
_0-0_
  6
CONTINUOUS
 62
    7
 10
873.9254991561121
 20
1239.4702396977611
 11
1043.925499156112
 21
1409.4702396977611
  0
LINE
  8
_0-0_
  6
CONTINUOUS
 62
    7
 10
873.92549915611391
 20
1232.3991718858972
 11
1043.925499156112
 21
1402.399171885899
  0
ARC
  8
_0-0_
  6
CONTINUOUS
 62
    2
 10
1066.5536812488153
 20
1122.3640659693131
 40
43.054132766050088
 50
121.70696983898064
 51
148.29303016101935
  0
LINE
  8
_0-0_
  6
CONTINUOUS
 62
    2
 10
1029.925499156112
 20
1145.3246617864427
 11
1030.5044093276501
 21
1145.9035719579799
  0
LINE
  8
_0-0_
  6
CONTINUOUS
 62
    2
 10
1043.0141752601485
 20
1158.4133378904783
 11
1043.5930854316848
 21
1158.9922480620155
  0
LINE
  8
_0-0_
  6
CONTINUOUS
 62
    2
 10
1029.925499156112
 20
1148.1530889111893
 11
1040.7646583069381
 21
1158.9922480620146
  0
LINE
  8
_0-0_
  6
CONTINUOUS
 62
    2
 10
1029.9254991561138
 20
1150.9815160359351
 11
1037.9362311821933
 21
1158.9922480620146
  0
LINE
  8
_0-0_
  6
CONTINUOUS
 62
    2
 10
1029.9254991561138
 20
1153.8099431606818
 11
1035.1078040574466
 21
1158.9922480620155
  0
LINE
  8
_0-0_
  6
CONTINUOUS
 62
    2
 10
1029.925499156112
 20
1156.6383702854275
 11
1032.2793769327
 21
1158.9922480620155
  0
LINE
  8
_0-0_
  6
CONTINUOUS
 62
    7
 10
962.5198203743895
 20
370.74005731514831
 11
917.5198203743895
 21
370.74005731514831
  0
LINE
  8
_0-0_
  6
CONTINUOUS
 62
    7
 10
923.97112422496878
 20
370.74005731514831
 11
962.5198203743895
 21
409.28875346456539
  0
ARC
  8
_0-0_
  6
CONTINUOUS
 62
    2
 10
1013.4332300829702
 20
288.32664760656758
 40
96.871798723612699
 50
121.70696983898064
 51
148.29303016101935
  0
LINE
  8
_0-0_
  6
CONTINUOUS
 62
    2
 10
931.0198203743895
 20
339.98798819510944
 11
932.32236826034762
 21
341.29053608106847
  0
LINE
  8
_0-0_
  6
CONTINUOUS
 62
    2
 10
960.46934160846843
 20
369.43750942918928
 11
961.77188949442836
 21
370.74005731514831
  0
LINE
  8
_0-0_
  6
CONTINUOUS
 62
    2
 10
931.01982037438768
 20
346.35194922578944
 11
955.40792846374654
 21
370.74005731514649
  0
LINE
  8
_0-0_
  6
CONTINUOUS
 62
    2
 10
931.01982037439132
 20
352.71591025646762
 11
949.04396743307018
 21
370.74005731514649
  0
LINE
  8
_0-0_
  6
CONTINUOUS
 62
    2
 10
931.01982037439132
 20
359.07987128714763
 11
942.680006402392
 21
370.74005731514831
  0
LINE
  8
_0-0_
  6
CONTINUOUS
 62
    2
 10
931.0198203743895
 20
365.44383231782581
 11
936.31604537171199
 21
370.74005731514831
  0
LINE
  8
_0-0_
  6
CONTINUOUS
 62
    7
 10
749.00553609545398
 20
227.5942743390226
 11
962.5198203743895
 21
441.10855861795812
  0
LINE
  8
_0-0_
  6
CONTINUOUS
 62
    7
 10
764.91543867214943
 20
227.5942743390226
 11
962.5198203743895
 21
425.19865604126176
  0
LINE
  8
_0-0_
  6
CONTINUOUS
 62
    7
 10
780.82534124884671
 20
227.5942743390226
 11
917.5198203743895
 21
364.28875346456539
  0
LINE
  8
_0-0_
  6
CONTINUOUS
 62
    7
 10
917.5198203743895
 20
227.5942743390226
 11
917.5198203743895
 21
370.74005731514831
  0
LINE
  8
_0-0_
  6
CONTINUOUS
 62
    4
 10
931.0198203743895
 20
370.74005731514831
 11
931.0198203743895
 21
227.5942743390226
  0
LINE
  8
_0-0_
  6
CONTINUOUS
 62
    7
 10
962.5198203743895
 20
370.74005731514831
 11
962.5198203743895
 21
515.6556359188819
  0
CIRCLE
  8
_0-0_
  6
DASHED2
 62
    1
 10
1073.925499156112
 20
1058.9922480620155
 40
67.350194333739935
  0
TEXT
  8
_0-0_
 62
    7
 10
1061.6337537969575
 20
1114.3041363343648
 40
24
 41
1
 50
0
  1
Ｂ
  0
CIRCLE
  8
_0-0_
  6
DASHED2
 62
    1
 10
1029.925499156112
 20
1158.9922480620155
 40
37.146580028874958
  0
TEXT
  8
_0-0_
 62
    7
 10
998.36270444083686
 20
1179.0441725931817
 40
24
 41
1
 50
0
  1
Ａ
  0
LINE
  8
_0-0_
  6
CONTINUOUS
 62
    7
 10
942.79811433799671
 20
361.98705854438413
 11
1004.3614497458149
 21
468.61788335413166
  0
POINT
  8
_0-0_
 62
    7
 10
942.79811433799671
 20
361.98705854438413
  0
TEXT
  8
_0-0_
 62
    7
 10
1007.0850241938061
 20
459.52581832561373
 40
21.617968000000001
 41
1
 50
0
  1
ｼｰﾘﾝｸﾞ
  0
TEXT
  8
_0-0_
 62
    7
 10
1281.3935952223401
 20
1149.4246983553551
 40
30
 41
1
 50
0
  1
防水層
  0
LINE
  8
_0-0_
  6
CONTINUOUS
 62
    4
 10
1029.925499156112
 20
1158.9922480620155
 11
1029.925499156112
 21
1061.9922480620155
  0
LINE
  8
_0-0_
  6
CONTINUOUS
 62
    4
 10
1029.925499156112
 20
1061.9922480620155
 11
1523.925499156112
 21
1061.9922480620155
  0
LINE
  8
_0-0_
  6
CONTINUOUS
 62
    7
 10
1226.9838603283697
 20
430.56693424432547
 11
1301.5074482327836
 21
505.0905221487385
  0
LINE
  8
_0-0_
  6
CONTINUOUS
 62
    7
 10
1226.9838603283697
 20
446.47683682102274
 11
1285.5975456560864
 21
505.0905221487385
  0
LINE
  8
_0-0_
  6
CONTINUOUS
 62
    7
 10
1226.9838603283697
 20
462.3867393977182
 11
1269.6876430793909
 21
505.0905221487385
  0
LINE
  8
_0-0_
  6
CONTINUOUS
 62
    7
 10
1316.405198756358
 20
287.93957652289669
 11
1676.5768013757497
 21
287.93957652289669
  0
LINE
  8
_0-0_
  6
CONTINUOUS
 62
    7
 10
1512.2555817999182
 20
206.72177326155929
 11
1593.4733850612538
 21
287.93957652289396
  0
LINE
  8
_0-0_
  6
CONTINUOUS
 62
    7
 10
1496.3456792232209
 20
206.72177326155929
 11
1577.5634824845565
 21
287.93957652289396
  0
LINE
  8
_0-0_
  6
CONTINUOUS
 62
    7
 10
1480.4357766465255
 20
206.72177326155929
 11
1561.6535799078629
 21
287.93957652289396
  0
LINE
  8
_0-0_
  6
CONTINUOUS
 62
    7
 10
1316.405198756358
 20
287.93957652289669
 11
1316.405198756358
 21
505.0905221487385
  0
LINE
  8
_0-0_
  6
CONTINUOUS
 62
    7
 10
1581.6401951732969
 20
287.93957652289669
 11
1613.0049031884537
 21
342.264844369711
  0
POINT
  8
_0-0_
 62
    7
 10
1581.6401951732969
 20
287.93957652289669
  0
TEXT
  8
_0-0_
 62
    7
 10
1607.599635300332
 20
343.62494220668577
 40
21.617968000000001
 41
1
 50
0
  1
ﾌﾟﾗｲﾏｰ
  0
LINE
  8
_0-0_
  6
CONTINUOUS
 62
    4
 10
1329.905198756358
 20
505.0905221487385
 11
1329.905198756358
 21
308.18957652289669
  0
LINE
  8
_0-0_
  6
CONTINUOUS
 62
    4
 10
1329.905198756358
 20
308.18957652289669
 11
1676.5768013757497
 21
308.18957652289669
  0
LINE
  8
_0-0_
  6
CONTINUOUS
 62
    7
 10
1441.5771080091799
 20
296.94710607908405
 11
1504.9899889717581
 21
406.78143776058619
  0
TEXT
  8
_0-0_
 62
    7
 10
1508.8506177971012
 20
397.35532964314621
 40
21.617968000000001
 41
1
 50
0
  1
ｳﾚﾀﾝ防水
  0
POINT
  8
_0-0_
 62
    7
 10
1441.5771080091799
 20
296.94710607908405
  0
LINE
  8
_0-0_
  6
CONTINUOUS
 62
    7
 10
1358.9118841576146
 20
308.18957652289669
 11
1450.16875524241
 21
466.25111378152315
  0
POINT
  8
_0-0_
 62
    7
 10
1358.9118841576146
 20
308.18957652289669
  0
TEXT
  8
_0-0_
 62
    7
 10
1456.1363004259674
 20
457.09822266376318
 40
21.617968000000001
 41
1
 50
0
  1
ﾄｯﾌﾟｺｰﾄ
  0
LINE
  8
_0-0_
  6
CONTINUOUS
 62
    7
 10
672.13606690525205
 20
1633.3565543671132
 11
1706.8525777203668
 21
1633.3565543671132
  0
LINE
  8
_0-0_
  6
CONTINUOUS
 62
    7
 10
672.13606690525205
 20
1553.3565543671132
 11
1706.8525777203668
 21
1553.3565543671132
  0
LINE
  8
_0-0_
  6
CONTINUOUS
 62
    7
 10
672.13606690525205
 20
1473.3565543671132
 11
1706.8525777203668
 21
1473.3565543671132
  0
LINE
  8
_0-0_
  6
CONTINUOUS
 62
    7
 10
1189.4943223128103
 20
1633.3565543671132
 11
1189.4943223128103
 21
1473.3565543671132
  0
TEXT
  8
_0-0_
 62
    7
 10
1213.4943223128103
 20
1577.3565543671132
 40
20
 41
1
 50
0
  1
構造：ＲＣ造
  0
TEXT
  8
_0-0_
 62
    7
 10
1213.4943223128103
 20
1497.3565543671132
 40
20
 41
1
 50
0
  1
下地：コンクリートスラブ
  0
TEXT
  8
_0-0_
 62
    7
 10
696.13606690525205
 20
1577.3565543671132
 40
20
 41
1
 50
0
  1
図面番号：UPM-10-kabe-01
  0
TEXT
  8
_0-0_
 62
    7
 10
696.13606690525205
 20
1497.3565543671132
 40
20
 41
1
 50
0
  1
施工部位：壁面立上り(入り巾木)
  0
ENDSEC
  0
EOF
