  0
SECTION
  2
HEADER
  9
$ACADVER
  1
AC1009
  9
$INSBASE
 10
0
 20
0
 30
0
  9
$EXTMIN
 10
0
 20
0
  9
$EXTMAX
 10
2378
 20
1682
  9
$LIMMIN
 10
0
 20
0
  9
$LIMMAX
 10
2378
 20
1682
  9
$LTSCALE
 40
1
  0
ENDSEC
  0
SECTION
  2
TABLES
  0
TABLE
  2
LTYPE
 70
     9
  0
LTYPE
  2
CONTINUOUS
 70
    64
  3
実線
 72
    65
 73
     0
 40
0.0
  0
LTYPE
  2
DASHED1
 70
    64
  3
--  --  --  --  --  --  --  --  
 72
    65
 73
     2
 40
2.5
 49
1.25
 49
-1.25
  0
LTYPE
  2
DASHED2
 70
    64
  3
----    ----    ----    ----    
 72
    65
 73
     2
 40
5.0
 49
2.5
 49
-2.5
  0
LTYPE
  2
DASHED3
 70
    64
  3
------  ------  ------  ------  
 72
    65
 73
     2
 40
5.0
 49
3.75
 49
-1.25
  0
LTYPE
  2
CENTER1
 70
    64
  3
----- - ----- - ----- - ----- - 
 72
    65
 73
     4
 40
10.0
 49
6.25
 49
-1.25
 49
1.25
 49
-1.25
  0
LTYPE
  2
CENTER2
 70
    64
  3
----------  --  ----------  --  
 72
    65
 73
     4
 40
20.0
 49
12.5
 49
-2.5
 49
2.5
 49
-2.5
  0
LTYPE
  2
PHANTOM1
 70
    64
  3
--- - - --- - - --- - - --- - - 
 72
    65
 73
     6
 40
10.0
 49
3.25
 49
-1.25
 49
1.25
 49
-1.25
 49
1.25
 49
-1.25
  0
LTYPE
  2
PHANTOM2
 70
    64
  3
--------  -  -  --------  -  -  
 72
    65
 73
     6
 40
20.0
 49
10.0
 49
-2.5
 49
1.25
 49
-2.5
 49
1.25
 49
-2.5
  0
LTYPE
  2
DOT
 70
    64
  3
-   -   -   -   -   -   -   -   
 72
    65
 73
     2
 40
2.5
 49
0.625
 49
-1.875
  0
LTYPE
  2
DUMMY
 70
    64
  3
ダミー
 72
    65
 73
     0
 40
0.0
  0
LTYPE
  2
RAND1
 70
    64
  3
ランダム線1
 72
    65
 73
     4
 40
10.0
 49
1.0
 49
-2.0
 49
3.0
 49
-4.0
  0
LTYPE
  2
RAND2
 70
    64
  3
ランダム線2
 72
    65
 73
     4
 40
14.0
 49
2.0
 49
-3.0
 49
4.0
 49
-5.0
  0
LTYPE
  2
RAND3
 70
    64
  3
ランダム線3
 72
    65
 73
     4
 40
18.0
 49
3.0
 49
-4.0
 49
5.0
 49
-6.0
  0
LTYPE
  2
RAND4
 70
    64
  3
ランダム線4
 72
    65
 73
     4
 40
22.0
 49
4.0
 49
-5.0
 49
6.0
 49
-7.0
  0
LTYPE
  2
RAND5
 70
    64
  3
ランダム線5
 72
    65
 73
     4
 40
26.0
 49
5.0
 49
-6.0
 49
7.0
 49
-8.0
  0
LTYPE
  2
LONG1
 70
    64
  3
----------  --  ----------  --  
 72
    65
 73
     4
 40
40.0
 49
32.5
 49
-2.5
 49
2.5
 49
-2.5
  0
LTYPE
  2
LONG2
 70
    64
  3
--------  -  -  --------  -  -  
 72
    65
 73
     6
 40
40.0
 49
30.0
 49
-2.5
 49
1.25
 49
-2.5
 49
1.25
 49
-2.5
  0
LTYPE
  2
LONG3
 70
    64
  3
+++++++++++++++..+++++++++++++++
 72
    65
 73
     2
 40
40.0
 49
37.5
 49
-2.5
  0
LTYPE
  2
LONG4
 70
    64
  3
+++++++++++++++..+++++++++++++++
 72
    65
 73
     2
 40
80.0
 49
75.0
 49
-5.0
  0
LTYPE
  2
LONG5
 70
    64
  3
----------  --  ----------  --  
 72
    65
 73
     4
 40
60.0
 49
37.5
 49
-7.5
 49
7.5
 49
-7.5
  0
LTYPE
  2
dashed
 70
   64
  3
-------   -------------   ------
 72
   65
 73
    2
 40
7.5
 49
6
 49
-1.5
  0
LTYPE
  2
dashed_spaced
 70
   64
  3
----        --------        ----
 72
   65
 73
    2
 40
12
 49
6
 49
-6
  0
LTYPE
  2
long_dashed_dotted
 70
   64
  3
------------- --- --------------
 72
   65
 73
    4
 40
15.25
 49
12
 49
-1.5
 49
0.25
 49
-1.5
  0
LTYPE
  2
long_dashed_double-dotted
 70
   64
  3
----------- --- --- ------------
 72
   65
 73
    6
 40
17
 49
12
 49
-1.5
 49
0.25
 49
-1.5
 49
0.25
 49
-1.5
  0
LTYPE
  2
long_dashed_triplicate-dotted
 70
   64
  3
--------- --- --- --- ----------
 72
   65
 73
    8
 40
18.75
 49
12
 49
-1.5
 49
0.25
 49
-1.5
 49
0.25
 49
-1.5
 49
0.25
 49
-1.5
  0
LTYPE
  2
dotted
 70
   64
  3
   -       -       -       -    
 72
   65
 73
    2
 40
1.75
 49
0.25
 49
-1.5
  0
LTYPE
  2
chain
 70
   64
  3
-------------- -- --------------
 72
   65
 73
    4
 40
18.5
 49
12
 49
-1.5
 49
3.5
 49
-1.5
  0
LTYPE
  2
chain_double_dash
 70
   64
  3
------------ -- -- -------------
 72
   65
 73
    6
 40
23.5
 49
12
 49
-1.5
 49
3.5
 49
-1.5
 49
3.5
 49
-1.5
  0
LTYPE
  2
dashed_dotted
 70
   64
  3
-----------     -     ----------
 72
   65
 73
    4
 40
9.25
 49
6
 49
-1.5
 49
0.25
 49
-1.5
  0
LTYPE
  2
double-dashed_dotted
 70
   64
  3
------   -----------   -   -----
 72
   65
 73
    6
 40
16.75
 49
6
 49
-1.5
 49
6
 49
-1.5
 49
0.25
 49
-1.5
  0
LTYPE
  2
dashed_double-dotted
 70
   64
  3
---------    -    -    ---------
 72
   65
 73
    6
 40
11
 49
6
 49
-1.5
 49
0.25
 49
-1.5
 49
0.25
 49
-1.5
  0
LTYPE
  2
double-dashed_double-dotted
 70
   64
  3
-----   ---------   -   -   ----
 72
   65
 73
    8
 40
18.5
 49
6
 49
-1.5
 49
6
 49
-1.5
 49
0.25
 49
-1.5
 49
0.25
 49
-1.5
  0
LTYPE
  2
dashed_triplicate-dotted
 70
   64
  3
-------    -    -    -    ------
 72
   65
 73
    8
 40
12.75
 49
6
 49
-1.5
 49
0.25
 49
-1.5
 49
0.25
 49
-1.5
 49
0.25
 49
-1.5
  0
LTYPE
  2
double-dashed_triplicate-dotted
 70
   64
  3
-----  ---------  -  -  -  -----
 72
   65
 73
   10
 40
20.25
 49
6
 49
-1.5
 49
6
 49
-1.5
 49
0.25
 49
-1.5
 49
0.25
 49
-1.5
 49
0.25
 49
-1.5
  0
LTYPE
  2
undefined
 70
   64
  3
--------------------------------
 72
   65
 73
    0
 40
0
  0
ENDTAB
  0
TABLE
  2
STYLE
  5
3
100
AcDbSymbolTable
 70
     1
  0
STYLE
  5
10
100
AcDbSymbolTableRecord
100
AcDbTextStyleTableRecord
  2
STANDARD
 70
     0
 40
0.0
 41
1.0
 50
0.0
 71
     0
 42
0.2
  3
txt
  4
bigfont.shx
  0
STYLE
  5
26
100
AcDbSymbolTableRecord
100
AcDbTextStyleTableRecord
  2
TATEGAKI
 70
    68
 40
0.0
 41
1.0
 50
0.0
 71
     0
 42
1.0
  3
txt
  4
bigfont.shx
  0
ENDTAB
  0
TABLE
  2
LAYER
 70
    2
  0
LAYER
  2
_0-0_
 70
   64
 62
    7
  6
CONTINUOUS
  0
LAYER
  2
ADD_LINE
 70
   64
 62
    7
  6
CONTINUOUS
  0
ENDTAB
  0
ENDSEC
  0
SECTION
  2
BLOCKS
  0
ENDSEC
  0
SECTION
  2
ENTITIES
  0
LINE
  8
_0-0_
  6
CONTINUOUS
 62
    2
 10
873.44191446582056
 20
416.90498708782445
 11
891.29690681604563
 21
434.75997943804953
  0
LINE
  8
_0-0_
  6
CONTINUOUS
 62
    3
 10
924.74627587860243
 20
1278.0365555609226
 11
866.42549915611391
 21
1278.0365555609226
  0
LINE
  8
_0-0_
  6
CONTINUOUS
 62
    7
 10
1013.5056235992271
 20
1268.1180027107077
 11
1023.9254991561139
 21
1257.3279057056282
  0
LINE
  8
_0-0_
  6
CONTINUOUS
 62
    4
 10
1016.13770120329
 20
1274.0297458012049
 11
1029.9254991561138
 21
1259.7520630606389
  0
LINE
  8
_0-0_
  6
CONTINUOUS
 62
    3
 10
924.74627587860243
 20
1270.5365555609226
 11
873.92549915611391
 21
1270.5365555609226
  0
LINE
  8
_0-0_
  6
CONTINUOUS
 62
    3
 10
873.92549915611391
 20
1270.5365555609226
 11
873.92549915611391
 21
1188.0365555609224
  0
LINE
  8
_0-0_
  6
CONTINUOUS
 62
    3
 10
866.42549915611391
 20
1278.0365555609226
 11
866.42549915611391
 21
1188.0365555609224
  0
LINE
  8
_0-0_
  6
CONTINUOUS
 62
    3
 10
873.92549915611391
 20
1188.0365555609224
 11
866.42549915611391
 21
1188.0365555609224
  0
LINE
  8
_0-0_
  6
CONTINUOUS
 62
    3
 10
873.92549915611391
 20
1180.5365555609224
 11
866.42549915611391
 21
1180.5365555609224
  0
LINE
  8
_0-0_
  6
CONTINUOUS
 62
    3
 10
870.17549915611391
 20
1188.0365555609224
 11
870.17549915611391
 21
1180.5365555609224
  0
LINE
  8
_0-0_
  6
CONTINUOUS
 62
    7
 10
939.74627587860243
 20
1270.6937358903208
 11
939.74627587860243
 21
1255.6937358903208
  0
LINE
  8
_0-0_
  6
CONTINUOUS
 62
    7
 10
939.74627587860243
 20
1255.6937358903208
 11
924.74627587860243
 21
1255.6937358903208
  0
LINE
  8
_0-0_
  6
CONTINUOUS
 62
    7
 10
924.74627587860243
 20
1255.6937358903208
 11
924.74627587860243
 21
1270.6937358903208
  0
LINE
  8
_0-0_
  6
CONTINUOUS
 62
    3
 10
924.74627587860243
 20
1278.0365555609226
 11
924.74627587860243
 21
1270.5365555609226
  0
LINE
  8
_0-0_
  6
CONTINUOUS
 62
    7
 10
1013.5056235992271
 20
1268.1180027107077
 11
939.74627587860243
 21
1270.6937358903208
  0
LINE
  8
_0-0_
  6
CONTINUOUS
 62
    4
 10
935.74627587860243
 20
1276.8370762340812
 11
1016.13770120329
 21
1274.0297458012049
  0
LINE
  8
_0-0_
  6
CONTINUOUS
 62
    4
 10
935.74627587860243
 20
1261.6937358903208
 11
924.74627587860243
 21
1261.6937358903208
  0
LINE
  8
_0-0_
  6
CONTINUOUS
 62
    4
 10
935.74627587860243
 20
1276.8370762340812
 11
935.74627587860243
 21
1261.6937358903208
  0
ARC
  8
_0-0_
  6
CONTINUOUS
 62
    2
 10
942.49073712220354
 20
1389.7264324549644
 40
113.0906472942477
 50
260.97271697893774
 51
266.5809851959296
  0
LINE
  8
_0-0_
  6
CONTINUOUS
 62
    2
 10
934.2841509377505
 20
1261.6937358903208
 11
935.74627587860243
 21
1263.1558608311709
  0
LINE
  8
_0-0_
  6
CONTINUOUS
 62
    2
 10
931.45572381300383
 20
1261.6937358903208
 11
935.74627587860243
 21
1265.9842879559176
  0
LINE
  8
_0-0_
  6
CONTINUOUS
 62
    2
 10
928.62729668825716
 20
1261.6937358903208
 11
935.74627587860243
 21
1268.8127150806642
  0
LINE
  8
_0-0_
  6
CONTINUOUS
 62
    2
 10
925.79886956351049
 20
1261.6937358903199
 11
935.74627587860243
 21
1271.6411422054091
  0
LINE
  8
_0-0_
  6
CONTINUOUS
 62
    2
 10
924.74627587859879
 20
1263.4695693301549
 11
935.74627587860243
 21
1274.4695693301558
  0
LINE
  8
_0-0_
  6
CONTINUOUS
 62
    2
 10
924.74627587860243
 20
1266.2979964549033
 11
935.31213117918026
 21
1276.863851755483
  0
LINE
  8
_0-0_
  6
CONTINUOUS
 62
    2
 10
924.74627587860243
 20
1269.1264235796482
 11
932.681828034256
 21
1277.0619757353036
  0
LINE
  8
_0-0_
  6
CONTINUOUS
 62
    2
 10
924.74627587860243
 20
1271.9548507043939
 11
930.10725382804242
 21
1277.3158286538367
  0
LINE
  8
_0-0_
  6
CONTINUOUS
 62
    2
 10
924.74627587859879
 20
1274.7832778291397
 11
927.58535364372085
 21
1277.622355594259
  0
LINE
  8
_0-0_
  6
CONTINUOUS
 62
    2
 10
924.74627587859879
 20
1277.6117049538864
 11
925.11341626769001
 21
1277.9788453429776
  0
LINE
  8
_0-0_
  6
CONTINUOUS
 62
    3
 10
870.17549915611391
 20
775.53655556092247
 11
870.17549915611391
 21
768.03655556092247
  0
LINE
  8
_0-0_
  6
CONTINUOUS
 62
    7
 10
672.13606690525205
 20
567.53106997205498
 11
1706.8525777203686
 21
567.53106997205498
  0
LINE
  8
_0-0_
  6
CONTINUOUS
 62
    7
 10
672.13606690525205
 20
167.53106997205509
 11
1706.8525777203686
 21
167.53106997205509
  0
LINE
  8
_0-0_
  6
CONTINUOUS
 62
    7
 10
672.13606690525205
 20
627.53106997205498
 11
1706.8525777203686
 21
627.53106997205498
  0
LINE
  8
_0-0_
  6
CONTINUOUS
 62
    7
 10
1189.4943223128103
 20
627.53106997205498
 11
1189.4943223128103
 21
167.53106997205509
  0
LINE
  8
_0-0_
  6
CONTINUOUS
 62
    7
 10
672.13606690525205
 20
1633.3565543671132
 11
672.13606690525205
 21
167.53106997205509
  0
LINE
  8
_0-0_
  6
CONTINUOUS
 62
    7
 10
1706.8525777203686
 20
1633.3565543671132
 11
1706.8525777203686
 21
167.53106997205509
  0
LINE
  8
_0-0_
  6
CONTINUOUS
 62
    7
 10
1223.9254991561138
 20
872.99224806201539
 11
1523.9254991561138
 21
872.99224806201539
  0
LINE
  8
_0-0_
  6
CONTINUOUS
 62
    7
 10
1223.9254991561138
 20
872.99224806201539
 11
1223.9254991561138
 21
772.99224806201539
  0
LINE
  8
_0-0_
  6
CONTINUOUS
 62
    7
 10
1023.9254991561139
 20
1052.9922480620153
 11
1023.9254991561139
 21
1257.3279057056282
  0
LINE
  8
_0-0_
  6
CONTINUOUS
 62
    7
 10
1023.9254991561139
 20
1052.9922480620153
 11
1523.9254991561138
 21
1052.9922480620153
  0
LINE
  8
_0-0_
  6
CONTINUOUS
 62
    4
 10
1029.9254991561138
 20
1259.7520630606389
 11
1029.9254991561138
 21
1067.9922480620153
  0
LINE
  8
_0-0_
  6
CONTINUOUS
 62
    4
 10
1029.9254991561138
 20
1067.9922480620153
 11
1523.9254991561138
 21
1067.9922480620153
  0
LINE
  8
_0-0_
  6
CONTINUOUS
 62
    3
 10
1073.9254991561138
 20
1058.9922480620153
 11
1523.9254991561138
 21
1058.9922480620153
  0
LINE
  8
_0-0_
  6
CONTINUOUS
 62
    3
 10
1073.9254991561138
 20
1058.9922480620153
 11
1073.9254991561138
 21
1052.9922480620153
  0
CIRCLE
  8
_0-0_
  6
DASHED2
 62
    1
 10
951.16433613602578
 20
1269.5458920707845
 40
94.513505632925799
  0
TEXT
  8
_0-0_
 62
    7
 10
941.25844822473675
 20
1351.4850665766119
 40
24
 41
1
 50
0
  1
Ａ
  0
LINE
  8
_0-0_
  6
CONTINUOUS
 62
    4
 10
1110.0951668402231
 20
395.81267592005327
 11
1110.0951668402231
 21
252.65735719276393
  0
LINE
  8
_0-0_
  6
CONTINUOUS
 62
    7
 10
1096.5951668402231
 20
252.65735719276393
 11
1096.5951668402231
 21
390.35832187127937
  0
TEXT
  8
_0-0_
 62
    7
 10
906.73245032900388
 20
575.67973412101139
 40
40
 41
1
 50
0
  1
Ａ
  0
TEXT
  8
_0-0_
 62
    7
 10
1429.6891920142079
 20
576.02721287347697
 40
40
 41
1
 50
0
  1
Ｂ
  0
LINE
  8
_0-0_
  6
CONTINUOUS
 62
    7
 10
1216.173326509459
 20
1060.4922480620153
 11
1275.9312715000378
 21
1163.9960449416039
  0
POINT
  8
_0-0_
 62
    7
 10
1216.173326509459
 20
1060.4922480620153
  0
LINE
  8
_0-0_
  6
CONTINUOUS
 62
    3
 10
873.92549915611391
 20
1105.5365555609224
 11
866.42549915611391
 21
1105.5365555609224
  0
LINE
  8
_0-0_
  6
CONTINUOUS
 62
    3
 10
873.92549915611391
 20
1098.0365555609224
 11
866.42549915611391
 21
1098.0365555609224
  0
LINE
  8
_0-0_
  6
CONTINUOUS
 62
    3
 10
873.92549915611391
 20
1023.0365555609225
 11
866.42549915611391
 21
1023.0365555609225
  0
LINE
  8
_0-0_
  6
CONTINUOUS
 62
    3
 10
873.92549915611391
 20
1015.5365555609225
 11
866.42549915611391
 21
1015.5365555609225
  0
LINE
  8
_0-0_
  6
CONTINUOUS
 62
    3
 10
873.92549915611391
 20
940.53655556092247
 11
866.42549915611391
 21
940.53655556092247
  0
LINE
  8
_0-0_
  6
CONTINUOUS
 62
    3
 10
873.92549915611391
 20
933.03655556092247
 11
866.42549915611391
 21
933.03655556092247
  0
LINE
  8
_0-0_
  6
CONTINUOUS
 62
    3
 10
873.92549915611391
 20
858.03655556092247
 11
866.42549915611391
 21
858.03655556092247
  0
LINE
  8
_0-0_
  6
CONTINUOUS
 62
    3
 10
873.92549915611391
 20
850.53655556092247
 11
866.42549915611391
 21
850.53655556092247
  0
LINE
  8
_0-0_
  6
CONTINUOUS
 62
    3
 10
873.92549915611391
 20
775.53655556092247
 11
866.42549915611391
 21
775.53655556092247
  0
LINE
  8
_0-0_
  6
CONTINUOUS
 62
    3
 10
866.42549915611391
 20
1180.5365555609224
 11
866.42549915611391
 21
1105.5365555609224
  0
LINE
  8
_0-0_
  6
CONTINUOUS
 62
    3
 10
866.42549915611391
 20
1098.0365555609224
 11
866.42549915611391
 21
1023.0365555609225
  0
LINE
  8
_0-0_
  6
CONTINUOUS
 62
    3
 10
873.92549915611391
 20
1180.5365555609224
 11
873.92549915611391
 21
1105.5365555609224
  0
LINE
  8
_0-0_
  6
CONTINUOUS
 62
    3
 10
873.92549915611391
 20
1098.0365555609224
 11
873.92549915611391
 21
1023.0365555609225
  0
LINE
  8
_0-0_
  6
CONTINUOUS
 62
    3
 10
873.92549915611391
 20
1015.5365555609225
 11
873.92549915611391
 21
940.53655556092247
  0
LINE
  8
_0-0_
  6
CONTINUOUS
 62
    3
 10
873.92549915611391
 20
933.03655556092247
 11
873.92549915611391
 21
858.03655556092247
  0
LINE
  8
_0-0_
  6
CONTINUOUS
 62
    3
 10
873.92549915611391
 20
850.53655556092247
 11
873.92549915611391
 21
775.53655556092247
  0
LINE
  8
_0-0_
  6
CONTINUOUS
 62
    3
 10
866.42549915611391
 20
1015.5365555609225
 11
866.42549915611391
 21
940.53655556092247
  0
LINE
  8
_0-0_
  6
CONTINUOUS
 62
    3
 10
866.42549915611391
 20
933.03655556092247
 11
866.42549915611391
 21
858.03655556092247
  0
LINE
  8
_0-0_
  6
CONTINUOUS
 62
    3
 10
866.42549915611391
 20
850.53655556092247
 11
866.42549915611391
 21
775.53655556092247
  0
LINE
  8
_0-0_
  6
CONTINUOUS
 62
    3
 10
870.17549915611391
 20
1105.5365555609224
 11
870.17549915611391
 21
1098.0365555609224
  0
LINE
  8
_0-0_
  6
CONTINUOUS
 62
    3
 10
870.17549915611391
 20
1023.0365555609225
 11
870.17549915611391
 21
1015.5365555609225
  0
LINE
  8
_0-0_
  6
CONTINUOUS
 62
    3
 10
870.17549915611391
 20
940.53655556092247
 11
870.17549915611391
 21
933.03655556092247
  0
LINE
  8
_0-0_
  6
CONTINUOUS
 62
    3
 10
870.17549915611391
 20
858.03655556092247
 11
870.17549915611391
 21
850.53655556092247
  0
LINE
  8
_0-0_
  6
CONTINUOUS
 62
    7
 10
873.92549915611391
 20
1270.5365555609226
 11
873.92549915611391
 21
772.99224806201539
  0
LINE
  8
_0-0_
  6
CONTINUOUS
 62
    3
 10
873.44191446582056
 20
436.95278404569228
 11
742.22016684022321
 21
436.95278404569228
  0
LINE
  8
_0-0_
  6
CONTINUOUS
 62
    7
 10
1073.1504468372332
 20
414.63604013270844
 11
1096.5951668402231
 21
390.35832187127937
  0
LINE
  8
_0-0_
  6
CONTINUOUS
 62
    4
 10
1079.0726214463757
 20
427.9374620863274
 11
1110.0951668402231
 21
395.81267592005327
  0
LINE
  8
_0-0_
  6
CONTINUOUS
 62
    3
 10
873.44191446582056
 20
420.07778404569228
 11
759.09516684022321
 21
420.07778404569228
  0
LINE
  8
_0-0_
  6
CONTINUOUS
 62
    7
 10
759.09516684022321
 20
366.08847593027451
 11
813.08447495564189
 21
420.07778404569228
  0
LINE
  8
_0-0_
  6
CONTINUOUS
 62
    7
 10
759.09516684022321
 20
350.17857335357814
 11
828.99437753233735
 21
420.07778404569228
  0
LINE
  8
_0-0_
  6
CONTINUOUS
 62
    7
 10
759.09516684022321
 20
334.26867077688451
 11
844.90428010903281
 21
420.07778404569228
  0
LINE
  8
_0-0_
  6
CONTINUOUS
 62
    7
 10
907.19191446582056
 20
420.43143978683759
 11
907.19191446582056
 21
386.68143978683759
  0
LINE
  8
_0-0_
  6
CONTINUOUS
 62
    7
 10
907.19191446582056
 20
386.68143978683759
 11
873.44191446582056
 21
386.68143978683759
  0
LINE
  8
_0-0_
  6
CONTINUOUS
 62
    7
 10
873.44191446582056
 20
386.68143978683759
 11
873.44191446582056
 21
420.43143978683759
  0
LINE
  8
_0-0_
  6
CONTINUOUS
 62
    3
 10
873.44191446582056
 20
436.95278404569228
 11
873.44191446582056
 21
420.07778404569228
  0
LINE
  8
_0-0_
  6
CONTINUOUS
 62
    7
 10
1073.1504468372332
 20
414.63604013270844
 11
907.19191446582056
 21
420.43143978683759
  0
LINE
  8
_0-0_
  6
CONTINUOUS
 62
    4
 10
898.19191446582056
 20
434.253955560299
 11
1079.0726214463757
 21
427.9374620863274
  0
LINE
  8
_0-0_
  6
CONTINUOUS
 62
    4
 10
898.19191446582056
 20
400.18143978683759
 11
873.44191446582056
 21
400.18143978683759
  0
LINE
  8
_0-0_
  6
CONTINUOUS
 62
    4
 10
898.19191446582056
 20
434.253955560299
 11
898.19191446582056
 21
400.18143978683759
  0
ARC
  8
_0-0_
  6
CONTINUOUS
 62
    2
 10
913.36695226393215
 20
688.25500705728621
 40
254.45395641205732
 50
260.97271697893774
 51
266.5809851959296
  0
LINE
  8
_0-0_
  6
CONTINUOUS
 62
    2
 10
894.90213334891098
 20
400.18143978683759
 11
898.19191446582056
 21
403.4712209037508
  0
LINE
  8
_0-0_
  6
CONTINUOUS
 62
    2
 10
888.53817231822916
 20
400.18143978683759
 11
898.19191446582056
 21
409.83518193443081
  0
LINE
  8
_0-0_
  6
CONTINUOUS
 62
    2
 10
882.17421128755097
 20
400.18143978683759
 11
898.19191446582056
 21
416.19914296511081
  0
LINE
  8
_0-0_
  6
CONTINUOUS
 62
    2
 10
875.81025025687279
 20
400.18143978683577
 11
898.19191446582056
 21
422.56310399578626
  0
LINE
  8
_0-0_
  6
CONTINUOUS
 62
    2
 10
873.44191446582056
 20
404.17706502646445
 11
898.19191446582056
 21
428.92706502646627
  0
LINE
  8
_0-0_
  6
CONTINUOUS
 62
    2
 10
873.4419144658242
 20
410.54102605714809
 11
897.21508889212794
 21
434.31420048345274
  0
LINE
  8
_0-0_
  6
CONTINUOUS
 62
    2
 10
873.44191446582056
 20
423.26894811850264
 11
885.50411485206871
 21
435.33114850474897
  0
LINE
  8
_0-0_
  6
CONTINUOUS
 62
    2
 10
873.44191446582056
 20
429.63290914918082
 11
879.82983943733791
 21
436.02083412069908
  0
LINE
  8
_0-0_
  6
CONTINUOUS
 62
    2
 10
873.44191446582056
 20
435.99687017986082
 11
874.2679803412758
 21
436.82293605531606
  0
LINE
  8
_0-0_
  6
CONTINUOUS
 62
    3
 10
742.22016684022321
 20
436.95278404569228
 11
742.22016684022321
 21
252.65735719276393
  0
LINE
  8
_0-0_
  6
CONTINUOUS
 62
    3
 10
759.09516684022321
 20
420.07778404569228
 11
759.09516684022321
 21
252.65735719276393
  0
CIRCLE
  8
_0-0_
  6
DASHED2
 62
    1
 10
1073.9254991561138
 20
1058.9922480620153
 40
67.350194333739935
  0
TEXT
  8
_0-0_
 62
    7
 10
1061.509030386369
 20
1114.3633046986188
 40
24
 41
1
 50
0
  1
Ｂ
  0
LINE
  8
_0-0_
  6
CONTINUOUS
 62
    7
 10
884.24025387602535
 20
415.67031022546655
 11
941.65834394223577
 21
515.12135949370816
  0
POINT
  8
_0-0_
 62
    7
 10
884.24025387602535
 20
415.67031022546655
  0
TEXT
  8
_0-0_
 62
    7
 10
943.97157890153187
 20
508.37830427547271
 40
21.617968000000001
 41
1
 50
0
  1
ｼｰﾘﾝｸﾞ
  0
LINE
  8
_0-0_
  6
DASHED2
 62
    5
 10
1428.06196375949
 20
289.15822501102809
 11
1527.022550842099
 21
289.15822501102809
  0
LINE
  8
_0-0_
  6
CONTINUOUS
 62
    7
 10
1376.4076717376338
 20
301.51351855233258
 11
1423.4247207160479
 21
382.94943620490483
  0
LINE
  8
_0-0_
  6
CONTINUOUS
 62
    7
 10
1226.1406253315035
 20
415.28558273245687
 11
1300.6642132359157
 21
489.80917063686991
  0
LINE
  8
_0-0_
  6
CONTINUOUS
 62
    7
 10
1226.1406253315035
 20
431.19548530915415
 11
1284.7543106592202
 21
489.80917063686991
  0
LINE
  8
_0-0_
  6
CONTINUOUS
 62
    7
 10
1226.1406253315035
 20
447.10538788584961
 11
1268.8444080825248
 21
489.80917063686991
  0
LINE
  8
_0-0_
  6
CONTINUOUS
 62
    7
 10
1315.56196375949
 20
272.65822501102809
 11
1675.7335663788836
 21
272.65822501102809
  0
LINE
  8
_0-0_
  6
CONTINUOUS
 62
    3
 10
1428.06196375949
 20
286.15822501102809
 11
1675.7335663788836
 21
286.15822501102809
  0
LINE
  8
_0-0_
  6
CONTINUOUS
 62
    4
 10
1329.06196375949
 20
306.40822501102809
 11
1675.7335663788836
 21
306.40822501102809
  0
LINE
  8
_0-0_
  6
CONTINUOUS
 62
    7
 10
1511.4123468030521
 20
191.44042174969081
 11
1592.6301500643858
 21
272.65822501102537
  0
LINE
  8
_0-0_
  6
CONTINUOUS
 62
    7
 10
1495.502444226353
 20
191.44042174969081
 11
1576.7202474876904
 21
272.65822501102537
  0
LINE
  8
_0-0_
  6
CONTINUOUS
 62
    7
 10
1479.5925416496575
 20
191.44042174969081
 11
1560.8103449109949
 21
272.65822501102537
  0
LINE
  8
_0-0_
  6
CONTINUOUS
 62
    4
 10
1329.06196375949
 20
489.80917063686991
 11
1329.06196375949
 21
306.40822501102809
  0
LINE
  8
_0-0_
  6
CONTINUOUS
 62
    7
 10
1315.56196375949
 20
272.65822501102809
 11
1315.56196375949
 21
489.80917063686991
  0
LINE
  8
_0-0_
  6
DASHED2
 62
    5
 10
1315.56196375949
 20
278.65822501102809
 11
1417.56196375949
 21
278.65822501102809
  0
LINE
  8
_0-0_
  6
CONTINUOUS
 62
    3
 10
1428.06196375949
 20
286.15822501102809
 11
1428.06196375949
 21
272.65822501102809
  0
LINE
  8
_0-0_
  6
DASHED2
 62
    5
 10
1428.06196375949
 20
289.15822501102809
 11
1417.56196375949
 21
278.65822501102809
  0
POINT
  8
_0-0_
 62
    7
 10
1376.4076717376338
 20
301.51351855233258
  0
LINE
  8
_0-0_
  6
CONTINUOUS
 62
    7
 10
1336.543486674771
 20
306.40822501102809
 11
1415.2553523877432
 21
442.74117558443811
  0
POINT
  8
_0-0_
 62
    7
 10
1336.543486674771
 20
306.40822501102809
  0
POINT
  8
_0-0_
 62
    7
 10
1475.9086117384068
 20
289.15822501102809
  0
POINT
  8
_0-0_
 62
    7
 10
1533.8184135284173
 20
279.40822501102809
  0
LINE
  8
_0-0_
  6
CONTINUOUS
 62
    7
 10
1580.7969601764307
 20
272.65822501102809
 11
1612.1616681915875
 21
326.98349285784241
  0
POINT
  8
_0-0_
 62
    7
 10
1580.7969601764307
 20
272.65822501102809
  0
TEXT
  8
_0-0_
 62
    7
 10
1404.8641406613096
 20
445.0897130741256
 40
21.617968000000001
 41
1
 50
0
  1
ﾄｯﾌﾟｺｰﾄ
  0
TEXT
  8
_0-0_
 62
    7
 10
1527.9074371031165
 20
404.56425512182102
 40
21.617968000000001
 41
1
 50
0
  1
DFﾒｯｼｭﾃｰﾌﾟ
  0
TEXT
  8
_0-0_
 62
    7
 10
1407.3342308759165
 20
385.83762636173822
 40
21.617968000000001
 41
1
 50
0
  1
ｳﾚﾀﾝ防水
  0
LINE
  8
_0-0_
  6
CONTINUOUS
 62
    7
 10
1475.9086117384068
 20
289.15822501102809
 11
1538.4876142493486
 21
397.548236846956
  0
TEXT
  8
_0-0_
 62
    7
 10
1554.5947784940035
 20
362.84550603053287
 40
21.617968000000001
 41
1
 50
0
  1
通気緩衝ｼｰﾄ
  0
TEXT
  8
_0-0_
 62
    7
 10
1606.756400303464
 20
328.34359069481718
 40
21.617968000000001
 41
1
 50
0
  1
ﾌﾟﾗｲﾏｰ
  0
LINE
  8
_0-0_
  6
CONTINUOUS
 62
    7
 10
1533.8184135284173
 20
279.40822501102809
 11
1578.7200975356136
 21
357.18022305689703
  0
TEXT
  8
_0-0_
 62
    7
 10
1285.7005863285485
 20
1152.9504726053292
 40
30
 41
1
 50
0
  1
防水層
  0
LINE
  8
_0-0_
  6
CONTINUOUS
 62
    7
 10
1475.3550726680733
 20
872.99224806201573
 11
1523.9254991561138
 21
921.56267455005354
  0
LINE
  8
_0-0_
  6
CONTINUOUS
 62
    7
 10
1468.2840048562066
 20
872.99224806201755
 11
1523.9254991561138
 21
928.63374236192203
  0
LINE
  8
_0-0_
  6
CONTINUOUS
 62
    7
 10
1461.2129370443436
 20
872.99224806201573
 11
1523.9254991561102
 21
935.70481017378415
  0
LINE
  8
_0-0_
  6
CONTINUOUS
 62
    7
 10
1064.2280889459944
 20
772.99224806201664
 11
1344.2280889459944
 21
1052.9922480620148
  0
LINE
  8
_0-0_
  6
CONTINUOUS
 62
    7
 10
1057.1570211341277
 20
772.99224806201573
 11
1337.1570211341277
 21
1052.9922480620148
  0
LINE
  8
_0-0_
  6
CONTINUOUS
 62
    7
 10
1050.085953322261
 20
772.99224806201755
 11
1330.085953322261
 21
1052.9922480620166
  0
LINE
  8
_0-0_
  6
CONTINUOUS
 62
    7
 10
873.92549915611391
 20
893.81664199421675
 11
1033.1011052239119
 21
1052.9922480620157
  0
LINE
  8
_0-0_
  6
CONTINUOUS
 62
    7
 10
873.92549915611391
 20
900.88770980608069
 11
1026.0300374120488
 21
1052.9922480620157
  0
LINE
  8
_0-0_
  6
CONTINUOUS
 62
    7
 10
873.92549915611391
 20
907.95877761794645
 11
1023.9254991561139
 21
1057.9587776179465
  0
LINE
  8
_0-0_
  6
CONTINUOUS
 62
    7
 10
873.92549915611391
 20
1204.9436257163002
 11
924.74627587860243
 21
1255.7644024387887
  0
LINE
  8
_0-0_
  6
CONTINUOUS
 62
    7
 10
873.92549915611391
 20
1212.0146935281623
 11
924.74627587860243
 21
1262.8354702506508
  0
LINE
  8
_0-0_
  6
CONTINUOUS
 62
    7
 10
873.92549915611391
 20
1219.0857613400281
 11
924.74627587860243
 21
1269.9065380625157
  0
LINE
  8
_0-0_
  6
CONTINUOUS
 62
    7
 10
1124.4670144048614
 20
439.41937688108032
 11
1084.8728068387277
 21
402.49718100199436
  0
POINT
  8
_0-0_
 62
    7
 10
1084.8728068387277
 20
402.49718100199436
  0
TEXT
  8
_0-0_
 62
    7
 10
1104.6016331817666
 20
439.90333112994011
 40
21.617968000000001
 41
1
 50
0
  1
面取り
  0
LINE
  8
_0-0_
  6
CONTINUOUS
 62
    7
 10
672.13606690525205
 20
1633.3565543671132
 11
1706.8525777203686
 21
1633.3565543671132
  0
LINE
  8
_0-0_
  6
CONTINUOUS
 62
    7
 10
672.13606690525205
 20
1553.3565543671132
 11
1706.8525777203686
 21
1553.3565543671132
  0
LINE
  8
_0-0_
  6
CONTINUOUS
 62
    7
 10
672.13606690525205
 20
1473.3565543671132
 11
1706.8525777203686
 21
1473.3565543671132
  0
LINE
  8
_0-0_
  6
CONTINUOUS
 62
    7
 10
1189.4943223128103
 20
1633.3565543671132
 11
1189.4943223128103
 21
1473.3565543671132
  0
TEXT
  8
_0-0_
 62
    7
 10
696.13606690525205
 20
1497.3565543671132
 40
20
 41
1
 50
0
  1
施工部位：パラペット(外壁タイル)
  0
TEXT
  8
_0-0_
 62
    7
 10
1213.4943223128103
 20
1577.3565543671132
 40
20
 41
1
 50
0
  1
構造：ＲＣ造
  0
TEXT
  8
_0-0_
 62
    7
 10
1213.4943223128103
 20
1497.3565543671132
 40
20
 41
1
 50
0
  1
下地：コンクリートスラブ
  0
TEXT
  8
_0-0_
 62
    7
 10
696.13606690525194
 20
1577.3565543671132
 40
20
 41
1
 50
0
  1
図面番号：tsuki-SP-para-02
  0
ENDSEC
  0
EOF
