  0
SECTION
  2
HEADER
  9
$ACADVER
  1
AC1009
  9
$INSBASE
 10
0
 20
0
 30
0
  9
$EXTMIN
 10
0
 20
0
  9
$EXTMAX
 10
2378
 20
1682
  9
$LIMMIN
 10
0
 20
0
  9
$LIMMAX
 10
2378
 20
1682
  9
$LTSCALE
 40
1
  0
ENDSEC
  0
SECTION
  2
TABLES
  0
TABLE
  2
LTYPE
 70
     9
  0
LTYPE
  2
CONTINUOUS
 70
    64
  3
実線
 72
    65
 73
     0
 40
0.0
  0
LTYPE
  2
DASHED1
 70
    64
  3
--  --  --  --  --  --  --  --  
 72
    65
 73
     2
 40
2.5
 49
1.25
 49
-1.25
  0
LTYPE
  2
DASHED2
 70
    64
  3
----    ----    ----    ----    
 72
    65
 73
     2
 40
5.0
 49
2.5
 49
-2.5
  0
LTYPE
  2
DASHED3
 70
    64
  3
------  ------  ------  ------  
 72
    65
 73
     2
 40
5.0
 49
3.75
 49
-1.25
  0
LTYPE
  2
CENTER1
 70
    64
  3
----- - ----- - ----- - ----- - 
 72
    65
 73
     4
 40
10.0
 49
6.25
 49
-1.25
 49
1.25
 49
-1.25
  0
LTYPE
  2
CENTER2
 70
    64
  3
----------  --  ----------  --  
 72
    65
 73
     4
 40
20.0
 49
12.5
 49
-2.5
 49
2.5
 49
-2.5
  0
LTYPE
  2
PHANTOM1
 70
    64
  3
--- - - --- - - --- - - --- - - 
 72
    65
 73
     6
 40
10.0
 49
3.25
 49
-1.25
 49
1.25
 49
-1.25
 49
1.25
 49
-1.25
  0
LTYPE
  2
PHANTOM2
 70
    64
  3
--------  -  -  --------  -  -  
 72
    65
 73
     6
 40
20.0
 49
10.0
 49
-2.5
 49
1.25
 49
-2.5
 49
1.25
 49
-2.5
  0
LTYPE
  2
DOT
 70
    64
  3
-   -   -   -   -   -   -   -   
 72
    65
 73
     2
 40
2.5
 49
0.625
 49
-1.875
  0
LTYPE
  2
DUMMY
 70
    64
  3
ダミー
 72
    65
 73
     0
 40
0.0
  0
LTYPE
  2
RAND1
 70
    64
  3
ランダム線1
 72
    65
 73
     4
 40
10.0
 49
1.0
 49
-2.0
 49
3.0
 49
-4.0
  0
LTYPE
  2
RAND2
 70
    64
  3
ランダム線2
 72
    65
 73
     4
 40
14.0
 49
2.0
 49
-3.0
 49
4.0
 49
-5.0
  0
LTYPE
  2
RAND3
 70
    64
  3
ランダム線3
 72
    65
 73
     4
 40
18.0
 49
3.0
 49
-4.0
 49
5.0
 49
-6.0
  0
LTYPE
  2
RAND4
 70
    64
  3
ランダム線4
 72
    65
 73
     4
 40
22.0
 49
4.0
 49
-5.0
 49
6.0
 49
-7.0
  0
LTYPE
  2
RAND5
 70
    64
  3
ランダム線5
 72
    65
 73
     4
 40
26.0
 49
5.0
 49
-6.0
 49
7.0
 49
-8.0
  0
LTYPE
  2
LONG1
 70
    64
  3
----------  --  ----------  --  
 72
    65
 73
     4
 40
40.0
 49
32.5
 49
-2.5
 49
2.5
 49
-2.5
  0
LTYPE
  2
LONG2
 70
    64
  3
--------  -  -  --------  -  -  
 72
    65
 73
     6
 40
40.0
 49
30.0
 49
-2.5
 49
1.25
 49
-2.5
 49
1.25
 49
-2.5
  0
LTYPE
  2
LONG3
 70
    64
  3
+++++++++++++++..+++++++++++++++
 72
    65
 73
     2
 40
40.0
 49
37.5
 49
-2.5
  0
LTYPE
  2
LONG4
 70
    64
  3
+++++++++++++++..+++++++++++++++
 72
    65
 73
     2
 40
80.0
 49
75.0
 49
-5.0
  0
LTYPE
  2
LONG5
 70
    64
  3
----------  --  ----------  --  
 72
    65
 73
     4
 40
60.0
 49
37.5
 49
-7.5
 49
7.5
 49
-7.5
  0
LTYPE
  2
dashed
 70
   64
  3
-------   -------------   ------
 72
   65
 73
    2
 40
7.5
 49
6
 49
-1.5
  0
LTYPE
  2
dashed_spaced
 70
   64
  3
----        --------        ----
 72
   65
 73
    2
 40
12
 49
6
 49
-6
  0
LTYPE
  2
long_dashed_dotted
 70
   64
  3
------------- --- --------------
 72
   65
 73
    4
 40
15.25
 49
12
 49
-1.5
 49
0.25
 49
-1.5
  0
LTYPE
  2
long_dashed_double-dotted
 70
   64
  3
----------- --- --- ------------
 72
   65
 73
    6
 40
17
 49
12
 49
-1.5
 49
0.25
 49
-1.5
 49
0.25
 49
-1.5
  0
LTYPE
  2
long_dashed_triplicate-dotted
 70
   64
  3
--------- --- --- --- ----------
 72
   65
 73
    8
 40
18.75
 49
12
 49
-1.5
 49
0.25
 49
-1.5
 49
0.25
 49
-1.5
 49
0.25
 49
-1.5
  0
LTYPE
  2
dotted
 70
   64
  3
   -       -       -       -    
 72
   65
 73
    2
 40
1.75
 49
0.25
 49
-1.5
  0
LTYPE
  2
chain
 70
   64
  3
-------------- -- --------------
 72
   65
 73
    4
 40
18.5
 49
12
 49
-1.5
 49
3.5
 49
-1.5
  0
LTYPE
  2
chain_double_dash
 70
   64
  3
------------ -- -- -------------
 72
   65
 73
    6
 40
23.5
 49
12
 49
-1.5
 49
3.5
 49
-1.5
 49
3.5
 49
-1.5
  0
LTYPE
  2
dashed_dotted
 70
   64
  3
-----------     -     ----------
 72
   65
 73
    4
 40
9.25
 49
6
 49
-1.5
 49
0.25
 49
-1.5
  0
LTYPE
  2
double-dashed_dotted
 70
   64
  3
------   -----------   -   -----
 72
   65
 73
    6
 40
16.75
 49
6
 49
-1.5
 49
6
 49
-1.5
 49
0.25
 49
-1.5
  0
LTYPE
  2
dashed_double-dotted
 70
   64
  3
---------    -    -    ---------
 72
   65
 73
    6
 40
11
 49
6
 49
-1.5
 49
0.25
 49
-1.5
 49
0.25
 49
-1.5
  0
LTYPE
  2
double-dashed_double-dotted
 70
   64
  3
-----   ---------   -   -   ----
 72
   65
 73
    8
 40
18.5
 49
6
 49
-1.5
 49
6
 49
-1.5
 49
0.25
 49
-1.5
 49
0.25
 49
-1.5
  0
LTYPE
  2
dashed_triplicate-dotted
 70
   64
  3
-------    -    -    -    ------
 72
   65
 73
    8
 40
12.75
 49
6
 49
-1.5
 49
0.25
 49
-1.5
 49
0.25
 49
-1.5
 49
0.25
 49
-1.5
  0
LTYPE
  2
double-dashed_triplicate-dotted
 70
   64
  3
-----  ---------  -  -  -  -----
 72
   65
 73
   10
 40
20.25
 49
6
 49
-1.5
 49
6
 49
-1.5
 49
0.25
 49
-1.5
 49
0.25
 49
-1.5
 49
0.25
 49
-1.5
  0
LTYPE
  2
undefined
 70
   64
  3
--------------------------------
 72
   65
 73
    0
 40
0
  0
ENDTAB
  0
TABLE
  2
STYLE
  5
3
100
AcDbSymbolTable
 70
     1
  0
STYLE
  5
10
100
AcDbSymbolTableRecord
100
AcDbTextStyleTableRecord
  2
STANDARD
 70
     0
 40
0.0
 41
1.0
 50
0.0
 71
     0
 42
0.2
  3
txt
  4
bigfont.shx
  0
STYLE
  5
26
100
AcDbSymbolTableRecord
100
AcDbTextStyleTableRecord
  2
TATEGAKI
 70
    68
 40
0.0
 41
1.0
 50
0.0
 71
     0
 42
1.0
  3
txt
  4
bigfont.shx
  0
ENDTAB
  0
TABLE
  2
LAYER
 70
    2
  0
LAYER
  2
_0-0_
 70
   64
 62
    7
  6
CONTINUOUS
  0
LAYER
  2
ADD_LINE
 70
   64
 62
    7
  6
CONTINUOUS
  0
ENDTAB
  0
ENDSEC
  0
SECTION
  2
BLOCKS
  0
ENDSEC
  0
SECTION
  2
ENTITIES
  0
LINE
  8
_0-0_
  6
CONTINUOUS
 62
    2
 10
1376.3499830577448
 20
1118.3004325817599
 11
1377.8877539518153
 21
1119.8382034758315
  0
LINE
  8
_0-0_
  6
CONTINUOUS
 62
    2
 10
1374.7884859574324
 20
1118.718834468772
 11
1377.035980229447
 21
1120.9663287407861
  0
LINE
  8
_0-0_
  6
CONTINUOUS
 62
    2
 10
1373.2269888571218
 20
1119.1372363557837
 11
1376.2756400259277
 21
1122.1858875245887
  0
LINE
  8
_0-0_
  6
CONTINUOUS
 62
    7
 10
1150.7843722939087
 20
1106.221746159657
 11
1150.7843722939087
 21
700.86334575368346
  0
LINE
  8
_0-0_
  6
CONTINUOUS
 62
    7
 10
672.13606690525205
 20
567.53106997205487
 11
1706.8525777203686
 21
567.53106997205487
  0
LINE
  8
_0-0_
  6
CONTINUOUS
 62
    7
 10
672.13606690525205
 20
167.53106997205509
 11
1706.8525777203686
 21
167.53106997205509
  0
LINE
  8
_0-0_
  6
CONTINUOUS
 62
    7
 10
672.13606690525205
 20
627.53106997205487
 11
1706.8525777203686
 21
627.53106997205487
  0
LINE
  8
_0-0_
  6
CONTINUOUS
 62
    7
 10
1189.4943223128103
 20
627.53106997205487
 11
1189.4943223128103
 21
167.53106997205509
  0
LINE
  8
_0-0_
  6
CONTINUOUS
 62
    7
 10
672.13606690525205
 20
1633.3565543671132
 11
672.13606690525205
 21
167.53106997205509
  0
LINE
  8
_0-0_
  6
CONTINUOUS
 62
    7
 10
1706.8525777203686
 20
1633.3565543671132
 11
1706.8525777203686
 21
167.53106997205509
  0
TEXT
  8
_0-0_
 62
    7
 10
906.73245032900388
 20
575.67973412101128
 40
40
 41
1
 50
0
  1
Ａ
  0
TEXT
  8
_0-0_
 62
    7
 10
1429.6891920142098
 20
576.02721287347686
 40
40
 41
1
 50
0
  1
Ｂ
  0
LINE
  8
_0-0_
  6
CONTINUOUS
 62
    7
 10
1497.895766268437
 20
1351.4764552103741
 11
1505.1896791582567
 21
1343.9233873068185
  0
LINE
  8
_0-0_
  6
CONTINUOUS
 62
    7
 10
1463.1896791582549
 20
1246.221746159656
 11
1459.6896791582567
 21
1256.721746159657
  0
LINE
  8
_0-0_
  6
CONTINUOUS
 62
    7
 10
1459.6896791582567
 20
1256.721746159657
 11
1449.1896791582567
 21
1256.721746159657
  0
LINE
  8
_0-0_
  6
CONTINUOUS
 62
    7
 10
1449.1896791582567
 20
1256.721746159657
 11
1449.1896791582567
 21
1246.221746159656
  0
LINE
  8
_0-0_
  6
CONTINUOUS
 62
    7
 10
1505.1896791582567
 20
1343.9233873068185
 11
1497.895766268437
 21
1351.4764552103741
  0
LINE
  8
_0-0_
  6
CONTINUOUS
 62
    7
 10
1087.7843722939087
 20
1246.221746159656
 11
1449.1896791582567
 21
1246.221746159656
  0
LINE
  8
_0-0_
  6
CONTINUOUS
 62
    7
 10
996.63744019746457
 20
1368.9807816709178
 11
1497.895766268437
 21
1351.4764552103741
  0
LINE
  8
_0-0_
  6
CONTINUOUS
 62
    7
 10
996.63744019746457
 20
1368.9807816709178
 11
989.08437229390813
 21
1361.6868687810982
  0
LINE
  8
_0-0_
  6
CONTINUOUS
 62
    7
 10
1505.1896791582567
 20
1253.6463673621151
 11
1505.1896791582567
 21
1343.9233873068185
  0
LINE
  8
_0-0_
  6
CONTINUOUS
 62
    7
 10
1497.7650579557976
 20
1246.221746159656
 11
1463.1896791582549
 21
1246.221746159656
  0
LINE
  8
_0-0_
  6
CONTINUOUS
 62
    7
 10
1505.1896791582567
 20
1253.6463673621151
 11
1497.7650579557976
 21
1246.221746159656
  0
LINE
  8
_0-0_
  6
CONTINUOUS
 62
  136
 10
1322.2843722939106
 20
1212.6217461596575
 11
1326.4843722939113
 21
1212.6217461596575
  0
LINE
  8
_0-0_
  6
CONTINUOUS
 62
  136
 10
1322.2843722939106
 20
1198.6217461596575
 11
1322.2843722939106
 21
1212.6217461596575
  0
LINE
  8
_0-0_
  6
CONTINUOUS
 62
  136
 10
1326.4843722939113
 20
1198.6217461596575
 11
1326.4843722939113
 21
1212.6217461596575
  0
LINE
  8
_0-0_
  6
CONTINUOUS
 62
  136
 10
1269.7843722939106
 20
1198.6217461596575
 11
1322.2843722939106
 21
1198.6217461596575
  0
LINE
  8
_0-0_
  6
CONTINUOUS
 62
  136
 10
1269.7843722939106
 20
1125.8217461596564
 11
1322.2843722939106
 21
1125.8217461596564
  0
LINE
  8
_0-0_
  6
CONTINUOUS
 62
  136
 10
1322.2843722939106
 20
1125.8217461596564
 11
1322.2843722939106
 21
1111.8217461596564
  0
LINE
  8
_0-0_
  6
CONTINUOUS
 62
  136
 10
1322.2843722939106
 20
1111.8217461596564
 11
1326.4843722939113
 21
1111.8217461596564
  0
LINE
  8
_0-0_
  6
CONTINUOUS
 62
  136
 10
1326.4843722939113
 20
1125.8217461596564
 11
1326.4843722939113
 21
1111.8217461596564
  0
LINE
  8
_0-0_
  6
CONTINUOUS
 62
    7
 10
1357.9843722939113
 20
1194.4217461596577
 11
1368.4843722939113
 21
1190.221746159657
  0
LINE
  8
_0-0_
  6
CONTINUOUS
 62
    7
 10
1368.4843722939113
 20
1194.4217461596577
 11
1357.9843722939113
 21
1190.221746159657
  0
LINE
  8
_0-0_
  6
CONTINUOUS
 62
    7
 10
1357.9843722939113
 20
1134.221746159657
 11
1368.4843722939113
 21
1130.0217461596562
  0
LINE
  8
_0-0_
  6
CONTINUOUS
 62
    7
 10
1368.4843722939113
 20
1134.221746159657
 11
1357.9843722939113
 21
1130.0217461596562
  0
LINE
  8
_0-0_
  6
CONTINUOUS
 62
    7
 10
1357.9843722939113
 20
1134.221746159657
 11
1357.9843722939113
 21
1130.0217461596562
  0
LINE
  8
_0-0_
  6
CONTINUOUS
 62
    7
 10
1368.4843722939113
 20
1134.221746159657
 11
1368.4843722939113
 21
1130.0217461596562
  0
LINE
  8
_0-0_
  6
CONTINUOUS
 62
    7
 10
1368.4843722939113
 20
1194.4217461596577
 11
1368.4843722939113
 21
1190.221746159657
  0
LINE
  8
_0-0_
  6
CONTINUOUS
 62
    7
 10
1357.9843722939113
 20
1194.4217461596577
 11
1357.9843722939113
 21
1190.221746159657
  0
LINE
  8
_0-0_
  6
CONTINUOUS
 62
    2
 10
1370.2522057497408
 20
1130.021746159659
 11
1374.4522057497397
 21
1134.221746159657
  0
LINE
  8
_0-0_
  6
CONTINUOUS
 62
    2
 10
1368.4843722939113
 20
1130.233811691151
 11
1372.4723067624163
 21
1134.221746159657
  0
LINE
  8
_0-0_
  6
CONTINUOUS
 62
    2
 10
1368.4843722939113
 20
1132.2137106784726
 11
1370.4924077750948
 21
1134.221746159657
  0
LINE
  8
_0-0_
  6
CONTINUOUS
 62
    2
 10
1368.4843722939113
 20
1134.1936096657951
 11
1368.5125087877732
 21
1134.221746159657
  0
LINE
  8
_0-0_
  6
CONTINUOUS
 62
    2
 10
1369.075337142749
 20
1190.2217461596588
 11
1373.275337142748
 21
1194.4217461596577
  0
LINE
  8
_0-0_
  6
CONTINUOUS
 62
    2
 10
1368.4843722939113
 20
1191.6106802981417
 11
1371.2954381554246
 21
1194.4217461596559
  0
LINE
  8
_0-0_
  6
CONTINUOUS
 62
    2
 10
1368.4843722939113
 20
1193.5905792854651
 11
1369.3155391681012
 21
1194.4217461596559
  0
LINE
  8
_0-0_
  6
CONTINUOUS
 62
    7
 10
1364.2843722939106
 20
1115.3217461596564
 11
1364.2843722939106
 21
1125.8217461596564
  0
LINE
  8
_0-0_
  6
CONTINUOUS
 62
    7
 10
1364.2843722939106
 20
1115.3217461596564
 11
1374.7843722939106
 21
1112.5082796391303
  0
LINE
  8
_0-0_
  6
CONTINUOUS
 62
  136
 10
1269.7843722939106
 20
1198.6217461596575
 11
1269.7843722939106
 21
1194.4217461596577
  0
LINE
  8
_0-0_
  6
CONTINUOUS
 62
  136
 10
1269.7843722939106
 20
1130.0217461596562
 11
1269.7843722939106
 21
1125.8217461596564
  0
LINE
  8
_0-0_
  6
CONTINUOUS
 62
    2
 10
1364.2843722939087
 20
1122.0740137165044
 11
1368.0321047370617
 21
1125.8217461596555
  0
LINE
  8
_0-0_
  6
CONTINUOUS
 62
    2
 10
1364.2843722939124
 20
1124.0539127038296
 11
1366.0522057497419
 21
1125.8217461596582
  0
LINE
  8
_0-0_
  6
CONTINUOUS
 62
    7
 10
1364.2843722939106
 20
1235.721746159656
 11
1364.2843722939106
 21
1246.221746159656
  0
LINE
  8
_0-0_
  6
CONTINUOUS
 62
    7
 10
1364.2843722939106
 20
1235.721746159656
 11
1374.7843722939106
 21
1232.908279639129
  0
LINE
  8
_0-0_
  6
CONTINUOUS
 62
  136
 10
1374.7843722939106
 20
1130.0217461596562
 11
1374.7843722939106
 21
1125.8217461596564
  0
LINE
  8
_0-0_
  6
CONTINUOUS
 62
  136
 10
1374.7843722939106
 20
1198.6217461596575
 11
1374.7843722939106
 21
1194.4217461596577
  0
LINE
  8
_0-0_
  6
CONTINUOUS
 62
  136
 10
1326.4843722939113
 20
1198.6217461596575
 11
1374.7843722939106
 21
1198.6217461596575
  0
LINE
  8
_0-0_
  6
CONTINUOUS
 62
  136
 10
1269.7843722939106
 20
1194.4217461596577
 11
1374.7843722939106
 21
1194.4217461596577
  0
LINE
  8
_0-0_
  6
CONTINUOUS
 62
  136
 10
1269.7843722939106
 20
1130.0217461596562
 11
1374.7843722939106
 21
1130.0217461596562
  0
LINE
  8
_0-0_
  6
CONTINUOUS
 62
  136
 10
1326.4843722939113
 20
1125.8217461596564
 11
1374.7843722939106
 21
1125.8217461596564
  0
ARC
  8
_0-0_
  6
CONTINUOUS
 62
    2
 10
1387.1289294274357
 20
1132.1217461596566
 40
12.521904440733111
 50
170.34552531892481
 51
189.65447468107519
  0
LINE
  8
_0-0_
  6
CONTINUOUS
 62
    2
 10
1372.2321047370624
 20
1130.0217461596562
 11
1374.6101114688609
 21
1132.3997528914547
  0
LINE
  8
_0-0_
  6
CONTINUOUS
 62
    2
 10
1374.212003724384
 20
1130.0217461596562
 11
1374.7099334296308
 21
1130.5196758649022
  0
ARC
  8
_0-0_
  6
CONTINUOUS
 62
    2
 10
1384.7671180513371
 20
1192.3217461596573
 40
10.201235849513667
 50
168.12030433418508
 51
191.87969566581492
  0
LINE
  8
_0-0_
  6
CONTINUOUS
 62
    2
 10
1373.0351351173922
 20
1190.2217461596551
 11
1374.5809466414994
 21
1191.7675576837632
  0
LINE
  8
_0-0_
  6
CONTINUOUS
 62
    2
 10
1371.0552361300688
 20
1190.2217461596551
 11
1374.6805631171774
 21
1193.8470731467646
  0
LINE
  8
_0-0_
  6
CONTINUOUS
 62
    7
 10
1364.2843722939106
 20
1209.1217461596575
 11
1364.2843722939106
 21
1198.6217461596575
  0
LINE
  8
_0-0_
  6
CONTINUOUS
 62
    7
 10
1364.2843722939106
 20
1209.1217461596575
 11
1374.7843722939106
 21
1211.9352126801837
  0
LINE
  8
_0-0_
  6
CONTINUOUS
 62
    2
 10
1364.2843722939087
 20
1242.8478519431669
 11
1367.6582665103997
 21
1246.221746159657
  0
LINE
  8
_0-0_
  6
CONTINUOUS
 62
    2
 10
1364.2843722939106
 20
1244.8277509304903
 11
1365.6783675230781
 21
1246.221746159657
  0
LINE
  8
_0-0_
  6
CONTINUOUS
 62
    7
 10
1374.7843722939106
 20
1232.908279639129
 11
1374.7843722939106
 21
1211.9352126801837
  0
CIRCLE
  8
_0-0_
  6
DASHED2
 62
    1
 10
1350.9106371874441
 20
1161.6510549350446
 40
67.350194333739935
  0
TEXT
  8
_0-0_
 62
    7
 10
1329.7204627867632
 20
1218.003774145453
 40
24
 41
1
 50
0
  1
Ａ
  0
LINE
  8
_0-0_
  6
CONTINUOUS
 62
  136
 10
1269.7843722939106
 20
1198.6217461596575
 11
1269.7843722939106
 21
1194.4217461596577
  0
LINE
  8
_0-0_
  6
CONTINUOUS
 62
  136
 10
1269.7843722939106
 20
1130.0217461596562
 11
1269.7843722939106
 21
1125.8217461596564
  0
LINE
  8
_0-0_
  6
CONTINUOUS
 62
    3
 10
1409.7843722939106
 20
930.10069188254192
 11
1409.7843722939106
 21
934.30069188254174
  0
LINE
  8
_0-0_
  6
CONTINUOUS
 62
    3
 10
1409.7843722939106
 20
934.30069188254174
 11
1584.7843722939106
 21
934.30069188254174
  0
LINE
  8
_0-0_
  6
CONTINUOUS
 62
    7
 10
1374.7843722939106
 20
930.10069188254192
 11
1584.7843722939106
 21
930.10069188254192
  0
LINE
  8
_0-0_
  6
CONTINUOUS
 62
    7
 10
1514.7843722939106
 20
804.10069188254192
 11
1584.7843722939106
 21
804.10069188254192
  0
LINE
  8
_0-0_
  6
CONTINUOUS
 62
    3
 10
954.08437229390813
 20
930.10069188254192
 11
954.08437229390813
 21
934.30069188254174
  0
LINE
  8
_0-0_
  6
CONTINUOUS
 62
    7
 10
989.08437229390813
 20
930.10069188254192
 11
772.78437229390886
 21
930.10069188254192
  0
LINE
  8
_0-0_
  6
CONTINUOUS
 62
    3
 10
954.08437229390813
 20
934.30069188254174
 11
772.78437229390886
 21
934.30069188254174
  0
CIRCLE
  8
_0-0_
  6
DASHED2
 62
    1
 10
1413.1764300593986
 20
929.81134312414406
 40
67.350194333739935
  0
TEXT
  8
_0-0_
 62
    7
 10
1400.8846847002442
 20
985.12323139649334
 40
24
 41
1
 50
0
  1
Ｂ
  0
LINE
  8
_0-0_
  6
CONTINUOUS
 62
    7
 10
989.08437229390813
 20
1361.6868687810982
 11
989.08437229390813
 21
930.10069188254192
  0
LINE
  8
_0-0_
  6
CONTINUOUS
 62
    7
 10
1087.7843722939087
 20
732.17009188254133
 11
1087.7843722939087
 21
1246.221746159656
  0
LINE
  8
_0-0_
  6
CONTINUOUS
 62
    7
 10
1269.7843722939106
 20
1194.4217461596577
 11
1269.7843722939106
 21
1246.221746159656
  0
LINE
  8
_0-0_
  6
CONTINUOUS
 62
    7
 10
1269.7843722939106
 20
734.10069188254192
 11
1269.7843722939106
 21
1130.0217461596562
  0
LINE
  8
_0-0_
  6
CONTINUOUS
 62
    7
 10
842.78437229390886
 20
802.17009188254133
 11
842.78437229390886
 21
732.17009188254133
  0
LINE
  8
_0-0_
  6
DASHED2
 62
    5
 10
1426.1228714757526
 20
291.99493984727587
 11
1525.0834585583616
 21
291.99493984727587
  0
LINE
  8
_0-0_
  6
CONTINUOUS
 62
    7
 10
1374.4685794538946
 20
304.35023338858036
 11
1421.4856284323105
 21
385.78615104115261
  0
LINE
  8
_0-0_
  6
CONTINUOUS
 62
    7
 10
1224.2015330477643
 20
418.12229756870465
 11
1298.7251209521783
 21
492.64588547311769
  0
LINE
  8
_0-0_
  6
CONTINUOUS
 62
    7
 10
1224.2015330477643
 20
434.03220014540193
 11
1282.815218375481
 21
492.64588547311769
  0
LINE
  8
_0-0_
  6
CONTINUOUS
 62
    7
 10
1224.2015330477643
 20
449.94210272209739
 11
1266.9053157987855
 21
492.64588547311769
  0
LINE
  8
_0-0_
  6
CONTINUOUS
 62
    7
 10
1313.6228714757526
 20
275.49493984727587
 11
1673.7944740951443
 21
275.49493984727587
  0
LINE
  8
_0-0_
  6
CONTINUOUS
 62
    3
 10
1426.1228714757526
 20
288.99493984727587
 11
1673.7944740951443
 21
288.99493984727587
  0
LINE
  8
_0-0_
  6
CONTINUOUS
 62
    4
 10
1327.1228714757526
 20
309.24493984727587
 11
1673.7944740951443
 21
309.24493984727587
  0
LINE
  8
_0-0_
  6
CONTINUOUS
 62
    7
 10
1509.4732545193128
 20
194.27713658593916
 11
1590.6910577806484
 21
275.49493984727314
  0
LINE
  8
_0-0_
  6
CONTINUOUS
 62
    7
 10
1493.5633519426156
 20
194.27713658593916
 11
1574.7811552039511
 21
275.49493984727314
  0
LINE
  8
_0-0_
  6
CONTINUOUS
 62
    7
 10
1477.6534493659201
 20
194.27713658593916
 11
1558.8712526272575
 21
275.49493984727314
  0
LINE
  8
_0-0_
  6
CONTINUOUS
 62
    4
 10
1327.1228714757526
 20
492.64588547311769
 11
1327.1228714757526
 21
309.24493984727587
  0
LINE
  8
_0-0_
  6
CONTINUOUS
 62
    7
 10
1313.6228714757526
 20
275.49493984727587
 11
1313.6228714757526
 21
492.64588547311769
  0
LINE
  8
_0-0_
  6
DASHED2
 62
    5
 10
1313.6228714757526
 20
281.49493984727587
 11
1415.6228714757526
 21
281.49493984727587
  0
LINE
  8
_0-0_
  6
CONTINUOUS
 62
    3
 10
1426.1228714757526
 20
288.99493984727587
 11
1426.1228714757526
 21
275.49493984727587
  0
LINE
  8
_0-0_
  6
DASHED2
 62
    5
 10
1426.1228714757526
 20
291.99493984727587
 11
1415.6228714757526
 21
281.49493984727587
  0
POINT
  8
_0-0_
 62
    7
 10
1374.4685794538946
 20
304.35023338858036
  0
LINE
  8
_0-0_
  6
CONTINUOUS
 62
    7
 10
1334.6043943910317
 20
309.24493984727587
 11
1413.3162601040058
 21
445.57789042068589
  0
POINT
  8
_0-0_
 62
    7
 10
1334.6043943910317
 20
309.24493984727587
  0
POINT
  8
_0-0_
 62
    7
 10
1473.9695194546694
 20
291.99493984727587
  0
POINT
  8
_0-0_
 62
    7
 10
1531.8793212446781
 20
282.24493984727587
  0
LINE
  8
_0-0_
  6
CONTINUOUS
 62
    7
 10
1578.8578678926915
 20
275.49493984727587
 11
1610.2225759078483
 21
329.82020769409019
  0
POINT
  8
_0-0_
 62
    7
 10
1578.8578678926915
 20
275.49493984727587
  0
TEXT
  8
_0-0_
 62
    7
 10
1402.9250483775704
 20
447.9264279103736
 40
21.617968000000001
 41
1
 50
0
  1
ﾄｯﾌﾟｺｰﾄ
  0
TEXT
  8
_0-0_
 62
    7
 10
1525.9683448193782
 20
407.4009699580688
 40
21.617968000000001
 41
1
 50
0
  1
DFﾒｯｼｭﾃｰﾌﾟ
  0
TEXT
  8
_0-0_
 62
    7
 10
1405.3951385921773
 20
388.67434119798645
 40
21.617968000000001
 41
1
 50
0
  1
ｳﾚﾀﾝ防水
  0
LINE
  8
_0-0_
  6
CONTINUOUS
 62
    7
 10
1473.9695194546694
 20
291.99493984727587
 11
1536.5485219656093
 21
400.38495168320378
  0
TEXT
  8
_0-0_
 62
    7
 10
1552.6556862102652
 20
365.68222086678088
 40
21.617968000000001
 41
1
 50
0
  1
通気緩衝ｼｰﾄ
  0
TEXT
  8
_0-0_
 62
    7
 10
1604.8173080197266
 20
331.18030553106519
 40
21.617968000000001
 41
1
 50
0
  1
ﾌﾟﾗｲﾏｰ
  0
LINE
  8
_0-0_
  6
CONTINUOUS
 62
    7
 10
1531.8793212446781
 20
282.24493984727587
 11
1576.7810052518744
 21
360.01693789314504
  0
LINE
  8
_0-0_
  6
CONTINUOUS
 62
    7
 10
889.41397963401153
 20
938.23077615146485
 11
840.51847913733411
 21
1022.9202672732195
  0
POINT
  8
_0-0_
 62
    7
 10
889.41397963401153
 20
938.23077615146485
  0
TEXT
  8
_0-0_
 62
    7
 10
746.43390593982997
 20
1009.7208129985552
 40
30
 41
1
 50
0
  1
防水層
  0
LINE
  8
_0-0_
  6
CONTINUOUS
 62
    7
 10
772.78437229390886
 20
802.17009188254133
 11
842.78437229390886
 21
802.17009188254133
  0
LINE
  8
_0-0_
  6
CONTINUOUS
 62
    7
 10
1206.7843722939106
 20
1106.221746159657
 11
1206.7843722939106
 21
700.8634157536826
  0
LINE
  8
_0-0_
  6
CONTINUOUS
 62
    7
 10
1143.7843722939106
 20
1106.221746159657
 11
1213.7843722939106
 21
1106.221746159657
  0
LINE
  8
_0-0_
  6
CONTINUOUS
 62
    7
 10
1234.7843722939106
 20
1197.221746159657
 11
1234.7843722939106
 21
1127.221746159657
  0
LINE
  8
_0-0_
  6
CONTINUOUS
 62
    7
 10
1206.7843722939106
 20
700.8634157536826
 11
1205.6039132939095
 21
699.11111975368294
  0
LINE
  8
_0-0_
  6
CONTINUOUS
 62
    7
 10
1204.2059432939095
 20
697.52805575368257
 11
1202.6141502939099
 21
696.14027075368267
  0
LINE
  8
_0-0_
  6
CONTINUOUS
 62
    7
 10
1200.8556172939097
 20
694.97145975368312
 11
1198.9598002939092
 21
694.04118775368261
  0
LINE
  8
_0-0_
  6
CONTINUOUS
 62
    7
 10
1196.9591022939094
 20
693.36537975368265
 11
1194.8877392939103
 21
692.955522753683
  0
LINE
  8
_0-0_
  6
CONTINUOUS
 62
    7
 10
1192.7883272939107
 20
692.81845575368243
 11
1190.6809982939103
 21
692.955522753683
  0
LINE
  8
_0-0_
  6
CONTINUOUS
 62
    7
 10
1188.6096352939094
 20
693.36537975368265
 11
1186.6089372939095
 21
694.04118775368261
  0
LINE
  8
_0-0_
  6
CONTINUOUS
 62
    7
 10
1184.7131202939108
 20
694.97145975368312
 11
1182.9545872939107
 21
696.14027075368267
  0
LINE
  8
_0-0_
  6
CONTINUOUS
 62
    7
 10
1181.3627942939092
 20
697.52805575368257
 11
1179.9648242939111
 21
699.11111975368294
  0
LINE
  8
_0-0_
  6
CONTINUOUS
 62
    7
 10
1178.7843722939087
 20
700.8634157536826
 11
1177.6039132939095
 21
702.61563475368257
  0
LINE
  8
_0-0_
  6
CONTINUOUS
 62
    7
 10
1176.2059432939095
 20
704.19869875368295
 11
1174.6141502939099
 21
705.58648375368284
  0
LINE
  8
_0-0_
  6
CONTINUOUS
 62
    7
 10
1172.8556172939097
 20
706.75529475368239
 11
1170.9598002939092
 21
707.68556675368291
  0
LINE
  8
_0-0_
  6
CONTINUOUS
 62
    7
 10
1168.9591022939094
 20
708.36137475368287
 11
1166.8877392939103
 21
708.77123175368251
  0
LINE
  8
_0-0_
  6
CONTINUOUS
 62
    7
 10
1164.7804102939099
 20
708.90829875368308
 11
1162.6809982939085
 21
708.77123175368251
  0
LINE
  8
_0-0_
  6
CONTINUOUS
 62
    7
 10
1160.6096352939094
 20
708.36137475368287
 11
1158.6089372939095
 21
707.68556675368291
  0
LINE
  8
_0-0_
  6
CONTINUOUS
 62
    7
 10
1156.7131202939108
 20
706.75529475368239
 11
1154.9545872939107
 21
705.58648375368284
  0
LINE
  8
_0-0_
  6
CONTINUOUS
 62
    7
 10
1153.3627942939092
 20
704.19869875368295
 11
1151.9648242939111
 21
702.61563475368257
  0
LINE
  8
_0-0_
  6
CONTINUOUS
 62
    7
 10
1178.7843722939087
 20
700.8634157536826
 11
1179.9648242939111
 21
699.11111975368294
  0
LINE
  8
_0-0_
  6
CONTINUOUS
 62
    7
 10
1181.3627942939092
 20
697.52805575368257
 11
1182.9545872939107
 21
696.14027075368267
  0
LINE
  8
_0-0_
  6
CONTINUOUS
 62
    7
 10
1184.7131202939108
 20
694.97145975368312
 11
1186.6089372939095
 21
694.04118775368261
  0
LINE
  8
_0-0_
  6
CONTINUOUS
 62
    7
 10
1188.6096352939094
 20
693.36537975368265
 11
1190.6809982939103
 21
692.955522753683
  0
LINE
  8
_0-0_
  6
CONTINUOUS
 62
    7
 10
1192.7883272939107
 20
692.81845575368243
 11
1194.8877392939103
 21
692.955522753683
  0
LINE
  8
_0-0_
  6
CONTINUOUS
 62
    7
 10
1196.9591022939094
 20
693.36537975368265
 11
1198.9598002939092
 21
694.04118775368261
  0
LINE
  8
_0-0_
  6
CONTINUOUS
 62
    7
 10
1200.8556172939097
 20
694.97145975368312
 11
1202.6141502939099
 21
696.14027075368267
  0
LINE
  8
_0-0_
  6
CONTINUOUS
 62
    7
 10
1204.2059432939095
 20
697.52805575368257
 11
1205.6039132939095
 21
699.11111975368294
  0
LINE
  8
_0-0_
  6
CONTINUOUS
 62
    7
 10
1150.7843722939087
 20
700.86334575368346
 11
1151.9648242939111
 21
702.61563475368257
  0
LINE
  8
_0-0_
  6
CONTINUOUS
 62
    7
 10
1153.3627942939092
 20
704.19869875368295
 11
1154.9545872939107
 21
705.58648375368284
  0
LINE
  8
_0-0_
  6
CONTINUOUS
 62
    7
 10
1156.7131202939108
 20
706.75529475368239
 11
1158.6089372939095
 21
707.68556675368291
  0
LINE
  8
_0-0_
  6
CONTINUOUS
 62
    7
 10
1160.6096352939094
 20
708.36137475368287
 11
1162.6809982939085
 21
708.77123175368251
  0
LINE
  8
_0-0_
  6
CONTINUOUS
 62
    7
 10
1164.7804102939099
 20
708.90829875368308
 11
1166.8877392939103
 21
708.77123175368251
  0
LINE
  8
_0-0_
  6
CONTINUOUS
 62
    7
 10
1168.9591022939094
 20
708.36137475368287
 11
1170.9598002939092
 21
707.68556675368291
  0
LINE
  8
_0-0_
  6
CONTINUOUS
 62
    7
 10
1172.8556172939097
 20
706.75529475368239
 11
1174.6141502939099
 21
705.58648375368284
  0
LINE
  8
_0-0_
  6
CONTINUOUS
 62
    7
 10
1176.2059432939095
 20
704.19869875368295
 11
1177.6039132939095
 21
702.61563475368257
  0
LINE
  8
_0-0_
  6
CONTINUOUS
 62
    7
 10
1178.7843722939087
 20
700.8634157536826
 11
1177.6039132939095
 21
699.11111975368294
  0
LINE
  8
_0-0_
  6
CONTINUOUS
 62
    7
 10
1176.2059432939095
 20
697.52805575368257
 11
1174.6141502939099
 21
696.14027075368267
  0
LINE
  8
_0-0_
  6
CONTINUOUS
 62
    7
 10
1172.8556172939097
 20
694.97145975368312
 11
1170.9598002939092
 21
694.04118775368261
  0
LINE
  8
_0-0_
  6
CONTINUOUS
 62
    7
 10
1168.9591022939094
 20
693.36537975368265
 11
1166.8877392939103
 21
692.955522753683
  0
LINE
  8
_0-0_
  6
CONTINUOUS
 62
    7
 10
1164.7883272939107
 20
692.81845575368243
 11
1162.6809982939085
 21
692.955522753683
  0
LINE
  8
_0-0_
  6
CONTINUOUS
 62
    7
 10
1160.6096352939094
 20
693.36537975368265
 11
1158.6089372939095
 21
694.04118775368261
  0
LINE
  8
_0-0_
  6
CONTINUOUS
 62
    7
 10
1156.7131202939108
 20
694.97145975368312
 11
1154.9545872939107
 21
696.14027075368267
  0
LINE
  8
_0-0_
  6
CONTINUOUS
 62
    7
 10
1153.3627942939092
 20
697.52805575368257
 11
1151.9648242939111
 21
699.11111975368294
  0
LINE
  8
_0-0_
  6
CONTINUOUS
 62
    7
 10
1150.7843722939087
 20
700.8634157536826
 11
1150.7841570239743
 21
700.86341901643846
  0
LINE
  8
_0-0_
  6
CONTINUOUS
 62
    7
 10
1150.7843722939087
 20
700.8634157536826
 11
1151.9648242939111
 21
699.11111975368294
  0
LINE
  8
_0-0_
  6
CONTINUOUS
 62
    7
 10
1177.6039132939095
 20
699.11111975368294
 11
1176.2059432939095
 21
697.52805575368257
  0
LINE
  8
_0-0_
  6
CONTINUOUS
 62
    7
 10
1174.6141502939099
 20
696.14027075368267
 11
1172.8556172939097
 21
694.97145975368312
  0
LINE
  8
_0-0_
  6
CONTINUOUS
 62
    7
 10
1170.9598002939092
 20
694.04118775368261
 11
1168.9591022939094
 21
693.36537975368265
  0
LINE
  8
_0-0_
  6
CONTINUOUS
 62
    7
 10
1166.8877392939103
 20
692.955522753683
 11
1164.7883272939107
 21
692.81845575368243
  0
LINE
  8
_0-0_
  6
CONTINUOUS
 62
    7
 10
1162.6809982939085
 20
692.955522753683
 11
1160.6096352939094
 21
693.36537975368265
  0
LINE
  8
_0-0_
  6
CONTINUOUS
 62
    7
 10
1158.6089372939095
 20
694.04118775368261
 11
1156.7131202939108
 21
694.97145975368312
  0
LINE
  8
_0-0_
  6
CONTINUOUS
 62
    7
 10
1154.9545872939107
 20
696.14027075368267
 11
1153.3627942939092
 21
697.52805575368257
  0
LINE
  8
_0-0_
  6
CONTINUOUS
 62
    7
 10
1234.7843722939106
 20
1197.221746159657
 11
1206.7843722939106
 21
1197.221746159657
  0
LINE
  8
_0-0_
  6
CONTINUOUS
 62
    7
 10
1143.7843722939106
 20
1134.221746159657
 11
1143.7843722939106
 21
1106.221746159657
  0
ARC
  8
_0-0_
  6
CONTINUOUS
 62
    7
 10
1206.7843722939106
 20
1134.221746159657
 40
63
 50
90
 51
180
  0
ARC
  8
_0-0_
  6
CONTINUOUS
 62
    7
 10
1234.5966946156705
 20
1106.221746159657
 40
21.000838623990937
 50
89.487959400031784
 51
180
  0
LINE
  8
_0-0_
  6
CONTINUOUS
 62
    7
 10
1374.7843722939106
 20
1112.5082796391303
 11
1374.7843722939106
 21
930.10069188254192
  0
LINE
  8
_0-0_
  6
CONTINUOUS
 62
    7
 10
1234.7843722939106
 20
1190.221746159657
 11
1441.3392857260824
 21
1190.221746159657
  0
LINE
  8
_0-0_
  6
CONTINUOUS
 62
    7
 10
1449.1896791582567
 20
1256.721746159657
 11
1459.6896791582567
 21
1256.721746159657
  0
LINE
  8
_0-0_
  6
CONTINUOUS
 62
    7
 10
1459.6896791582567
 20
1256.721746159657
 11
1463.1896791582549
 21
1246.221746159656
  0
LINE
  8
_0-0_
  6
CONTINUOUS
 62
    7
 10
1441.3394257260843
 20
1134.221746159657
 11
1439.5902587260844
 21
1135.3997761596561
  0
LINE
  8
_0-0_
  6
CONTINUOUS
 62
    7
 10
1438.0068517260843
 20
1136.7973611596567
 11
1436.6186817260841
 21
1138.3888181596571
  0
LINE
  8
_0-0_
  6
CONTINUOUS
 62
    7
 10
1435.4494367260831
 20
1140.1470641596566
 11
1434.5187027260836
 21
1142.0426501596571
  0
LINE
  8
_0-0_
  6
CONTINUOUS
 62
    7
 10
1433.8424117260838
 20
1144.0431871596561
 11
1433.4320507260836
 21
1146.1144521596566
  0
LINE
  8
_0-0_
  6
CONTINUOUS
 62
    7
 10
1433.2944657260832
 20
1148.221746159657
 11
1433.4320507260836
 21
1150.3290331596568
  0
LINE
  8
_0-0_
  6
CONTINUOUS
 62
    7
 10
1433.8424117260838
 20
1152.4002981596564
 11
1434.5187027260836
 21
1154.4008351596572
  0
LINE
  8
_0-0_
  6
CONTINUOUS
 62
    7
 10
1435.4494367260831
 20
1156.2964211596568
 11
1436.6186817260841
 21
1158.0546671596571
  0
LINE
  8
_0-0_
  6
CONTINUOUS
 62
    7
 10
1438.0068517260843
 20
1159.6461241596567
 11
1439.5902587260844
 21
1161.0437091596564
  0
LINE
  8
_0-0_
  6
CONTINUOUS
 62
    7
 10
1441.3394257260843
 20
1162.221746159656
 11
1443.0884457260836
 21
1163.399776159657
  0
LINE
  8
_0-0_
  6
CONTINUOUS
 62
    7
 10
1444.6718527260837
 20
1164.7973611596567
 11
1446.0600227260838
 21
1166.3888181596562
  0
LINE
  8
_0-0_
  6
CONTINUOUS
 62
    7
 10
1447.2292677260848
 20
1168.1470641596566
 11
1448.1600017260826
 21
1170.0426501596562
  0
LINE
  8
_0-0_
  6
CONTINUOUS
 62
    7
 10
1448.8362927260841
 20
1172.043187159657
 11
1449.2466537260825
 21
1174.1144521596566
  0
LINE
  8
_0-0_
  6
CONTINUOUS
 62
    7
 10
1449.3842457260835
 20
1176.221746159657
 11
1449.2466537260825
 21
1178.3290331596568
  0
LINE
  8
_0-0_
  6
CONTINUOUS
 62
    7
 10
1448.8362927260841
 20
1180.4002981596564
 11
1448.1600017260826
 21
1182.4008351596572
  0
LINE
  8
_0-0_
  6
CONTINUOUS
 62
    7
 10
1447.2292677260848
 20
1184.2964211596568
 11
1446.0600227260838
 21
1186.0546671596571
  0
LINE
  8
_0-0_
  6
CONTINUOUS
 62
    7
 10
1444.6718527260837
 20
1187.6461241596567
 11
1443.0884457260836
 21
1189.0437091596564
  0
LINE
  8
_0-0_
  6
CONTINUOUS
 62
    7
 10
1441.3392857260824
 20
1190.221746159657
 11
1443.0884457260836
 21
1189.0437091596564
  0
LINE
  8
_0-0_
  6
CONTINUOUS
 62
    7
 10
1444.6718527260837
 20
1187.6461241596567
 11
1446.0600227260838
 21
1186.0546671596571
  0
LINE
  8
_0-0_
  6
CONTINUOUS
 62
    7
 10
1447.2292677260848
 20
1184.2964211596568
 11
1448.1600017260826
 21
1182.4008351596572
  0
LINE
  8
_0-0_
  6
CONTINUOUS
 62
    7
 10
1448.8362927260841
 20
1180.4002981596564
 11
1449.2466537260825
 21
1178.3290331596568
  0
LINE
  8
_0-0_
  6
CONTINUOUS
 62
    7
 10
1449.3842457260835
 20
1176.221746159657
 11
1449.2466537260825
 21
1174.1144521596566
  0
LINE
  8
_0-0_
  6
CONTINUOUS
 62
    7
 10
1448.8362927260841
 20
1172.043187159657
 11
1448.1600017260826
 21
1170.0426501596562
  0
LINE
  8
_0-0_
  6
CONTINUOUS
 62
    7
 10
1447.2292677260848
 20
1168.1470641596566
 11
1446.0600227260838
 21
1166.3888181596562
  0
LINE
  8
_0-0_
  6
CONTINUOUS
 62
    7
 10
1444.6718527260837
 20
1164.7973611596567
 11
1443.0884457260836
 21
1163.399776159657
  0
LINE
  8
_0-0_
  6
CONTINUOUS
 62
    7
 10
1441.3394257260843
 20
1162.221746159656
 11
1439.5902587260844
 21
1161.0437091596564
  0
LINE
  8
_0-0_
  6
CONTINUOUS
 62
    7
 10
1441.3394257260843
 20
1162.221746159656
 11
1443.0884457260836
 21
1161.0437091596564
  0
LINE
  8
_0-0_
  6
CONTINUOUS
 62
    7
 10
1444.6718527260837
 20
1159.6461241596567
 11
1446.0600227260838
 21
1158.0546671596571
  0
LINE
  8
_0-0_
  6
CONTINUOUS
 62
    7
 10
1447.2292677260848
 20
1156.2964211596568
 11
1448.1600017260826
 21
1154.4008351596572
  0
LINE
  8
_0-0_
  6
CONTINUOUS
 62
    7
 10
1438.0068517260843
 20
1159.6461241596567
 11
1436.6186817260841
 21
1158.0546671596571
  0
LINE
  8
_0-0_
  6
CONTINUOUS
 62
    7
 10
1435.4494367260831
 20
1156.2964211596568
 11
1434.5187027260836
 21
1154.4008351596572
  0
LINE
  8
_0-0_
  6
CONTINUOUS
 62
    7
 10
1433.8424117260838
 20
1152.4002981596564
 11
1433.4320507260836
 21
1150.3290331596568
  0
LINE
  8
_0-0_
  6
CONTINUOUS
 62
    7
 10
1433.2944657260832
 20
1148.221746159657
 11
1433.4320507260836
 21
1146.1144521596566
  0
LINE
  8
_0-0_
  6
CONTINUOUS
 62
    7
 10
1433.8424117260838
 20
1144.0431871596561
 11
1434.5187027260836
 21
1142.0426501596571
  0
LINE
  8
_0-0_
  6
CONTINUOUS
 62
    7
 10
1435.4494367260831
 20
1140.1470641596566
 11
1436.6186817260841
 21
1138.3888181596571
  0
LINE
  8
_0-0_
  6
CONTINUOUS
 62
    7
 10
1438.0068517260843
 20
1136.7973611596567
 11
1439.5902587260844
 21
1135.3997761596561
  0
LINE
  8
_0-0_
  6
CONTINUOUS
 62
    7
 10
1443.0884457260836
 20
1135.3997761596561
 11
1444.6718527260837
 21
1136.7973611596567
  0
LINE
  8
_0-0_
  6
CONTINUOUS
 62
    7
 10
1446.0600227260838
 20
1138.3888181596571
 11
1447.2292677260848
 21
1140.1470641596566
  0
LINE
  8
_0-0_
  6
CONTINUOUS
 62
    7
 10
1448.1600017260826
 20
1142.0426501596571
 11
1448.8362927260841
 21
1144.0431871596561
  0
LINE
  8
_0-0_
  6
CONTINUOUS
 62
    7
 10
1449.2466537260825
 20
1146.1144521596566
 11
1449.3842457260835
 21
1148.221746159657
  0
LINE
  8
_0-0_
  6
CONTINUOUS
 62
    7
 10
1449.2466537260825
 20
1150.3290331596568
 11
1448.8362927260841
 21
1152.4002981596564
  0
LINE
  8
_0-0_
  6
CONTINUOUS
 62
    7
 10
1441.3392857260824
 20
1134.221746159657
 11
1443.0884457260836
 21
1135.3997761596561
  0
LINE
  8
_0-0_
  6
CONTINUOUS
 62
    7
 10
1443.0884457260836
 20
1161.0437091596564
 11
1444.6718527260837
 21
1159.6461241596567
  0
LINE
  8
_0-0_
  6
CONTINUOUS
 62
    7
 10
1446.0600227260838
 20
1158.0546671596571
 11
1447.2292677260848
 21
1156.2964211596568
  0
LINE
  8
_0-0_
  6
CONTINUOUS
 62
    7
 10
1448.1600017260826
 20
1154.4008351596572
 11
1448.8362927260841
 21
1152.4002981596564
  0
LINE
  8
_0-0_
  6
CONTINUOUS
 62
    7
 10
1449.2466537260825
 20
1150.3290331596568
 11
1449.3842457260835
 21
1148.221746159657
  0
LINE
  8
_0-0_
  6
CONTINUOUS
 62
    7
 10
1449.2466537260825
 20
1146.1144521596566
 11
1448.8362927260841
 21
1144.0431871596561
  0
LINE
  8
_0-0_
  6
CONTINUOUS
 62
    7
 10
1448.1600017260826
 20
1142.0426501596571
 11
1447.2292677260848
 21
1140.1470641596566
  0
LINE
  8
_0-0_
  6
CONTINUOUS
 62
    7
 10
1446.0600227260838
 20
1138.3888181596571
 11
1444.6718527260837
 21
1136.7973611596567
  0
LINE
  8
_0-0_
  6
CONTINUOUS
 62
    7
 10
1234.7843722939106
 20
1134.221746159657
 11
1441.3394257260843
 21
1134.221746159657
  0
LINE
  8
_0-0_
  6
CONTINUOUS
 62
    4
 10
983.08437229390813
 20
940.60069188254192
 11
772.78437229390886
 21
940.60069188254192
  0
LINE
  8
_0-0_
  6
CONTINUOUS
 62
    4
 10
983.08437229390813
 20
1364.2337176783558
 11
983.08437229390813
 21
940.60069188254192
  0
LINE
  8
_0-0_
  6
CONTINUOUS
 62
    4
 10
994.30153975195674
 20
1375.0660103777241
 11
983.08437229390813
 21
1364.2337176783558
  0
LINE
  8
_0-0_
  6
CONTINUOUS
 62
    4
 10
994.30153975195674
 20
1375.0660103777241
 11
1500.5278438725009
 21
1357.388198300871
  0
LINE
  8
_0-0_
  6
CONTINUOUS
 62
    4
 10
1500.5278438725009
 20
1357.388198300871
 11
1511.1896791582567
 21
1346.3475446618295
  0
LINE
  8
_0-0_
  6
CONTINUOUS
 62
    4
 10
1497.7650579557976
 20
1246.221746159656
 11
1506.2503393300367
 21
1246.221746159656
  0
LINE
  8
_0-0_
  6
CONTINUOUS
 62
    4
 10
1511.1896791582567
 20
1251.1610859878765
 11
1506.2503393300367
 21
1246.221746159656
  0
LINE
  8
_0-0_
  6
CONTINUOUS
 62
    4
 10
1511.1896791582567
 20
1251.1610859878765
 11
1511.1896791582567
 21
1346.3475446618295
  0
LINE
  8
_0-0_
  6
CONTINUOUS
 62
    4
 10
1380.7843722939106
 20
940.60069188254192
 11
1584.7843722939106
 21
940.60069188254192
  0
LINE
  8
_0-0_
  6
CONTINUOUS
 62
    4
 10
1380.7843722939106
 20
1237.5122415670025
 11
1380.7843722939106
 21
1207.3312507523096
  0
LINE
  8
_0-0_
  6
CONTINUOUS
 62
    4
 10
1380.7843722939106
 20
1117.1122415670043
 11
1380.7843722939106
 21
940.60069188254192
  0
LINE
  8
_0-0_
  6
CONTINUOUS
 62
    2
 10
1365.4195033555707
 20
1121.2292457908418
 11
1370.0120037243832
 21
1125.8217461596555
  0
LINE
  8
_0-0_
  6
CONTINUOUS
 62
    2
 10
1366.9810004558794
 20
1120.8108439038303
 11
1371.9919027117066
 21
1125.8217461596573
  0
LINE
  8
_0-0_
  6
CONTINUOUS
 62
    2
 10
1368.5424975561928
 20
1120.3924420168182
 11
1373.9718016990319
 21
1125.8217461596573
  0
LINE
  8
_0-0_
  6
CONTINUOUS
 62
    4
 10
1364.2843722939106
 20
1121.5334032421169
 11
1380.7843722939106
 21
1117.1122415670043
  0
LINE
  8
_0-0_
  6
CONTINUOUS
 62
    4
 10
1364.2843722939106
 20
1202.910089077197
 11
1380.7843722939106
 21
1207.3312507523096
  0
LINE
  8
_0-0_
  6
CONTINUOUS
 62
    2
 10
1364.2843722939124
 20
1201.2699732094011
 11
1366.5248122344728
 21
1203.5104131499609
  0
LINE
  8
_0-0_
  6
CONTINUOUS
 62
    2
 10
1364.2843722939087
 20
1199.2900742220759
 11
1369.2294045480803
 21
1204.2351064762472
  0
LINE
  8
_0-0_
  6
CONTINUOUS
 62
    2
 10
1365.5959432188156
 20
1198.6217461596575
 11
1371.9339968616914
 21
1204.9597998025347
  0
LINE
  8
_0-0_
  6
CONTINUOUS
 62
    2
 10
1367.5758422061372
 20
1198.6217461596566
 11
1374.6385891753016
 21
1205.6844931288219
  0
LINE
  8
_0-0_
  6
CONTINUOUS
 62
    2
 10
1369.5557411934587
 20
1198.6217461596575
 11
1377.3431814889091
 21
1206.4091864551081
  0
LINE
  8
_0-0_
  6
CONTINUOUS
 62
    2
 10
1365.1246664418404
 20
1241.7082471037743
 11
1369.6381654977231
 21
1246.221746159657
  0
LINE
  8
_0-0_
  6
CONTINUOUS
 62
    2
 10
1366.686163542151
 20
1241.2898452167624
 11
1371.618064485041
 21
1246.2217461596551
  0
LINE
  8
_0-0_
  6
CONTINUOUS
 62
    2
 10
1368.2476606424607
 20
1240.8714433297507
 11
1373.5979634723644
 21
1246.2217461596551
  0
LINE
  8
_0-0_
  6
CONTINUOUS
 62
    2
 10
1369.8091577427704
 20
1240.4530414427393
 11
1374.9877946705692
 21
1245.6316783705383
  0
LINE
  8
_0-0_
  6
CONTINUOUS
 62
    2
 10
1371.3706548430819
 20
1240.0346395557272
 11
1375.5113717039858
 21
1244.1753564166324
  0
LINE
  8
_0-0_
  6
CONTINUOUS
 62
    2
 10
1372.9321519433915
 20
1239.6162376687155
 11
1376.0573216654466
 21
1242.7414073907698
  0
LINE
  8
_0-0_
  6
CONTINUOUS
 62
    2
 10
1374.493649043703
 20
1239.1978357817036
 11
1376.6250920287021
 21
1241.3292787667028
  0
LINE
  8
_0-0_
  6
CONTINUOUS
 62
    2
 10
1376.0551461440145
 20
1238.7794338946915
 11
1377.2141741765972
 21
1239.9384619272746
  0
LINE
  8
_0-0_
  6
CONTINUOUS
 62
    2
 10
1377.6166432443215
 20
1238.3610320076807
 11
1377.8240997003923
 21
1238.5684884637517
  0
ARC
  8
_0-0_
  6
CONTINUOUS
 62
    2
 10
1452.9774270375074
 20
1272.8482405970331
 40
82.602203458253697
 50
198.80486384457157
 51
204.74803418490743
  0
LINE
  8
_0-0_
  6
CONTINUOUS
 62
    4
 10
1364.2843722939106
 20
1241.9334032421166
 11
1380.7843722939106
 21
1237.5122415670025
  0
ARC
  8
_0-0_
  6
CONTINUOUS
 62
    2
 10
1390.202314696221
 20
1194.4217461596577
 40
15.979766829367051
 50
126.11208000178307
 51
164.76180838953087
  0
LINE
  8
_0-0_
  6
CONTINUOUS
 62
    2
 10
1373.5155391681037
 20
1198.6217461596575
 11
1375.4447496096627
 21
1200.5509566012183
  0
LINE
  8
_0-0_
  6
CONTINUOUS
 62
    2
 10
1371.5356401807785
 20
1198.6217461596557
 11
1380.0477738025202
 21
1207.1338797813955
  0
LINE
  8
_0-0_
  6
CONTINUOUS
 62
    2
 10
1371.665491756813
 20
1119.5556382427951
 11
1375.6126991003312
 21
1123.5028455863137
  0
LINE
  8
_0-0_
  6
CONTINUOUS
 62
    2
 10
1370.1039946565015
 20
1119.974040129807
 11
1375.0565944849668
 21
1124.926639958273
  0
ARC
  8
_0-0_
  6
CONTINUOUS
 62
    2
 10
1390.2023146962238
 20
1130.0217461596599
 40
15.979766829371336
 50
195.23819161048107
 51
233.88791999821916
  0
LINE
  8
_0-0_
  6
CONTINUOUS
 62
    2
 10
1379.472977258366
 20
1117.4636288077368
 11
1379.8543618700241
 21
1117.8450134193954
  0
LINE
  8
_0-0_
  6
CONTINUOUS
 62
    2
 10
1377.9114801580545
 20
1117.8820306947487
 11
1378.8276063103685
 21
1118.7981568470632
  0
LINE
  8
_0-0_
  6
CONTINUOUS
 62
    2
 10
968.64444312336957
 20
272.20289766242763
 11
972.10442763502863
 21
275.66288217408896
  0
LINE
  8
_0-0_
  6
CONTINUOUS
 62
    2
 10
965.13107464766756
 20
273.14430190820508
 11
970.18793675969948
 21
278.201164020237
  0
LINE
  8
_0-0_
  6
CONTINUOUS
 62
    2
 10
961.61770617196919
 20
274.08570615398162
 11
968.47717130178182
 21
280.94517128379243
  0
LINE
  8
_0-0_
  6
CONTINUOUS
 62
  136
 10
846.99681890474233
 20
484.42585321269758
 11
856.44681890474396
 21
484.42585321269758
  0
LINE
  8
_0-0_
  6
CONTINUOUS
 62
  136
 10
846.99681890474233
 20
452.92585321269758
 11
846.99681890474233
 21
484.42585321269758
  0
LINE
  8
_0-0_
  6
CONTINUOUS
 62
  136
 10
856.44681890474396
 20
452.92585321269758
 11
856.44681890474396
 21
484.42585321269758
  0
LINE
  8
_0-0_
  6
CONTINUOUS
 62
  136
 10
728.87181890474324
 20
452.92585321269758
 11
846.99681890474233
 21
452.92585321269758
  0
LINE
  8
_0-0_
  6
CONTINUOUS
 62
  136
 10
728.87181890474324
 20
289.12585321269512
 11
846.99681890474233
 21
289.12585321269512
  0
LINE
  8
_0-0_
  6
CONTINUOUS
 62
  136
 10
846.99681890474233
 20
289.12585321269512
 11
846.99681890474233
 21
257.62585321269535
  0
LINE
  8
_0-0_
  6
CONTINUOUS
 62
  136
 10
846.99681890474233
 20
257.62585321269535
 11
856.44681890474396
 21
257.62585321269535
  0
LINE
  8
_0-0_
  6
CONTINUOUS
 62
  136
 10
856.44681890474396
 20
289.12585321269512
 11
856.44681890474396
 21
257.62585321269535
  0
LINE
  8
_0-0_
  6
CONTINUOUS
 62
    7
 10
927.32181890474396
 20
443.47585321269776
 11
950.94681890474396
 21
434.02585321269612
  0
LINE
  8
_0-0_
  6
CONTINUOUS
 62
    7
 10
950.94681890474396
 20
443.47585321269776
 11
927.32181890474396
 21
434.02585321269612
  0
LINE
  8
_0-0_
  6
CONTINUOUS
 62
    7
 10
927.32181890474396
 20
308.02585321269612
 11
950.94681890474396
 21
298.57585321269448
  0
LINE
  8
_0-0_
  6
CONTINUOUS
 62
    7
 10
950.94681890474396
 20
308.02585321269612
 11
927.32181890474396
 21
298.57585321269448
  0
LINE
  8
_0-0_
  6
CONTINUOUS
 62
    7
 10
927.32181890474396
 20
308.02585321269612
 11
927.32181890474396
 21
298.57585321269448
  0
LINE
  8
_0-0_
  6
CONTINUOUS
 62
    7
 10
950.94681890474396
 20
308.02585321269612
 11
950.94681890474396
 21
298.57585321269448
  0
LINE
  8
_0-0_
  6
CONTINUOUS
 62
    7
 10
950.94681890474396
 20
443.47585321269776
 11
950.94681890474396
 21
434.02585321269612
  0
LINE
  8
_0-0_
  6
CONTINUOUS
 62
    7
 10
927.32181890474396
 20
443.47585321269776
 11
927.32181890474396
 21
434.02585321269612
  0
LINE
  8
_0-0_
  6
CONTINUOUS
 62
    2
 10
954.92444418036041
 20
298.57585321270085
 11
964.37444418035841
 21
308.02585321269612
  0
LINE
  8
_0-0_
  6
CONTINUOUS
 62
    2
 10
950.94681890474396
 20
299.05300065855795
 11
959.91967145888077
 21
308.02585321269612
  0
LINE
  8
_0-0_
  6
CONTINUOUS
 62
    2
 10
950.94681890474396
 20
303.50777338003149
 11
955.46489873740677
 21
308.02585321269612
  0
LINE
  8
_0-0_
  6
CONTINUOUS
 62
    2
 10
950.94681890474396
 20
307.96254610150731
 11
951.01012601593368
 21
308.02585321269612
  0
LINE
  8
_0-0_
  6
CONTINUOUS
 62
    2
 10
952.27648981462892
 20
434.02585321270067
 11
961.72648981462692
 21
443.47585321269776
  0
LINE
  8
_0-0_
  6
CONTINUOUS
 62
    2
 10
950.94681890474396
 20
437.15095502428699
 11
957.27171709314928
 21
443.47585321269412
  0
LINE
  8
_0-0_
  6
CONTINUOUS
 62
    2
 10
950.94681890474396
 20
441.60572774576463
 11
952.81694437167164
 21
443.47585321269412
  0
LINE
  8
_0-0_
  6
CONTINUOUS
 62
    7
 10
941.49681890474233
 20
265.50085321269512
 11
941.49681890474233
 21
289.12585321269512
  0
LINE
  8
_0-0_
  6
CONTINUOUS
 62
    7
 10
941.49681890474233
 20
265.50085321269512
 11
965.12181890474233
 21
259.17055354151103
  0
LINE
  8
_0-0_
  6
CONTINUOUS
 62
  136
 10
728.87181890474324
 20
452.92585321269758
 11
728.87181890474324
 21
443.47585321269776
  0
LINE
  8
_0-0_
  6
CONTINUOUS
 62
  136
 10
728.87181890474324
 20
298.57585321269448
 11
728.87181890474324
 21
289.12585321269512
  0
LINE
  8
_0-0_
  6
CONTINUOUS
 62
    2
 10
941.49681890473869
 20
280.69345521560331
 11
949.92921690183277
 21
289.12585321269285
  0
LINE
  8
_0-0_
  6
CONTINUOUS
 62
    2
 10
941.49681890474687
 20
285.14822793708458
 11
945.47444418036332
 21
289.12585321269921
  0
LINE
  8
_0-0_
  6
CONTINUOUS
 62
  136
 10
965.12181890474233
 20
298.57585321269448
 11
965.12181890474233
 21
289.12585321269512
  0
LINE
  8
_0-0_
  6
CONTINUOUS
 62
  136
 10
965.12181890474233
 20
452.92585321269758
 11
965.12181890474233
 21
443.47585321269776
  0
LINE
  8
_0-0_
  6
CONTINUOUS
 62
  136
 10
856.44681890474396
 20
452.92585321269758
 11
965.12181890474233
 21
452.92585321269758
  0
LINE
  8
_0-0_
  6
CONTINUOUS
 62
  136
 10
728.87181890474324
 20
443.47585321269776
 11
965.12181890474233
 21
443.47585321269776
  0
LINE
  8
_0-0_
  6
CONTINUOUS
 62
  136
 10
728.87181890474324
 20
298.57585321269448
 11
965.12181890474233
 21
298.57585321269448
  0
LINE
  8
_0-0_
  6
CONTINUOUS
 62
  136
 10
856.44681890474396
 20
289.12585321269512
 11
965.12181890474233
 21
289.12585321269512
  0
ARC
  8
_0-0_
  6
CONTINUOUS
 62
    2
 10
992.89707245517377
 20
303.30085321269576
 40
28.1742849916495
 50
170.34552531892481
 51
189.65447468107519
  0
LINE
  8
_0-0_
  6
CONTINUOUS
 62
    2
 10
959.37921690183441
 20
298.57585321269448
 11
964.72973204838047
 21
303.92636835924145
  0
LINE
  8
_0-0_
  6
CONTINUOUS
 62
    2
 10
963.8339896233075
 20
298.57585321269448
 11
964.95433146011339
 21
299.6961950494981
  0
ARC
  8
_0-0_
  6
CONTINUOUS
 62
    2
 10
987.58299685895247
 20
438.75085321269739
 40
22.95278066140575
 50
168.12030433418508
 51
191.87969566581492
  0
LINE
  8
_0-0_
  6
CONTINUOUS
 62
    2
 10
961.18603525757601
 20
434.02585321269248
 11
964.66411118681765
 21
437.50392914193549
  0
LINE
  8
_0-0_
  6
CONTINUOUS
 62
    2
 10
956.73126253609837
 20
434.02585321269248
 11
964.88824825709264
 21
442.18283893368857
  0
LINE
  8
_0-0_
  6
CONTINUOUS
 62
    7
 10
941.49681890474233
 20
476.55085321269758
 11
941.49681890474233
 21
452.92585321269758
  0
LINE
  8
_0-0_
  6
CONTINUOUS
 62
    7
 10
941.49681890474233
 20
476.55085321269758
 11
965.12181890474233
 21
482.88115288388121
  0
LINE
  8
_0-0_
  6
CONTINUOUS
 62
  136
 10
728.87181890474324
 20
452.92585321269758
 11
728.87181890474324
 21
443.47585321269776
  0
LINE
  8
_0-0_
  6
CONTINUOUS
 62
  136
 10
728.87181890474324
 20
298.57585321269448
 11
728.87181890474324
 21
289.12585321269512
  0
LINE
  8
_0-0_
  6
CONTINUOUS
 62
    7
 10
1114.8706891271331
 20
308.02585321269612
 11
1110.9350633771337
 21
310.67642071269415
  0
LINE
  8
_0-0_
  6
CONTINUOUS
 62
    7
 10
1107.3723976271331
 20
313.820986962696
 11
1104.2490151271331
 21
317.40176521269655
  0
LINE
  8
_0-0_
  6
CONTINUOUS
 62
    7
 10
1101.618213877131
 20
321.35781871269569
 11
1099.5240623771315
 21
325.62288721269647
  0
LINE
  8
_0-0_
  6
CONTINUOUS
 62
    7
 10
1098.002407627132
 20
330.12409546269441
 11
1097.079095377132
 21
334.78444171269552
  0
LINE
  8
_0-0_
  6
CONTINUOUS
 62
    7
 10
1096.7695291271311
 20
339.52585321269612
 11
1097.079095377132
 21
344.26724896269593
  0
LINE
  8
_0-0_
  6
CONTINUOUS
 62
    7
 10
1098.002407627132
 20
348.92759521269522
 11
1099.5240623771315
 21
353.42880346269681
  0
LINE
  8
_0-0_
  6
CONTINUOUS
 62
    7
 10
1101.618213877131
 20
357.69387196269577
 11
1104.2490151271331
 21
361.64992546269673
  0
LINE
  8
_0-0_
  6
CONTINUOUS
 62
    7
 10
1107.3723976271331
 20
365.23070371269546
 11
1110.9350633771337
 21
368.37526996269503
  0
LINE
  8
_0-0_
  6
CONTINUOUS
 62
    7
 10
1114.8706891271331
 20
371.0258532126943
 11
1118.8059841271315
 21
373.67642071269643
  0
LINE
  8
_0-0_
  6
CONTINUOUS
 62
    7
 10
1122.3686498771322
 20
376.820986962696
 11
1125.4920323771321
 21
380.40176521269473
  0
LINE
  8
_0-0_
  6
CONTINUOUS
 62
    7
 10
1128.1228336271342
 20
384.35781871269569
 11
1130.2169851271292
 21
388.62288721269465
  0
LINE
  8
_0-0_
  6
CONTINUOUS
 62
    7
 10
1131.7386398771332
 20
393.12409546269623
 11
1132.6619521271296
 21
397.78444171269552
  0
LINE
  8
_0-0_
  6
CONTINUOUS
 62
    7
 10
1132.9715341271312
 20
402.52585321269612
 11
1132.6619521271296
 21
407.26724896269593
  0
LINE
  8
_0-0_
  6
CONTINUOUS
 62
    7
 10
1131.7386398771332
 20
411.92759521269522
 11
1130.2169851271292
 21
416.42880346269681
  0
LINE
  8
_0-0_
  6
CONTINUOUS
 62
    7
 10
1128.1228336271342
 20
420.69387196269577
 11
1125.4920323771321
 21
424.64992546269673
  0
LINE
  8
_0-0_
  6
CONTINUOUS
 62
    7
 10
1122.3686498771322
 20
428.23070371269546
 11
1118.8059841271315
 21
431.37526996269503
  0
LINE
  8
_0-0_
  6
CONTINUOUS
 62
    7
 10
1114.8703741271293
 20
434.02585321269612
 11
1118.8059841271315
 21
431.37526996269503
  0
LINE
  8
_0-0_
  6
CONTINUOUS
 62
    7
 10
1122.3686498771322
 20
428.23070371269546
 11
1125.4920323771321
 21
424.64992546269673
  0
LINE
  8
_0-0_
  6
CONTINUOUS
 62
    7
 10
1128.1228336271342
 20
420.69387196269577
 11
1130.2169851271292
 21
416.42880346269681
  0
LINE
  8
_0-0_
  6
CONTINUOUS
 62
    7
 10
1131.7386398771332
 20
411.92759521269522
 11
1132.6619521271296
 21
407.26724896269593
  0
LINE
  8
_0-0_
  6
CONTINUOUS
 62
    7
 10
1132.9715341271312
 20
402.52585321269612
 11
1132.6619521271296
 21
397.78444171269552
  0
LINE
  8
_0-0_
  6
CONTINUOUS
 62
    7
 10
1131.7386398771332
 20
393.12409546269623
 11
1130.2169851271292
 21
388.62288721269465
  0
LINE
  8
_0-0_
  6
CONTINUOUS
 62
    7
 10
1128.1228336271342
 20
384.35781871269569
 11
1125.4920323771321
 21
380.40176521269473
  0
LINE
  8
_0-0_
  6
CONTINUOUS
 62
    7
 10
1122.3686498771322
 20
376.820986962696
 11
1118.8059841271315
 21
373.67642071269643
  0
LINE
  8
_0-0_
  6
CONTINUOUS
 62
    7
 10
1114.8706891271331
 20
371.0258532126943
 11
1110.9350633771337
 21
368.37526996269503
  0
LINE
  8
_0-0_
  6
CONTINUOUS
 62
    7
 10
1114.8706891271331
 20
371.0258532126943
 11
1118.8059841271315
 21
368.37526996269503
  0
LINE
  8
_0-0_
  6
CONTINUOUS
 62
    7
 10
1122.3686498771322
 20
365.23070371269546
 11
1125.4920323771321
 21
361.64992546269673
  0
LINE
  8
_0-0_
  6
CONTINUOUS
 62
    7
 10
1128.1228336271342
 20
357.69387196269577
 11
1130.2169851271292
 21
353.42880346269681
  0
LINE
  8
_0-0_
  6
CONTINUOUS
 62
    7
 10
1107.3723976271331
 20
365.23070371269546
 11
1104.2490151271331
 21
361.64992546269673
  0
LINE
  8
_0-0_
  6
CONTINUOUS
 62
    7
 10
1101.618213877131
 20
357.69387196269577
 11
1099.5240623771315
 21
353.42880346269681
  0
LINE
  8
_0-0_
  6
CONTINUOUS
 62
    7
 10
1098.002407627132
 20
348.92759521269522
 11
1097.079095377132
 21
344.26724896269593
  0
LINE
  8
_0-0_
  6
CONTINUOUS
 62
    7
 10
1096.7695291271311
 20
339.52585321269612
 11
1097.079095377132
 21
334.78444171269552
  0
LINE
  8
_0-0_
  6
CONTINUOUS
 62
    7
 10
1098.002407627132
 20
330.12409546269441
 11
1099.5240623771315
 21
325.62288721269647
  0
LINE
  8
_0-0_
  6
CONTINUOUS
 62
    7
 10
1101.618213877131
 20
321.35781871269569
 11
1104.2490151271331
 21
317.40176521269655
  0
LINE
  8
_0-0_
  6
CONTINUOUS
 62
    7
 10
1107.3723976271331
 20
313.820986962696
 11
1110.9350633771337
 21
310.67642071269415
  0
LINE
  8
_0-0_
  6
CONTINUOUS
 62
    7
 10
1118.8059841271315
 20
310.67642071269415
 11
1122.3686498771322
 21
313.820986962696
  0
LINE
  8
_0-0_
  6
CONTINUOUS
 62
    7
 10
1125.4920323771321
 20
317.40176521269655
 11
1128.1228336271342
 21
321.35781871269569
  0
LINE
  8
_0-0_
  6
CONTINUOUS
 62
    7
 10
1130.2169851271292
 20
325.62288721269647
 11
1131.7386398771332
 21
330.12409546269441
  0
LINE
  8
_0-0_
  6
CONTINUOUS
 62
    7
 10
1132.6619521271296
 20
334.78444171269552
 11
1132.9715341271312
 21
339.52585321269612
  0
LINE
  8
_0-0_
  6
CONTINUOUS
 62
    7
 10
1132.6619521271296
 20
344.26724896269593
 11
1131.7386398771332
 21
348.92759521269522
  0
LINE
  8
_0-0_
  6
CONTINUOUS
 62
    7
 10
1114.8703741271293
 20
308.02585321269612
 11
1118.8059841271315
 21
310.67642071269415
  0
LINE
  8
_0-0_
  6
CONTINUOUS
 62
    7
 10
1118.8059841271315
 20
368.37526996269503
 11
1122.3686498771322
 21
365.23070371269546
  0
LINE
  8
_0-0_
  6
CONTINUOUS
 62
    7
 10
1125.4920323771321
 20
361.64992546269673
 11
1128.1228336271342
 21
357.69387196269577
  0
LINE
  8
_0-0_
  6
CONTINUOUS
 62
    7
 10
1130.2169851271292
 20
353.42880346269681
 11
1131.7386398771332
 21
348.92759521269522
  0
LINE
  8
_0-0_
  6
CONTINUOUS
 62
    7
 10
1132.6619521271296
 20
344.26724896269593
 11
1132.9715341271312
 21
339.52585321269612
  0
LINE
  8
_0-0_
  6
CONTINUOUS
 62
    7
 10
1132.6619521271296
 20
334.78444171269552
 11
1131.7386398771332
 21
330.12409546269441
  0
LINE
  8
_0-0_
  6
CONTINUOUS
 62
    7
 10
1130.2169851271292
 20
325.62288721269647
 11
1128.1228336271342
 21
321.35781871269569
  0
LINE
  8
_0-0_
  6
CONTINUOUS
 62
    7
 10
1125.4920323771321
 20
317.40176521269655
 11
1122.3686498771322
 21
313.820986962696
  0
LINE
  8
_0-0_
  6
CONTINUOUS
 62
    2
 10
944.05086379347733
 20
278.79272738286204
 11
954.38398962330587
 21
289.12585321269285
  0
LINE
  8
_0-0_
  6
CONTINUOUS
 62
    2
 10
947.56423226917298
 20
277.85132313708641
 11
958.8387623447835
 21
289.12585321269739
  0
LINE
  8
_0-0_
  6
CONTINUOUS
 62
    2
 10
951.07760074487771
 20
276.90991889130942
 11
963.29353506626569
 21
289.12585321269739
  0
LINE
  8
_0-0_
  6
CONTINUOUS
 62
    4
 10
941.49681890474233
 20
279.47708164823121
 11
978.62181890474233
 21
269.5294678792277
  0
LINE
  8
_0-0_
  6
CONTINUOUS
 62
    4
 10
941.49681890474233
 20
462.57462477716103
 11
978.62181890474233
 21
472.52223854616454
  0
LINE
  8
_0-0_
  6
CONTINUOUS
 62
    2
 10
941.49681890474687
 20
458.88436407462063
 11
946.53780877100701
 21
463.92535394087986
  0
LINE
  8
_0-0_
  6
CONTINUOUS
 62
    2
 10
941.49681890473869
 20
454.4295913531389
 11
952.62314147662448
 21
465.55591392502424
  0
LINE
  8
_0-0_
  6
CONTINUOUS
 62
    2
 10
944.44785348577909
 20
452.92585321269758
 11
958.70847418225014
 21
467.18647390917135
  0
LINE
  8
_0-0_
  6
CONTINUOUS
 62
    2
 10
948.90262620725218
 20
452.92585321269576
 11
964.79380688787307
 21
468.81703389331756
  0
LINE
  8
_0-0_
  6
CONTINUOUS
 62
    2
 10
953.35739892872618
 20
452.92585321269758
 11
970.87913959348873
 21
470.44759387746103
  0
ARC
  8
_0-0_
  6
CONTINUOUS
 62
    2
 10
999.81218930994157
 20
443.47585321269776
 40
35.954475366075869
 50
126.11208000178307
 51
164.76180838953087
  0
LINE
  8
_0-0_
  6
CONTINUOUS
 62
    2
 10
962.26694437167691
 20
452.92585321269758
 11
966.60766786518536
 21
457.26657670620966
  0
LINE
  8
_0-0_
  6
CONTINUOUS
 62
    2
 10
957.81217165019564
 20
452.92585321269348
 11
976.96447229911348
 21
472.07815386160814
  0
LINE
  8
_0-0_
  6
CONTINUOUS
 62
    2
 10
958.10433769627264
 20
275.02711039975725
 11
966.98555421919002
 21
283.90832692267372
  0
LINE
  8
_0-0_
  6
CONTINUOUS
 62
    2
 10
954.59096922057154
 20
275.96851464553379
 11
965.73431883462047
 21
287.11186425958226
  0
ARC
  8
_0-0_
  6
CONTINUOUS
 62
    2
 10
999.81218930994703
 20
298.57585321270267
 40
35.954475366085504
 50
195.23819161048107
 51
233.88791999821916
  0
LINE
  8
_0-0_
  6
CONTINUOUS
 62
    2
 10
975.67118007476631
 20
270.32008917087592
 11
976.52929545099789
 21
271.17820454710795
  0
LINE
  8
_0-0_
  6
CONTINUOUS
 62
    2
 10
972.15781159906612
 20
271.26149341665291
 11
974.2190954417739
 21
273.32277725936024
  0
LINE
  8
_0-0_
  6
CONTINUOUS
 62
    4
 10
978.62181890474233
 20
529.02585321269612
 11
978.62181890474233
 21
472.52223854616454
  0
LINE
  8
_0-0_
  6
CONTINUOUS
 62
    7
 10
965.12181890474233
 20
529.02585321269612
 11
965.12181890474233
 21
482.88115288388121
  0
LINE
  8
_0-0_
  6
CONTINUOUS
 62
    7
 10
728.87181890474324
 20
443.47585321269776
 11
728.87181890474324
 21
529.02585321269612
  0
LINE
  8
_0-0_
  6
CONTINUOUS
 62
    7
 10
872.27143879253447
 20
213.02585321269657
 11
941.49681890474233
 21
282.25123332490489
  0
LINE
  8
_0-0_
  6
CONTINUOUS
 62
    7
 10
888.18134136922993
 20
213.02585321269657
 11
941.49681890474233
 21
266.34133074820897
  0
LINE
  8
_0-0_
  6
CONTINUOUS
 62
    7
 10
904.09124394592902
 20
213.02585321269657
 11
953.38169972736807
 21
262.31630899413472
  0
LINE
  8
_0-0_
  6
CONTINUOUS
 62
    7
 10
965.12181890474233
 20
259.17055354151103
 11
965.12181890474233
 21
213.02585321269657
  0
LINE
  8
_0-0_
  6
CONTINUOUS
 62
    4
 10
978.62181890474233
 20
269.5294678792277
 11
978.62181890474233
 21
213.02585321269657
  0
LINE
  8
_0-0_
  6
CONTINUOUS
 62
    7
 10
728.87181890474324
 20
298.57585321269448
 11
728.87181890474324
 21
213.02585321269657
  0
LINE
  8
_0-0_
  6
CONTINUOUS
 62
    7
 10
710.47165680517912
 20
308.02585321269612
 11
1114.8706891271331
 21
308.02585321269612
  0
LINE
  8
_0-0_
  6
CONTINUOUS
 62
    7
 10
710.47165680517912
 20
434.02585321269612
 11
1114.8703741271293
 21
434.02585321269612
  0
POINT
  8
_0-0_
 62
    7
 10
960.1873771222937
 20
438.92416390685003
  0
POINT
  8
_0-0_
 62
    7
 10
959.0946973788715
 20
459.6850790318781
  0
LINE
  8
_0-0_
  6
CONTINUOUS
 62
    7
 10
959.0946973788715
 20
459.6850790318781
 11
1028.2339980340148
 21
478.21089880767636
  0
LINE
  8
_0-0_
  6
CONTINUOUS
 62
    7
 10
960.1873771222937
 20
438.92416390685003
 11
1028.2339980340148
 21
478.21089880767636
  0
LINE
  8
_0-0_
  6
CONTINUOUS
 62
    7
 10
961.77806518472892
 20
304.62508509549252
 11
1029.0000836647932
 21
265.81443463055734
  0
POINT
  8
_0-0_
 62
    7
 10
961.77806518472892
 20
304.62508509549252
  0
LINE
  8
_0-0_
  6
CONTINUOUS
 62
    7
 10
959.72416752122547
 20
279.97831313345205
 11
1029.0000836647932
 21
265.81443463055734
  0
POINT
  8
_0-0_
 62
    7
 10
959.72416752122547
 20
279.97831313345205
  0
TEXT
  8
_0-0_
 62
    7
 10
1033.6644834073459
 20
467.90994934400987
 40
21.617968000000001
 41
1
 50
0
  1
ｼｰﾘﾝｸﾞ
  0
TEXT
  8
_0-0_
 62
    7
 10
1036.745329902601
 20
254.3045923396603
 40
21.617968000000001
 41
1
 50
0
  1
ｼｰﾘﾝｸﾞ
  0
LINE
  8
_0-0_
  6
CONTINUOUS
 62
    7
 10
1514.7843722939106
 20
804.10069188254192
 11
1514.7843722939106
 21
732.17009188254133
  0
LINE
  8
_0-0_
  6
CONTINUOUS
 62
    7
 10
1269.7843722939097
 20
776.17421896943097
 11
1423.7108452070215
 21
930.10069188254192
  0
LINE
  8
_0-0_
  6
CONTINUOUS
 62
    7
 10
1269.7843722939106
 20
783.24528678129673
 11
1416.6397773951567
 21
930.10069188254192
  0
LINE
  8
_0-0_
  6
CONTINUOUS
 62
    7
 10
1269.7843722939106
 20
790.31635459316385
 11
1409.56870958329
 21
930.10069188254329
  0
LINE
  8
_0-0_
  6
CONTINUOUS
 62
    7
 10
914.65326148493853
 20
732.17009188254224
 11
1087.7843722939078
 21
905.30120269151166
  0
LINE
  8
_0-0_
  6
CONTINUOUS
 62
    7
 10
1428.7049157620531
 20
1246.2217461596565
 11
1505.1896791582567
 21
1322.7065095558605
  0
LINE
  8
_0-0_
  6
CONTINUOUS
 62
    7
 10
907.5821936730764
 20
732.17009188254224
 11
1087.7843722939097
 21
912.37227050337606
  0
LINE
  8
_0-0_
  6
CONTINUOUS
 62
    7
 10
1421.633847950191
 20
1246.221746159657
 11
1505.1896791582576
 21
1329.7775773677231
  0
LINE
  8
_0-0_
  6
CONTINUOUS
 62
    7
 10
900.51112586120792
 20
732.17009188254133
 11
1087.7843722939087
 21
919.44333831524182
  0
LINE
  8
_0-0_
  6
CONTINUOUS
 62
    7
 10
1414.5627801383225
 20
1246.221746159656
 11
1505.1896791582567
 21
1336.8486451795898
  0
LINE
  8
_0-0_
  6
CONTINUOUS
 62
    7
 10
772.78437229390886
 20
901.42818641359145
 11
801.45687776285934
 21
930.10069188254192
  0
LINE
  8
_0-0_
  6
CONTINUOUS
 62
    7
 10
989.08437229390722
 20
1117.7281864135898
 11
1087.7843722939097
 21
1216.4281864135914
  0
LINE
  8
_0-0_
  6
CONTINUOUS
 62
    7
 10
1117.5779320399752
 20
1246.221746159657
 11
1232.113946745354
 21
1360.7577608650367
  0
LINE
  8
_0-0_
  6
CONTINUOUS
 62
    7
 10
772.78437229390977
 20
908.49925422545812
 11
794.38580995099358
 21
930.10069188254283
  0
LINE
  8
_0-0_
  6
CONTINUOUS
 62
    7
 10
989.08437229390904
 20
1124.7992542254574
 11
1087.7843722939097
 21
1223.4992542254581
  0
LINE
  8
_0-0_
  6
CONTINUOUS
 62
    7
 10
1110.5068642281067
 20
1246.221746159656
 11
1225.2814741345874
 21
1360.9963560661358
  0
LINE
  8
_0-0_
  6
CONTINUOUS
 62
    7
 10
772.78437229390977
 20
915.57032203732115
 11
787.31474213913145
 21
930.10069188254283
  0
LINE
  8
_0-0_
  6
CONTINUOUS
 62
    7
 10
989.08437229390904
 20
1131.8703220373204
 11
1087.7843722939097
 21
1230.5703220373211
  0
LINE
  8
_0-0_
  6
CONTINUOUS
 62
    7
 10
1103.4357964162455
 20
1246.221746159657
 11
1218.4490015238243
 21
1361.2349512672358
  0
LINE
  8
_0-0_
  6
CONTINUOUS
 62
    7
 10
1269.7843722939097
 20
1101.4433383152432
 11
1294.1627801383229
 21
1125.8217461596564
  0
LINE
  8
_0-0_
  6
CONTINUOUS
 62
    7
 10
1269.7843722939115
 20
1094.372270503377
 11
1301.2338479501905
 21
1125.8217461596562
  0
LINE
  8
_0-0_
  6
CONTINUOUS
 62
    7
 10
1269.7843722939106
 20
1087.3012026915139
 11
1308.3049157620526
 21
1125.8217461596564
  0
LINE
  8
_0-0_
  6
CONTINUOUS
 62
    7
 10
672.13606690525205
 20
1633.3565543671132
 11
1706.8525777203686
 21
1633.3565543671132
  0
LINE
  8
_0-0_
  6
CONTINUOUS
 62
    7
 10
672.13606690525205
 20
1553.3565543671132
 11
1706.8525777203686
 21
1553.3565543671132
  0
LINE
  8
_0-0_
  6
CONTINUOUS
 62
    7
 10
672.13606690525205
 20
1473.3565543671132
 11
1706.8525777203686
 21
1473.3565543671132
  0
LINE
  8
_0-0_
  6
CONTINUOUS
 62
    7
 10
1189.4943223128103
 20
1633.3565543671132
 11
1189.4943223128103
 21
1473.3565543671132
  0
TEXT
  8
_0-0_
 62
    7
 10
696.13606690525205
 20
1497.3565543671132
 40
20
 41
1
 50
0
  1
施工部位：ハト小屋
  0
TEXT
  8
_0-0_
 62
    7
 10
1213.4943223128103
 20
1577.3565543671132
 40
20
 41
1
 50
0
  1
構造：ＲＣ造
  0
TEXT
  8
_0-0_
 62
    7
 10
1213.4943223128103
 20
1497.3565543671132
 40
20
 41
1
 50
0
  1
下地：コンクリートスラブ
  0
TEXT
  8
_0-0_
 62
    7
 10
696.13606690525194
 20
1577.3565543671132
 40
20
 41
1
 50
0
  1
図面番号：tsuki-SP-hato-01
  0
ENDSEC
  0
EOF
