  0
SECTION
  2
HEADER
  9
$ACADVER
  1
AC1009
  9
$INSBASE
 10
0
 20
0
 30
0
  9
$EXTMIN
 10
0
 20
0
  9
$EXTMAX
 10
2378
 20
1682
  9
$LIMMIN
 10
0
 20
0
  9
$LIMMAX
 10
2378
 20
1682
  9
$LTSCALE
 40
1
  0
ENDSEC
  0
SECTION
  2
TABLES
  0
TABLE
  2
LTYPE
 70
     9
  0
LTYPE
  2
CONTINUOUS
 70
    64
  3
実線
 72
    65
 73
     0
 40
0.0
  0
LTYPE
  2
DASHED1
 70
    64
  3
--  --  --  --  --  --  --  --  
 72
    65
 73
     2
 40
2.5
 49
1.25
 49
-1.25
  0
LTYPE
  2
DASHED2
 70
    64
  3
----    ----    ----    ----    
 72
    65
 73
     2
 40
5.0
 49
2.5
 49
-2.5
  0
LTYPE
  2
DASHED3
 70
    64
  3
------  ------  ------  ------  
 72
    65
 73
     2
 40
5.0
 49
3.75
 49
-1.25
  0
LTYPE
  2
CENTER1
 70
    64
  3
----- - ----- - ----- - ----- - 
 72
    65
 73
     4
 40
10.0
 49
6.25
 49
-1.25
 49
1.25
 49
-1.25
  0
LTYPE
  2
CENTER2
 70
    64
  3
----------  --  ----------  --  
 72
    65
 73
     4
 40
20.0
 49
12.5
 49
-2.5
 49
2.5
 49
-2.5
  0
LTYPE
  2
PHANTOM1
 70
    64
  3
--- - - --- - - --- - - --- - - 
 72
    65
 73
     6
 40
10.0
 49
3.25
 49
-1.25
 49
1.25
 49
-1.25
 49
1.25
 49
-1.25
  0
LTYPE
  2
PHANTOM2
 70
    64
  3
--------  -  -  --------  -  -  
 72
    65
 73
     6
 40
20.0
 49
10.0
 49
-2.5
 49
1.25
 49
-2.5
 49
1.25
 49
-2.5
  0
LTYPE
  2
DOT
 70
    64
  3
-   -   -   -   -   -   -   -   
 72
    65
 73
     2
 40
2.5
 49
0.625
 49
-1.875
  0
LTYPE
  2
DUMMY
 70
    64
  3
ダミー
 72
    65
 73
     0
 40
0.0
  0
LTYPE
  2
RAND1
 70
    64
  3
ランダム線1
 72
    65
 73
     4
 40
10.0
 49
1.0
 49
-2.0
 49
3.0
 49
-4.0
  0
LTYPE
  2
RAND2
 70
    64
  3
ランダム線2
 72
    65
 73
     4
 40
14.0
 49
2.0
 49
-3.0
 49
4.0
 49
-5.0
  0
LTYPE
  2
RAND3
 70
    64
  3
ランダム線3
 72
    65
 73
     4
 40
18.0
 49
3.0
 49
-4.0
 49
5.0
 49
-6.0
  0
LTYPE
  2
RAND4
 70
    64
  3
ランダム線4
 72
    65
 73
     4
 40
22.0
 49
4.0
 49
-5.0
 49
6.0
 49
-7.0
  0
LTYPE
  2
RAND5
 70
    64
  3
ランダム線5
 72
    65
 73
     4
 40
26.0
 49
5.0
 49
-6.0
 49
7.0
 49
-8.0
  0
LTYPE
  2
LONG1
 70
    64
  3
----------  --  ----------  --  
 72
    65
 73
     4
 40
40.0
 49
32.5
 49
-2.5
 49
2.5
 49
-2.5
  0
LTYPE
  2
LONG2
 70
    64
  3
--------  -  -  --------  -  -  
 72
    65
 73
     6
 40
40.0
 49
30.0
 49
-2.5
 49
1.25
 49
-2.5
 49
1.25
 49
-2.5
  0
LTYPE
  2
LONG3
 70
    64
  3
+++++++++++++++..+++++++++++++++
 72
    65
 73
     2
 40
40.0
 49
37.5
 49
-2.5
  0
LTYPE
  2
LONG4
 70
    64
  3
+++++++++++++++..+++++++++++++++
 72
    65
 73
     2
 40
80.0
 49
75.0
 49
-5.0
  0
LTYPE
  2
LONG5
 70
    64
  3
----------  --  ----------  --  
 72
    65
 73
     4
 40
60.0
 49
37.5
 49
-7.5
 49
7.5
 49
-7.5
  0
LTYPE
  2
dashed
 70
   64
  3
-------   -------------   ------
 72
   65
 73
    2
 40
7.5
 49
6
 49
-1.5
  0
LTYPE
  2
dashed_spaced
 70
   64
  3
----        --------        ----
 72
   65
 73
    2
 40
12
 49
6
 49
-6
  0
LTYPE
  2
long_dashed_dotted
 70
   64
  3
------------- --- --------------
 72
   65
 73
    4
 40
15.25
 49
12
 49
-1.5
 49
0.25
 49
-1.5
  0
LTYPE
  2
long_dashed_double-dotted
 70
   64
  3
----------- --- --- ------------
 72
   65
 73
    6
 40
17
 49
12
 49
-1.5
 49
0.25
 49
-1.5
 49
0.25
 49
-1.5
  0
LTYPE
  2
long_dashed_triplicate-dotted
 70
   64
  3
--------- --- --- --- ----------
 72
   65
 73
    8
 40
18.75
 49
12
 49
-1.5
 49
0.25
 49
-1.5
 49
0.25
 49
-1.5
 49
0.25
 49
-1.5
  0
LTYPE
  2
dotted
 70
   64
  3
   -       -       -       -    
 72
   65
 73
    2
 40
1.75
 49
0.25
 49
-1.5
  0
LTYPE
  2
chain
 70
   64
  3
-------------- -- --------------
 72
   65
 73
    4
 40
18.5
 49
12
 49
-1.5
 49
3.5
 49
-1.5
  0
LTYPE
  2
chain_double_dash
 70
   64
  3
------------ -- -- -------------
 72
   65
 73
    6
 40
23.5
 49
12
 49
-1.5
 49
3.5
 49
-1.5
 49
3.5
 49
-1.5
  0
LTYPE
  2
dashed_dotted
 70
   64
  3
-----------     -     ----------
 72
   65
 73
    4
 40
9.25
 49
6
 49
-1.5
 49
0.25
 49
-1.5
  0
LTYPE
  2
double-dashed_dotted
 70
   64
  3
------   -----------   -   -----
 72
   65
 73
    6
 40
16.75
 49
6
 49
-1.5
 49
6
 49
-1.5
 49
0.25
 49
-1.5
  0
LTYPE
  2
dashed_double-dotted
 70
   64
  3
---------    -    -    ---------
 72
   65
 73
    6
 40
11
 49
6
 49
-1.5
 49
0.25
 49
-1.5
 49
0.25
 49
-1.5
  0
LTYPE
  2
double-dashed_double-dotted
 70
   64
  3
-----   ---------   -   -   ----
 72
   65
 73
    8
 40
18.5
 49
6
 49
-1.5
 49
6
 49
-1.5
 49
0.25
 49
-1.5
 49
0.25
 49
-1.5
  0
LTYPE
  2
dashed_triplicate-dotted
 70
   64
  3
-------    -    -    -    ------
 72
   65
 73
    8
 40
12.75
 49
6
 49
-1.5
 49
0.25
 49
-1.5
 49
0.25
 49
-1.5
 49
0.25
 49
-1.5
  0
LTYPE
  2
double-dashed_triplicate-dotted
 70
   64
  3
-----  ---------  -  -  -  -----
 72
   65
 73
   10
 40
20.25
 49
6
 49
-1.5
 49
6
 49
-1.5
 49
0.25
 49
-1.5
 49
0.25
 49
-1.5
 49
0.25
 49
-1.5
  0
LTYPE
  2
undefined
 70
   64
  3
--------------------------------
 72
   65
 73
    0
 40
0
  0
ENDTAB
  0
TABLE
  2
STYLE
  5
3
100
AcDbSymbolTable
 70
     1
  0
STYLE
  5
10
100
AcDbSymbolTableRecord
100
AcDbTextStyleTableRecord
  2
STANDARD
 70
     0
 40
0.0
 41
1.0
 50
0.0
 71
     0
 42
0.2
  3
txt
  4
bigfont.shx
  0
STYLE
  5
26
100
AcDbSymbolTableRecord
100
AcDbTextStyleTableRecord
  2
TATEGAKI
 70
    68
 40
0.0
 41
1.0
 50
0.0
 71
     0
 42
1.0
  3
txt
  4
bigfont.shx
  0
ENDTAB
  0
TABLE
  2
LAYER
 70
    2
  0
LAYER
  2
_0-0_
 70
   64
 62
    7
  6
CONTINUOUS
  0
LAYER
  2
ADD_LINE
 70
   64
 62
    7
  6
CONTINUOUS
  0
ENDTAB
  0
ENDSEC
  0
SECTION
  2
BLOCKS
  0
ENDSEC
  0
SECTION
  2
ENTITIES
  0
TEXT
  8
_0-0_
 62
    7
 10
1151.8842344239665
 20
1264.5002826304324
 40
24
 41
1
 50
0
  1
Ａ
  0
LINE
  8
_0-0_
  6
CONTINUOUS
 62
    7
 10
672.13606690525205
 20
167.53106997205509
 11
1706.8525777203686
 21
167.53106997205509
  0
LINE
  8
_0-0_
  6
CONTINUOUS
 62
    7
 10
672.13606690525205
 20
1633.3565543671129
 11
672.13606690525205
 21
167.53106997205509
  0
LINE
  8
_0-0_
  6
CONTINUOUS
 62
    7
 10
1706.8525777203686
 20
1633.3565543671129
 11
1706.8525777203686
 21
167.53106997205509
  0
LINE
  8
_0-0_
  6
CONTINUOUS
 62
    4
 10
1029.5118440789911
 20
1219.6777431164808
 11
1021.3905237354312
 21
1211.5564227729208
  0
LINE
  8
_0-0_
  6
CONTINUOUS
 62
    7
 10
1016.3905237354312
 20
1267.2116347598674
 11
1016.3905237354312
 21
1221.6777431164808
  0
LINE
  8
_0-0_
  6
CONTINUOUS
 62
    7
 10
1031.9971254532293
 20
1213.6777431164808
 11
1160.7839220176329
 21
1213.6777431164808
  0
LINE
  8
_0-0_
  6
CONTINUOUS
 62
    4
 10
1163.2692033918729
 20
1219.6777431164808
 11
1177.3905237354311
 21
1205.5564227729217
  0
LINE
  8
_0-0_
  6
CONTINUOUS
 62
    7
 10
1160.7839220176329
 20
1213.6777431164808
 11
1171.3905237354311
 21
1203.0711413986826
  0
LINE
  8
_0-0_
  6
CONTINUOUS
 62
    7
 10
1031.9971254532293
 20
1213.6777431164808
 11
1021.3905237354312
 21
1203.0711413986826
  0
LINE
  8
_0-0_
  6
CONTINUOUS
 62
    4
 10
1021.3905237354312
 20
1203.0711413986826
 11
1021.3905237354312
 21
1211.5564227729208
  0
LINE
  8
_0-0_
  6
CONTINUOUS
 62
    7
 10
1023.3905237354312
 20
1300.0873825433771
 11
1025.3905237354311
 21
1301.0873825433771
  0
LINE
  8
_0-0_
  6
CONTINUOUS
 62
    7
 10
1023.3905237354312
 20
1300.0873825433771
 11
1023.3905237354312
 21
1267.2116347598674
  0
LINE
  8
_0-0_
  6
CONTINUOUS
 62
    7
 10
1023.3905237354312
 20
1307.0873825433771
 11
1023.3905237354312
 21
1301.0873825433771
  0
LINE
  8
_0-0_
  6
CONTINUOUS
 62
    7
 10
1025.3905237354311
 20
1301.0873825433771
 11
1023.3905237354312
 21
1301.0873825433771
  0
LINE
  8
_0-0_
  6
CONTINUOUS
 62
    7
 10
1009.3905237354312
 20
1292.1302146576024
 11
1009.3905237354312
 21
1269.2116347598674
  0
LINE
  8
_0-0_
  6
CONTINUOUS
 62
    7
 10
1009.3905237354312
 20
1292.1302146576024
 11
996.15602141485499
 21
1292.1302146576024
  0
LINE
  8
_0-0_
  6
CONTINUOUS
 62
    7
 10
999.15602141485499
 20
1279.2116347598674
 11
999.15602141485499
 21
1287.2116347598674
  0
LINE
  8
_0-0_
  6
CONTINUOUS
 62
    7
 10
972.92151909427878
 20
1278.2116347598674
 11
970.92151909427878
 21
1278.2116347598674
  0
LINE
  8
_0-0_
  6
CONTINUOUS
 62
    7
 10
972.92151909427878
 20
1269.2116347598674
 11
972.92151909427878
 21
1278.2116347598674
  0
LINE
  8
_0-0_
  6
CONTINUOUS
 62
    7
 10
970.92151909427878
 20
1267.2116347598674
 11
970.92151909427878
 21
1278.2116347598674
  0
LINE
  8
_0-0_
  6
CONTINUOUS
 62
    7
 10
970.92151909427878
 20
1267.2116347598674
 11
1021.3905237354312
 21
1267.2116347598674
  0
LINE
  8
_0-0_
  6
CONTINUOUS
 62
    7
 10
1021.3905237354312
 20
1269.2116347598674
 11
972.92151909427878
 21
1269.2116347598674
  0
LINE
  8
_0-0_
  6
CONTINUOUS
 62
    7
 10
965.39564892702504
 20
1267.2116347598674
 11
965.39564892702504
 21
1277.2116347598674
  0
LINE
  8
_0-0_
  6
CONTINUOUS
 62
    7
 10
963.39564892702504
 20
1265.2116347598674
 11
963.39564892702504
 21
1277.2116347598674
  0
LINE
  8
_0-0_
  6
CONTINUOUS
 62
    7
 10
965.39564892702504
 20
1277.2116347598674
 11
963.39564892702504
 21
1277.2116347598674
  0
LINE
  8
_0-0_
  6
CONTINUOUS
 62
    7
 10
1002.224079992956
 20
1324.0873825433771
 11
1144.4763153364574
 21
1324.0873825433771
  0
LINE
  8
_0-0_
  6
CONTINUOUS
 62
    7
 10
999.35822142713653
 20
1319.0873825433771
 11
1141.5895639905093
 21
1319.0873825433771
  0
LINE
  8
_0-0_
  6
CONTINUOUS
 62
    7
 10
1014.3905237354312
 20
1265.2116347598674
 11
963.39564892702504
 21
1265.2116347598674
  0
LINE
  8
_0-0_
  6
CONTINUOUS
 62
    7
 10
1016.3905237354312
 20
1267.2116347598674
 11
965.39564892702504
 21
1267.2116347598674
  0
LINE
  8
_0-0_
  6
CONTINUOUS
 62
    7
 10
1006.3905237354312
 20
1269.2116347598674
 11
1006.3905237354312
 21
1267.2116347598674
  0
LINE
  8
_0-0_
  6
CONTINUOUS
 62
    7
 10
1014.3905237354312
 20
1265.2116347598674
 11
1014.3905237354312
 21
1219.6777431164808
  0
LINE
  8
_0-0_
  6
CONTINUOUS
 62
    7
 10
1128.861733422923
 20
1219.6777431164808
 11
1014.3905237354312
 21
1219.6777431164808
  0
LINE
  8
_0-0_
  6
CONTINUOUS
 62
    7
 10
1128.861733422923
 20
1221.6777431164808
 11
1128.861733422923
 21
1219.6777431164808
  0
LINE
  8
_0-0_
  6
CONTINUOUS
 62
    7
 10
1107.9742215753658
 20
1221.6777431164808
 11
1119.9742215753658
 21
1221.6777431164808
  0
LINE
  8
_0-0_
  6
CONTINUOUS
 62
    7
 10
1119.9742215753658
 20
1239.2615585608253
 11
1119.9742215753658
 21
1221.6777431164808
  0
LINE
  8
_0-0_
  6
CONTINUOUS
 62
    7
 10
1023.3905237354312
 20
1265.141082399047
 11
1117.9742215753658
 21
1239.7974569456871
  0
LINE
  8
_0-0_
  6
CONTINUOUS
 62
    7
 10
1117.9742215753658
 20
1239.7974569456871
 11
1117.9742215753658
 21
1223.6777431164808
  0
LINE
  8
_0-0_
  6
CONTINUOUS
 62
    7
 10
1107.9742215753658
 20
1223.6777431164808
 11
1107.9742215753658
 21
1221.6777431164808
  0
LINE
  8
_0-0_
  6
CONTINUOUS
 62
    7
 10
1117.9742215753658
 20
1223.6777431164808
 11
1107.9742215753658
 21
1223.6777431164808
  0
LINE
  8
_0-0_
  6
CONTINUOUS
 62
    7
 10
1033.3905237354311
 20
1223.6777431164808
 11
1033.3905237354311
 21
1221.6777431164808
  0
LINE
  8
_0-0_
  6
CONTINUOUS
 62
    7
 10
1033.3905237354311
 20
1221.6777431164808
 11
1021.3905237354312
 21
1221.6777431164808
  0
LINE
  8
_0-0_
  6
CONTINUOUS
 62
    7
 10
1033.3905237354311
 20
1223.6777431164808
 11
1023.3905237354312
 21
1223.6777431164808
  0
LINE
  8
_0-0_
  6
CONTINUOUS
 62
    7
 10
1021.3905237354312
 20
1267.2116347598674
 11
1021.3905237354312
 21
1221.6777431164808
  0
LINE
  8
_0-0_
  6
CONTINUOUS
 62
    7
 10
1023.3905237354312
 20
1265.141082399047
 11
1023.3905237354312
 21
1223.6777431164808
  0
LINE
  8
_0-0_
  6
CONTINUOUS
 62
    1
 10
1045.0401656173772
 20
1284.4463663919994
 11
1051.7363652960166
 21
1285.0322079525865
  0
LINE
  8
_0-0_
  6
CONTINUOUS
 62
    1
 10
1039.1905237354304
 20
1297.9880667672503
 11
1045.4404412641898
 21
1298.5348636989891
  0
LINE
  8
_0-0_
  6
CONTINUOUS
 62
    1
 10
1051.4064730105465
 20
1307.0873825433771
 11
1052.1905237354304
 21
1307.1559780934338
  0
LINE
  8
_0-0_
  6
CONTINUOUS
 62
    1
 10
1052.1905237354304
 20
1289.600826500681
 11
1052.1905237354304
 21
1289.6195134126772
  0
LINE
  8
_0-0_
  6
CONTINUOUS
 62
    1
 10
1039.1905237354304
 20
1285.9422287167288
 11
1052.1905237354304
 21
1287.0795813425664
  0
LINE
  8
_0-0_
  6
CONTINUOUS
 62
    1
 10
1039.1905237354304
 20
1320.0721031932032
 11
1052.1905237354304
 21
1321.2094558190399
  0
LINE
  8
_0-0_
  6
CONTINUOUS
 62
    1
 10
1039.1905237354304
 20
1318.0644635181168
 11
1052.1905237354304
 21
1319.2018161439535
  0
LINE
  8
_0-0_
  6
CONTINUOUS
 62
    1
 10
1039.1905237354304
 20
1295.9804270921629
 11
1052.1905237354304
 21
1297.1177797179996
  0
LINE
  8
_0-0_
  6
CONTINUOUS
 62
    1
 10
1039.1905237354304
 20
1308.0262651426826
 11
1052.1905237354304
 21
1309.1636177685202
  0
LINE
  8
_0-0_
  6
CONTINUOUS
 62
    1
 10
1039.1905237354304
 20
1310.03390481777
 11
1052.1905237354304
 21
1311.1712574436076
  0
LINE
  8
_0-0_
  6
CONTINUOUS
 62
    1
 10
1039.1905237354304
 20
1312.0415444928565
 11
1052.1905237354304
 21
1313.1788971186932
  0
LINE
  8
_0-0_
  6
CONTINUOUS
 62
    1
 10
1039.1905237354304
 20
1314.0491841679429
 11
1052.1905237354304
 21
1315.1865367937796
  0
LINE
  8
_0-0_
  6
CONTINUOUS
 62
    1
 10
1039.1905237354304
 20
1316.0568238430303
 11
1052.1905237354304
 21
1317.194176468867
  0
LINE
  8
_0-0_
  6
CONTINUOUS
 62
    1
 10
1039.1905237354304
 20
1322.0797428682906
 11
1052.1905237354304
 21
1323.2170954941273
  0
LINE
  8
_0-0_
  6
CONTINUOUS
 62
    1
 10
1039.1905237354304
 20
1293.9727874170765
 11
1052.1905237354304
 21
1295.1101400429131
  0
LINE
  8
_0-0_
  6
CONTINUOUS
 62
    1
 10
1039.1905237354304
 20
1291.96514774199
 11
1052.1905237354304
 21
1293.1025003678267
  0
LINE
  8
_0-0_
  6
CONTINUOUS
 62
    1
 10
1039.1905237354304
 20
1289.9575080669026
 11
1052.1905237354304
 21
1291.0948606927402
  0
LINE
  8
_0-0_
  6
CONTINUOUS
 62
    1
 10
1039.1905237354304
 20
1287.9498683918152
 11
1052.1905237354304
 21
1289.0872210176528
  0
LINE
  8
_0-0_
  6
CONTINUOUS
 62
    7
 10
1023.3905237354312
 20
1307.0873825433771
 11
1067.9905237354296
 21
1307.0873825433771
  0
LINE
  8
_0-0_
  6
CONTINUOUS
 62
    7
 10
1021.3905237354312
 20
1309.0873825433771
 11
1069.9905237354296
 21
1309.0873825433771
  0
LINE
  8
_0-0_
  6
CONTINUOUS
 62
    1
 10
1040.2305237354294
 20
1284.4463663919994
 11
1039.1905237354304
 21
1285.4863663919984
  0
LINE
  8
_0-0_
  6
CONTINUOUS
 62
    1
 10
1051.1505237354295
 20
1284.4463663919994
 11
1052.1905237354304
 21
1285.4863663920003
  0
LINE
  8
_0-0_
  6
CONTINUOUS
 62
    1
 10
1052.1905237354304
 20
1285.4863663920003
 11
1052.1905237354304
 21
1298.533382543377
  0
LINE
  8
_0-0_
  6
CONTINUOUS
 62
    1
 10
1039.1905237354304
 20
1298.533382543377
 11
1039.1905237354304
 21
1285.4863663919984
  0
LINE
  8
_0-0_
  6
CONTINUOUS
 62
    1
 10
1040.2305237354294
 20
1284.4463663919994
 11
1051.1505237354295
 21
1284.4463663919994
  0
LINE
  8
_0-0_
  6
CONTINUOUS
 62
    1
 10
1051.1505237354295
 20
1298.533382543377
 11
1051.1505237354295
 21
1284.4463663919994
  0
LINE
  8
_0-0_
  6
CONTINUOUS
 62
    1
 10
1040.2305237354294
 20
1298.533382543377
 11
1040.2305237354294
 21
1284.4463663919994
  0
LINE
  8
_0-0_
  6
CONTINUOUS
 62
    1
 10
1052.1905237354304
 20
1307.0873825433771
 11
1052.1905237354304
 21
1324.0873825433771
  0
LINE
  8
_0-0_
  6
CONTINUOUS
 62
    1
 10
1051.1505237354295
 20
1324.0873825433771
 11
1051.1505237354295
 21
1307.0873825433771
  0
LINE
  8
_0-0_
  6
CONTINUOUS
 62
    1
 10
1040.2305237354294
 20
1324.0873825433771
 11
1040.2305237354294
 21
1307.0873825433771
  0
LINE
  8
_0-0_
  6
CONTINUOUS
 62
    1
 10
1039.1905237354304
 20
1324.0873825433771
 11
1039.1905237354304
 21
1307.0873825433771
  0
LINE
  8
_0-0_
  6
CONTINUOUS
 62
    1
 10
1058.4499646845188
 20
1307.0873825433771
 11
1032.9310827863383
 21
1307.0873825433771
  0
LINE
  8
_0-0_
  6
CONTINUOUS
 62
    1
 10
1058.4499646845188
 20
1299.5203287354987
 11
1058.4499646845188
 21
1307.0873825433771
  0
LINE
  8
_0-0_
  6
CONTINUOUS
 62
    1
 10
1056.7405237354296
 20
1298.533382543377
 11
1058.4499646845188
 21
1299.5203287354987
  0
LINE
  8
_0-0_
  6
CONTINUOUS
 62
    1
 10
1034.6405237354311
 20
1298.533382543377
 11
1056.7405237354296
 21
1298.533382543377
  0
LINE
  8
_0-0_
  6
CONTINUOUS
 62
    1
 10
1032.9310827863383
 20
1299.5203287354987
 11
1034.6405237354311
 21
1298.533382543377
  0
LINE
  8
_0-0_
  6
CONTINUOUS
 62
    1
 10
1032.9310827863383
 20
1307.0873825433771
 11
1032.9310827863383
 21
1299.5203287354987
  0
LINE
  8
_0-0_
  6
CONTINUOUS
 62
    1
 10
1052.0702442099764
 20
1299.5203287354987
 11
1056.7405237354296
 21
1298.533382543377
  0
ARC
  8
_0-0_
  6
CONTINUOUS
 62
    1
 10
1045.6905237354304
 20
1319.6464363512557
 40
21.113053807878593
 50
252.41204622600637
 51
287.5879537739936
  0
LINE
  8
_0-0_
  6
CONTINUOUS
 62
    1
 10
1034.6405237354311
 20
1298.533382543377
 11
1039.3108032608843
 21
1299.5203287354987
  0
LINE
  8
_0-0_
  6
CONTINUOUS
 62
    1
 10
1052.0702442099764
 20
1299.5203287354987
 11
1052.0702442099764
 21
1307.0873825433771
  0
LINE
  8
_0-0_
  6
CONTINUOUS
 62
    1
 10
1039.3108032608843
 20
1307.0873825433771
 11
1039.3108032608843
 21
1299.5203287354987
  0
LINE
  8
_0-0_
  6
CONTINUOUS
 62
    7
 10
1069.9905237354296
 20
1309.0873825433771
 11
1069.9905237354296
 21
1299.0873825433771
  0
LINE
  8
_0-0_
  6
CONTINUOUS
 62
    7
 10
1067.9905237354296
 20
1307.0873825433771
 11
1067.9905237354296
 21
1301.0873825433771
  0
LINE
  8
_0-0_
  6
CONTINUOUS
 62
    7
 10
1065.9905237354296
 20
1301.0873825433771
 11
1067.9905237354296
 21
1301.0873825433771
  0
LINE
  8
_0-0_
  6
CONTINUOUS
 62
    7
 10
1069.9905237354296
 20
1299.0873825433771
 11
1065.9905237354296
 21
1301.0873825433771
  0
LINE
  8
_0-0_
  6
CONTINUOUS
 62
    7
 10
1059.9905237354296
 20
1319.0873825433771
 11
1059.9905237354296
 21
1309.0873825433771
  0
LINE
  8
_0-0_
  6
CONTINUOUS
 62
    7
 10
1031.3905237354311
 20
1319.0873825433771
 11
1031.3905237354311
 21
1309.0873825433771
  0
LINE
  8
_0-0_
  6
CONTINUOUS
 62
    1
 10
1039.3108032608843
 20
1335.580436351255
 11
1034.6405237354311
 21
1336.5673825433767
  0
LINE
  8
_0-0_
  6
CONTINUOUS
 62
    1
 10
1058.4499646845188
 20
1335.580436351255
 11
1032.9310827863401
 21
1335.580436351255
  0
LINE
  8
_0-0_
  6
CONTINUOUS
 62
    1
 10
1034.6405237354311
 20
1336.5673825433767
 11
1032.9310827863401
 21
1335.580436351255
  0
LINE
  8
_0-0_
  6
CONTINUOUS
 62
    1
 10
1039.3108032608843
 20
1335.580436351255
 11
1039.3108032608843
 21
1326.1673825433779
  0
LINE
  8
_0-0_
  6
CONTINUOUS
 62
    1
 10
1032.9310827863401
 20
1335.580436351255
 11
1032.9310827863401
 21
1326.1673825433779
  0
LINE
  8
_0-0_
  6
CONTINUOUS
 62
    1
 10
1031.3905237354311
 20
1326.1673825433779
 11
1031.3905237354311
 21
1324.0873825433771
  0
LINE
  8
_0-0_
  6
CONTINUOUS
 62
    1
 10
1038.8655237354296
 20
1324.0873825433771
 11
1038.8655237354296
 21
1326.1673825433779
  0
LINE
  8
_0-0_
  6
CONTINUOUS
 62
    1
 10
1031.3905237354311
 20
1326.1673825433779
 11
1059.9905237354296
 21
1326.1673825433779
  0
LINE
  8
_0-0_
  6
CONTINUOUS
 62
    1
 10
1059.9905237354296
 20
1324.0873825433771
 11
1031.3905237354311
 21
1324.0873825433771
  0
LINE
  8
_0-0_
  6
CONTINUOUS
 62
    1
 10
1059.9905237354296
 20
1326.1673825433779
 11
1059.9905237354296
 21
1324.0873825433771
  0
LINE
  8
_0-0_
  6
CONTINUOUS
 62
    1
 10
1058.4499646845188
 20
1335.580436351255
 11
1056.7405237354296
 21
1336.5673825433767
  0
LINE
  8
_0-0_
  6
CONTINUOUS
 62
    1
 10
1058.4499646845188
 20
1326.1673825433779
 11
1058.4499646845188
 21
1335.580436351255
  0
LINE
  8
_0-0_
  6
CONTINUOUS
 62
    1
 10
1032.9310827863383
 20
1326.1673825433779
 11
1058.4499646845188
 21
1326.1673825433779
  0
LINE
  8
_0-0_
  6
CONTINUOUS
 62
    1
 10
1056.7405237354296
 20
1336.5673825433767
 11
1034.6405237354311
 21
1336.5673825433767
  0
LINE
  8
_0-0_
  6
CONTINUOUS
 62
    1
 10
1056.7405237354296
 20
1336.5673825433767
 11
1052.0702442099764
 21
1335.580436351255
  0
LINE
  8
_0-0_
  6
CONTINUOUS
 62
    1
 10
1052.0702442099764
 20
1326.1673825433779
 11
1052.0702442099764
 21
1335.580436351255
  0
LINE
  8
_0-0_
  6
CONTINUOUS
 62
    1
 10
1052.5155237354311
 20
1324.0873825433771
 11
1052.5155237354311
 21
1326.1673825433779
  0
ARC
  8
_0-0_
  6
CONTINUOUS
 62
    1
 10
1045.6905237354304
 20
1315.4543287354979
 40
21.113053807878593
 50
72.412046226006396
 51
107.5879537739936
  0
LINE
  8
_0-0_
  6
CONTINUOUS
 62
    7
 10
1144.4763153364574
 20
1324.0873825433771
 11
1165.9196910094315
 21
1286.9463663919994
  0
LINE
  8
_0-0_
  6
CONTINUOUS
 62
    7
 10
1161.5895639905093
 20
1284.4463663919994
 11
1165.9196910094315
 21
1286.9463663919994
  0
LINE
  8
_0-0_
  6
CONTINUOUS
 62
    7
 10
1141.5895639905093
 20
1319.0873825433771
 11
1161.5895639905093
 21
1284.4463663919994
  0
LINE
  8
_0-0_
  6
CONTINUOUS
 62
    7
 10
1021.3905237354312
 20
1309.0873825433771
 11
1021.3905237354312
 21
1269.2116347598674
  0
LINE
  8
_0-0_
  6
CONTINUOUS
 62
    2
 10
988.33055621576852
 20
1264.717965532335
 11
982.08055621576852
 21
1264.717965532335
  0
LINE
  8
_0-0_
  6
CONTINUOUS
 62
    7
 10
1119.9742215753658
 20
1239.2615585608253
 11
1200.2046248754168
 21
1217.7638867881531
  0
LINE
  8
_0-0_
  6
CONTINUOUS
 62
    7
 10
1200.2046248754168
 20
1217.7638867881531
 11
1200.2046248754168
 21
1187.7638867881531
  0
LINE
  8
_0-0_
  6
CONTINUOUS
 62
    7
 10
1023.3905237354312
 20
1267.2116347598674
 11
1202.2046248754168
 21
1219.2985407641106
  0
LINE
  8
_0-0_
  6
CONTINUOUS
 62
    7
 10
1202.2046248754168
 20
1219.2985407641106
 11
1202.2046248754168
 21
1187.7638867881531
  0
LINE
  8
_0-0_
  6
CONTINUOUS
 62
    7
 10
1200.2046248754168
 20
1187.7638867881531
 11
1202.2046248754168
 21
1187.7638867881531
  0
LINE
  8
_0-0_
  6
CONTINUOUS
 62
    1
 10
1053.0699298865611
 20
1234.5488848397815
 11
1053.0699298865611
 21
1156.9748320812967
  0
LINE
  8
_0-0_
  6
CONTINUOUS
 62
    1
 10
1066.0699298865611
 20
1156.9748320812976
 11
1066.0699298865611
 21
1234.5488848397815
  0
ARC
  8
_0-0_
  6
CONTINUOUS
 62
    1
 10
1056.3199298865611
 20
1232.5488848397815
 40
3.8160843806184368
 50
31.607502246248899
 51
148.39249775375112
  0
ARC
  8
_0-0_
  6
CONTINUOUS
 62
    1
 10
1062.8199298865611
 20
1236.5488848397815
 40
3.8160843806184368
 50
211.60750224624888
 51
328.39249775375112
  0
ARC
  8
_0-0_
  6
CONTINUOUS
 62
    1
 10
1062.8199298865611
 20
1232.5488848397815
 40
3.8160843806184368
 50
31.607502246248899
 51
148.39249775375112
  0
LINE
  8
_0-0_
  6
CONTINUOUS
 62
    1
 10
1065.0299298865621
 20
1233.4378721429264
 11
1065.0299298865621
 21
1155.9348320812976
  0
ARC
  8
_0-0_
  6
CONTINUOUS
 62
    1
 10
1056.3199298865611
 20
1154.9748320812967
 40
3.8160843806184368
 50
31.607502246248899
 51
148.39249775375112
  0
ARC
  8
_0-0_
  6
CONTINUOUS
 62
    1
 10
1062.8199298865611
 20
1158.9748320812967
 40
3.8160843806184368
 50
211.60750224624888
 51
328.39249775376271
  0
ARC
  8
_0-0_
  6
CONTINUOUS
 62
    1
 10
1056.3199298865611
 20
1158.9748320812967
 40
3.8160843806184368
 50
211.60750224624888
 51
328.39249775375112
  0
LINE
  8
_0-0_
  6
CONTINUOUS
 62
    1
 10
1054.1099298865602
 20
1235.5888848397806
 11
1054.1099298865602
 21
1158.0858447781518
  0
LINE
  8
_0-0_
  6
CONTINUOUS
 62
    7
 10
1016.3905237354312
 20
1221.6777431164808
 11
1128.861733422923
 21
1221.6777431164808
  0
LINE
  8
_0-0_
  6
CONTINUOUS
 62
    7
 10
1171.3905237354311
 20
1203.0711413986826
 11
1171.3905237354311
 21
917.19336704413831
  0
LINE
  8
_0-0_
  6
CONTINUOUS
 62
    7
 10
1363.6383510887763
 20
924.69336704413831
 11
1423.3962960793551
 21
1028.197163923727
  0
POINT
  8
_0-0_
 62
    7
 10
1363.6383510887763
 20
924.69336704413831
  0
LINE
  8
_0-0_
  6
CONTINUOUS
 62
    4
 10
1177.3905237354311
 20
1205.5564227729217
 11
1177.3905237354311
 21
932.19336704413831
  0
CIRCLE
  8
_0-0_
  6
CONTINUOUS
 62
    7
 10
1188.5626179942192
 20
1208.8306607139732
 40
11.642006881197926
  0
LINE
  8
_0-0_
  6
CONTINUOUS
 62
    2
 10
1200.2046248754168
 20
1187.7638867881533
 11
1200.2046248754168
 21
1187.7638867881533
  0
LINE
  8
_0-0_
  6
CONTINUOUS
 62
    2
 10
1200.2046248754168
 20
1187.7638867881533
 11
1195.066299010015
 21
1188.6917447614881
  0
LINE
  8
_0-0_
  6
CONTINUOUS
 62
    2
 10
1195.066299010015
 20
1188.6917447614881
 11
1189.7375011165921
 21
1189.0701499336508
  0
LINE
  8
_0-0_
  6
CONTINUOUS
 62
    2
 10
1189.7375011165921
 20
1189.0701499336508
 11
1184.3801440226375
 21
1188.8876046549676
  0
LINE
  8
_0-0_
  6
CONTINUOUS
 62
    2
 10
1184.3801440226375
 20
1188.8876046549676
 11
1179.157008312498
 21
1188.149655471359
  0
LINE
  8
_0-0_
  6
CONTINUOUS
 62
    2
 10
1179.157008312498
 20
1188.149655471359
 11
1177.3905237354311
 21
1187.7638867881533
  0
LINE
  8
_0-0_
  6
CONTINUOUS
 62
    2
 10
1198.8943732571706
 20
1188.0570073795268
 11
1200.2046248754168
 21
1189.3672589977725
  0
LINE
  8
_0-0_
  6
CONTINUOUS
 62
    2
 10
1196.5001649763853
 20
1188.4912262234873
 11
1200.2046248754168
 21
1192.1956861225192
  0
LINE
  8
_0-0_
  6
CONTINUOUS
 62
    2
 10
1193.9941988443034
 20
1188.813687216151
 11
1200.2046248754168
 21
1195.0241132472649
  0
LINE
  8
_0-0_
  6
CONTINUOUS
 62
    2
 10
1191.3664242746399
 20
1189.0143397712338
 11
1200.2046248754168
 21
1197.8525403720112
  0
LINE
  8
_0-0_
  6
CONTINUOUS
 62
    2
 10
1188.6020463911254
 20
1189.0783890124646
 11
1200.2046248754177
 21
1200.6809674967578
  0
LINE
  8
_0-0_
  6
CONTINUOUS
 62
    2
 10
1185.6789669326417
 20
1188.9837366787281
 11
1200.2046248754186
 21
1203.5093946215045
  0
LINE
  8
_0-0_
  6
CONTINUOUS
 62
    2
 10
1182.5627689736566
 20
1188.6959658444891
 11
1191.4087028230379
 21
1197.5418996938695
  0
LINE
  8
_0-0_
  6
CONTINUOUS
 62
    2
 10
1199.8513790143243
 20
1205.9845758851568
 11
1200.2046248754168
 21
1206.3378217462498
  0
LINE
  8
_0-0_
  6
CONTINUOUS
 62
    2
 10
1179.195662335419
 20
1188.1572863309977
 11
1188.2317329369862
 21
1197.1933569325658
  0
LINE
  8
_0-0_
  6
CONTINUOUS
 62
    2
 10
1177.3905237354311
 20
1189.1805748557565
 11
1185.7447677051423
 21
1197.5348188254673
  0
LINE
  8
_0-0_
  6
CONTINUOUS
 62
    2
 10
1177.3905237354311
 20
1192.0090019805027
 11
1183.6550805652196
 21
1198.2735588102908
  0
LINE
  8
_0-0_
  6
CONTINUOUS
 62
    2
 10
1177.3905237354311
 20
1194.837429105248
 11
1181.8627946858041
 21
1199.3097000556215
  0
LINE
  8
_0-0_
  6
CONTINUOUS
 62
    2
 10
1177.390523735432
 20
1197.6658562299956
 11
1180.3268319014087
 21
1200.6021643959727
  0
LINE
  8
_0-0_
  6
CONTINUOUS
 62
    2
 10
1177.3905237354293
 20
1200.4942833547404
 11
1179.0356387827705
 21
1202.1393984020813
  0
LINE
  8
_0-0_
  6
CONTINUOUS
 62
    2
 10
1177.3905237354293
 20
1203.3227104794857
 11
1178.0008933230583
 21
1203.9330800671148
  0
LINE
  8
_0-0_
  6
CONTINUOUS
 62
    7
 10
1009.3905237354312
 20
1294.1302146576024
 11
983.15602141485499
 21
1294.1302146576024
  0
LINE
  8
_0-0_
  6
CONTINUOUS
 62
    7
 10
996.15602141485499
 20
1292.1302146576024
 11
983.15602141485499
 21
1292.1302146576024
  0
LINE
  8
_0-0_
  6
CONTINUOUS
 62
    7
 10
983.15602141485499
 20
1294.1302146576024
 11
983.15602141485499
 21
1292.1302146576024
  0
LINE
  8
_0-0_
  6
CONTINUOUS
 62
    7
 10
1009.3905237354312
 20
1294.1302146576024
 11
1009.3905237354312
 21
1292.1302146576024
  0
LINE
  8
_0-0_
  6
CONTINUOUS
 62
    7
 10
1009.3905237354312
 20
1309.0873825433771
 11
1021.3905237354312
 21
1309.0873825433771
  0
LINE
  8
_0-0_
  6
CONTINUOUS
 62
    7
 10
1009.3905237354312
 20
1269.2116347598674
 11
1009.3905237354312
 21
1309.0873825433771
  0
LINE
  8
_0-0_
  6
CONTINUOUS
 62
    7
 10
1009.3905237354312
 20
1309.0873825433771
 11
1021.3905237354312
 21
1269.2116347598674
  0
LINE
  8
_0-0_
  6
CONTINUOUS
 62
    7
 10
1021.3905237354312
 20
1309.0873825433771
 11
1009.3905237354312
 21
1269.2116347598674
  0
LINE
  8
_0-0_
  6
CONTINUOUS
 62
    7
 10
999.15602141485499
 20
1274.2116347598674
 11
983.15602141485499
 21
1274.2116347598674
  0
LINE
  8
_0-0_
  6
CONTINUOUS
 62
    7
 10
983.15602141485499
 20
1274.2116347598674
 11
983.15602141485499
 21
1269.2116347598674
  0
LINE
  8
_0-0_
  6
CONTINUOUS
 62
    7
 10
999.15602141485499
 20
1279.2116347598674
 11
999.15602141485499
 21
1269.2116347598674
  0
LINE
  8
_0-0_
  6
CONTINUOUS
 62
    7
 10
994.15602141485499
 20
1279.2116347598674
 11
999.15602141485499
 21
1274.2116347598674
  0
LINE
  8
_0-0_
  6
CONTINUOUS
 62
    7
 10
999.15602141485499
 20
1279.2116347598674
 11
994.15602141485499
 21
1274.2116347598674
  0
LINE
  8
_0-0_
  6
CONTINUOUS
 62
    7
 10
999.15602141485499
 20
1287.2116347598674
 11
999.15602141485499
 21
1292.1302146576024
  0
LINE
  8
_0-0_
  6
CONTINUOUS
 62
    7
 10
994.15602141485499
 20
1292.1302146576024
 11
994.15602141485499
 21
1287.2116347598674
  0
LINE
  8
_0-0_
  6
CONTINUOUS
 62
    7
 10
994.15602141485499
 20
1279.2116347598674
 11
994.15602141485499
 21
1274.2116347598674
  0
LINE
  8
_0-0_
  6
CONTINUOUS
 62
    7
 10
994.15602141485499
 20
1292.1302146576024
 11
999.15602141485499
 21
1287.2116347598674
  0
LINE
  8
_0-0_
  6
CONTINUOUS
 62
    7
 10
994.15602141485499
 20
1287.2116347598674
 11
999.15602141485499
 21
1292.1302146576024
  0
LINE
  8
_0-0_
  6
CONTINUOUS
 62
    7
 10
1371.3905237354311
 20
737.19336704413831
 11
1492.5293914645763
 21
737.19336704413831
  0
LINE
  8
_0-0_
  6
CONTINUOUS
 62
    7
 10
1171.3905237354311
 20
917.19336704413831
 11
1492.5293914645763
 21
917.19336704413831
  0
LINE
  8
_0-0_
  6
CONTINUOUS
 62
    3
 10
1221.3905237354311
 20
923.19336704413831
 11
1492.5293914645763
 21
923.19336704413831
  0
LINE
  8
_0-0_
  6
CONTINUOUS
 62
    4
 10
1177.3905237354311
 20
932.19336704413831
 11
1492.5293914645763
 21
932.19336704413831
  0
LINE
  8
_0-0_
  6
CONTINUOUS
 62
    7
 10
1021.3905237354312
 20
882.6561535254225
 11
1171.3905237354329
 21
1032.6561535254234
  0
LINE
  8
_0-0_
  6
CONTINUOUS
 62
    7
 10
1021.3905237354312
 20
889.72722133728735
 11
1171.3905237354311
 21
1039.7272213372873
  0
LINE
  8
_0-0_
  6
CONTINUOUS
 62
    7
 10
1021.3905237354312
 20
896.79828914915311
 11
1171.3905237354311
 21
1046.7982891491531
  0
LINE
  8
_0-0_
  6
CONTINUOUS
 62
    7
 10
1021.3905237354312
 20
1108.9303235051177
 11
1126.1379433467928
 21
1213.6777431164799
  0
LINE
  8
_0-0_
  6
CONTINUOUS
 62
    7
 10
1021.3905237354321
 20
1116.0013913169839
 11
1119.0668755349279
 21
1213.6777431164799
  0
LINE
  8
_0-0_
  6
CONTINUOUS
 62
    7
 10
1021.3905237354312
 20
1123.0724591288483
 11
1111.9958077230631
 21
1213.6777431164799
  0
LINE
  8
_0-0_
  6
CONTINUOUS
 62
    4
 10
1029.5118440789911
 20
1219.6777431164808
 11
1163.2692033918729
 21
1219.6777431164808
  0
TEXT
  8
_0-0_
 62
    7
 10
1427.5860186784012
 20
1015.9100394532481
 40
30
 41
1
 50
0
  1
防水層
  0
LINE
  8
_0-0_
  6
CONTINUOUS
 62
    7
 10
1192.3983223422574
 20
1191.6621457494887
 11
1265.5739227997447
 21
1318.4060036162175
  0
POINT
  8
_0-0_
 62
    7
 10
1192.3983223422574
 20
1191.6621457494887
  0
TEXT
  8
_0-0_
 62
    7
 10
1270.454532812555
 20
1303.7992368476623
 40
30
 41
1
 50
0
  1
ｼｰﾘﾝｸﾞ
  0
ARC
  8
_0-0_
  6
CONTINUOUS
 62
    7
 10
681.61232262816623
 20
1134.6217906686568
 40
367.40986757197703
 50
30.137066432173206
 51
53.125752717063492
  0
ARC
  8
_0-0_
  6
CONTINUOUS
 62
    7
 10
681.61232262816623
 20
1134.6217906686568
 40
372.40986757197703
 50
30.580973923580547
 51
53.700633007173977
  0
LINE
  8
_0-0_
  6
CONTINUOUS
 62
    7
 10
999.15602141485499
 20
1287.2116347598674
 11
902.08055621576852
 21
1287.2116347598674
  0
LINE
  8
_0-0_
  6
CONTINUOUS
 62
    7
 10
999.15602141485499
 20
1279.2116347598674
 11
902.08055621576852
 21
1279.2116347598674
  0
LINE
  8
_0-0_
  6
CONTINUOUS
 62
    2
 10
982.08055621576852
 20
1264.717965532335
 11
982.08055621576852
 21
677.19336704413831
  0
LINE
  8
_0-0_
  6
CONTINUOUS
 62
    2
 10
988.33055621576852
 20
1264.717965532335
 11
988.33055621576852
 21
677.19336704413831
  0
LINE
  8
_0-0_
  6
CONTINUOUS
 62
    2
 10
985.20555621576852
 20
1264.717965532335
 11
985.20555621576852
 21
677.19336704413831
  0
LINE
  8
_0-0_
  6
CONTINUOUS
 62
    7
 10
1021.3905237354312
 20
1203.0711413986826
 11
1021.3905237354312
 21
677.19336704413831
  0
LINE
  8
_0-0_
  6
CONTINUOUS
 62
    7
 10
1042.2019072338426
 20
677.19336704413831
 11
1282.2019072338435
 21
917.19336704413922
  0
LINE
  8
_0-0_
  6
CONTINUOUS
 62
    7
 10
1035.1308394219773
 20
677.19336704413831
 11
1275.1308394219768
 21
917.19336704413877
  0
LINE
  8
_0-0_
  6
CONTINUOUS
 62
    7
 10
1028.0597716101115
 20
677.19336704413831
 11
1268.059771610112
 21
917.19336704413831
  0
LINE
  8
_0-0_
  6
CONTINUOUS
 62
    7
 10
1254.3339415898067
 20
677.19336704413831
 11
1492.5293914645763
 21
915.38881691890651
  0
LINE
  8
_0-0_
  6
CONTINUOUS
 62
    7
 10
1261.4050094016725
 20
677.19336704413831
 11
1492.5293914645763
 21
908.31774910704257
  0
LINE
  8
_0-0_
  6
CONTINUOUS
 62
    7
 10
1268.4760772135378
 20
677.19336704413831
 11
1492.5293914645772
 21
901.24668129517772
  0
LINE
  8
_0-0_
  6
CONTINUOUS
 62
    7
 10
1371.3905237354311
 20
737.19336704413831
 11
1371.3905237354311
 21
677.19336704413831
  0
LINE
  8
_0-0_
  6
CONTINUOUS
 62
    7
 10
672.13606690525205
 20
567.53106997205509
 11
1706.8525777203686
 21
567.53106997205509
  0
LINE
  8
_0-0_
  6
CONTINUOUS
 62
    7
 10
672.13606690525205
 20
627.53106997205509
 11
1706.8525777203686
 21
627.53106997205509
  0
LINE
  8
_0-0_
  6
CONTINUOUS
 62
    7
 10
1189.4943223128103
 20
627.53106997205509
 11
1189.4943223128103
 21
167.53106997205509
  0
TEXT
  8
_0-0_
 62
    7
 10
907.51017276561618
 20
579.41681012899858
 40
40
 41
1
 50
0
  1
Ａ
  0
TEXT
  8
_0-0_
 62
    7
 10
1430.4669144508221
 20
579.76428888146415
 40
40
 41
1
 50
0
  1
Ｂ
  0
LINE
  8
_0-0_
  6
DASHED2
 62
    5
 10
1423.9005939123649
 20
306.19260293787215
 11
1525.8611809949739
 21
306.19260293787215
  0
LINE
  8
_0-0_
  6
DASHED2
 62
    5
 10
1426.9005939123649
 20
295.73201585526317
 11
1525.8611809949739
 21
295.73201585526317
  0
LINE
  8
_0-0_
  6
CONTINUOUS
 62
    7
 10
1375.2463018905069
 20
308.08730939656766
 11
1422.2633508689228
 21
389.5232270491399
  0
LINE
  8
_0-0_
  6
CONTINUOUS
 62
    4
 10
1423.9005939123649
 20
298.73201585526317
 11
1525.8611809949739
 21
298.73201585526317
  0
LINE
  8
_0-0_
  6
CONTINUOUS
 62
    7
 10
1224.9792554843766
 20
421.85937357669195
 11
1299.5028433887906
 21
496.38296148110499
  0
LINE
  8
_0-0_
  6
CONTINUOUS
 62
    7
 10
1224.9792554843766
 20
437.76927615338923
 11
1283.5929408120933
 21
496.38296148110499
  0
LINE
  8
_0-0_
  6
CONTINUOUS
 62
    7
 10
1224.9792554843766
 20
453.67917873008469
 11
1267.6830382353978
 21
496.38296148110499
  0
LINE
  8
_0-0_
  6
CONTINUOUS
 62
    7
 10
1314.4005939123649
 20
279.23201585526317
 11
1674.5721965317566
 21
279.23201585526317
  0
LINE
  8
_0-0_
  6
CONTINUOUS
 62
    3
 10
1426.9005939123649
 20
292.73201585526317
 11
1674.5721965317566
 21
292.73201585526317
  0
LINE
  8
_0-0_
  6
CONTINUOUS
 62
    4
 10
1327.9005939123649
 20
312.98201585526317
 11
1674.5721965317566
 21
312.98201585526317
  0
LINE
  8
_0-0_
  6
CONTINUOUS
 62
    7
 10
1510.2509769559251
 20
198.01421259392578
 11
1591.4687802172607
 21
279.23201585526044
  0
LINE
  8
_0-0_
  6
CONTINUOUS
 62
    7
 10
1494.3410743792278
 20
198.01421259392578
 11
1575.5588776405634
 21
279.23201585526044
  0
LINE
  8
_0-0_
  6
CONTINUOUS
 62
    7
 10
1478.4311718025324
 20
198.01421259392578
 11
1559.6489750638698
 21
279.23201585526044
  0
LINE
  8
_0-0_
  6
CONTINUOUS
 62
    4
 10
1327.9005939123649
 20
496.38296148110499
 11
1327.9005939123649
 21
312.98201585526317
  0
LINE
  8
_0-0_
  6
DASHED2
 62
    5
 10
1321.1505939123649
 20
306.19260293787215
 11
1321.1505939123649
 21
496.38296148110499
  0
LINE
  8
_0-0_
  6
CONTINUOUS
 62
    7
 10
1314.4005939123649
 20
279.23201585526317
 11
1314.4005939123649
 21
496.38296148110499
  0
LINE
  8
_0-0_
  6
DASHED2
 62
    5
 10
1525.8611809949739
 20
306.19260293787215
 11
1528.8611809949739
 21
303.19260293787215
  0
LINE
  8
_0-0_
  6
DASHED2
 62
    5
 10
1528.8611809949739
 20
303.19260293787215
 11
1651.8611809949757
 21
303.19260293787215
  0
LINE
  8
_0-0_
  6
DASHED2
 62
    5
 10
1321.1505939123649
 20
303.19260293787215
 11
1420.9005939123649
 21
303.19260293787215
  0
LINE
  8
_0-0_
  6
DASHED2
 62
    5
 10
1423.9005939123649
 20
306.19260293787215
 11
1420.9005939123649
 21
303.19260293787215
  0
LINE
  8
_0-0_
  6
CONTINUOUS
 62
    4
 10
1314.4005939123649
 20
291.23201585526317
 11
1416.4005939123649
 21
291.23201585526317
  0
LINE
  8
_0-0_
  6
CONTINUOUS
 62
    4
 10
1416.4005939123649
 20
291.23201585526317
 11
1423.9005939123649
 21
298.73201585526317
  0
LINE
  8
_0-0_
  6
DASHED2
 62
    5
 10
1314.4005939123649
 20
285.23201585526317
 11
1416.4005939123649
 21
285.23201585526317
  0
LINE
  8
_0-0_
  6
CONTINUOUS
 62
    4
 10
1525.8611809949739
 20
298.73201585526317
 11
1531.8611809949739
 21
292.73201585526317
  0
LINE
  8
_0-0_
  6
CONTINUOUS
 62
    3
 10
1426.9005939123649
 20
292.73201585526317
 11
1426.9005939123649
 21
279.23201585526317
  0
LINE
  8
_0-0_
  6
DASHED2
 62
    5
 10
1426.9005939123649
 20
295.73201585526317
 11
1416.4005939123649
 21
285.23201585526317
  0
LINE
  8
_0-0_
  6
CONTINUOUS
 62
    7
 10
1430.5416327323042
 20
306.19260293787215
 11
1457.9862942171289
 21
353.72815102611753
  0
POINT
  8
_0-0_
 62
    7
 10
1430.5416327323042
 20
306.19260293787215
  0
POINT
  8
_0-0_
 62
    7
 10
1375.2463018905069
 20
308.08730939656766
  0
LINE
  8
_0-0_
  6
CONTINUOUS
 62
    7
 10
1335.382116827644
 20
312.98201585526317
 11
1414.0939825406181
 21
449.31496642867319
  0
POINT
  8
_0-0_
 62
    7
 10
1335.382116827644
 20
312.98201585526317
  0
POINT
  8
_0-0_
 62
    7
 10
1474.7472418912816
 20
295.73201585526317
  0
POINT
  8
_0-0_
 62
    7
 10
1532.6570436812904
 20
285.98201585526317
  0
LINE
  8
_0-0_
  6
CONTINUOUS
 62
    7
 10
1579.6355903293038
 20
279.23201585526317
 11
1611.0002983444606
 21
333.55728370207748
  0
POINT
  8
_0-0_
 62
    7
 10
1579.6355903293038
 20
279.23201585526317
  0
TEXT
  8
_0-0_
 62
    7
 10
1403.7027708141827
 20
451.6635039183609
 40
21.617968000000001
 41
1
 50
0
  1
ﾄｯﾌﾟｺｰﾄ
  0
TEXT
  8
_0-0_
 62
    7
 10
1526.7460672559905
 20
411.1380459660561
 40
21.617968000000001
 41
1
 50
0
  1
DFﾒｯｼｭﾃｰﾌﾟ
  0
TEXT
  8
_0-0_
 62
    7
 10
1406.1728610287896
 20
392.41141720597375
 40
21.617968000000001
 41
1
 50
0
  1
ｳﾚﾀﾝ防水
  0
LINE
  8
_0-0_
  6
CONTINUOUS
 62
    7
 10
1474.7472418912816
 20
295.73201585526317
 11
1537.3262444022216
 21
404.12202769119108
  0
TEXT
  8
_0-0_
 62
    7
 10
1553.4334086468775
 20
369.41929687476818
 40
21.617968000000001
 41
1
 50
0
  1
通気緩衝ｼｰﾄ
  0
TEXT
  8
_0-0_
 62
    7
 10
1441.3263571222792
 20
356.60084641914841
 40
21.617968000000001
 41
1
 50
0
  1
LSﾒｯｼｭ
  0
TEXT
  8
_0-0_
 62
    7
 10
1605.5950304563389
 20
334.91738153905249
 40
21.617968000000001
 41
1
 50
0
  1
ﾌﾟﾗｲﾏｰ
  0
LINE
  8
_0-0_
  6
CONTINUOUS
 62
    7
 10
1532.6570436812904
 20
285.98201585526317
 11
1577.5587276884867
 21
363.75401390113234
  0
LINE
  8
_0-0_
  6
CONTINUOUS
 62
    2
 10
931.00497022043385
 20
410.46369242453943
 11
932.37830179260129
 21
411.83702399670142
  0
LINE
  8
_0-0_
  6
CONTINUOUS
 62
    2
 10
931.00497022043385
 20
404.09973139386307
 11
934.70647907695786
 21
407.80124025037799
  0
LINE
  8
_0-0_
  6
CONTINUOUS
 62
    2
 10
931.00497022044112
 20
397.73577036318306
 11
937.61166359388847
 21
404.34246373663768
  0
LINE
  8
_0-0_
  6
CONTINUOUS
 62
    2
 10
931.00497022044112
 20
391.37180933250306
 11
941.06757985878141
 21
401.43441897084335
  0
LINE
  8
_0-0_
  6
CONTINUOUS
 62
    2
 10
931.00497022044112
 20
385.0078483018267
 11
945.10022308746522
 21
399.10310116884716
  0
LINE
  8
_0-0_
  6
CONTINUOUS
 62
    2
 10
931.00497022044112
 20
378.6438872711467
 11
949.80201915228611
 21
397.44093620299532
  0
LINE
  8
_0-0_
  6
CONTINUOUS
 62
    2
 10
935.06653207040983
 20
376.34148809043904
 11
955.39769092393692
 21
396.67264694396613
  0
LINE
  8
_0-0_
  6
CONTINUOUS
 62
    2
 10
981.54189459795055
 20
416.45288958729793
 11
982.336697785409
 21
417.24769277476003
  0
LINE
  8
_0-0_
  6
CONTINUOUS
 62
    2
 10
942.64252200644444
 20
377.55351699579546
 11
962.54587316755317
 21
397.45686815690237
  0
LINE
  8
_0-0_
  6
CONTINUOUS
 62
    2
 10
949.65396741416191
 20
378.20100137283112
 11
982.336697785409
 21
410.8837317440782
  0
LINE
  8
_0-0_
  6
CONTINUOUS
 62
    2
 10
956.23089619574932
 20
378.41396912374034
 11
982.336697785409
 21
404.51977071340002
  0
LINE
  8
_0-0_
  6
CONTINUOUS
 62
    2
 10
962.4507464336599
 20
378.2698583309691
 11
982.336697785409
 21
398.1558096827182
  0
LINE
  8
_0-0_
  6
CONTINUOUS
 62
    2
 10
968.36323921540463
 20
377.81839008203383
 11
982.336697785409
 21
391.79184865204002
  0
LINE
  8
_0-0_
  6
CONTINUOUS
 62
    2
 10
974.00166301258616
 20
377.09285284854445
 11
982.336697785409
 21
385.42788762136365
  0
LINE
  8
_0-0_
  6
CONTINUOUS
 62
    2
 10
979.38863164435281
 20
376.11586044962928
 11
982.336697785409
 21
379.06392659068365
  0
LINE
  8
_0-0_
  6
CONTINUOUS
 62
    2
 10
982.336697785409
 20
375.45633911904235
 11
982.336697785409
 21
375.45633911904235
  0
LINE
  8
_0-0_
  6
CONTINUOUS
 62
    2
 10
982.336697785409
 20
375.45633911904235
 11
970.77546458825498
 21
377.54401955904552
  0
LINE
  8
_0-0_
  6
CONTINUOUS
 62
    2
 10
970.77546458825498
 20
377.54401955904552
 11
958.78566932805313
 21
378.39543119641166
  0
LINE
  8
_0-0_
  6
CONTINUOUS
 62
    2
 10
958.78566932805313
 20
378.39543119641166
 11
946.73161586665572
 21
377.98470431937449
  0
LINE
  8
_0-0_
  6
CONTINUOUS
 62
    2
 10
946.73161586665572
 20
377.98470431937449
 11
934.97956051884159
 21
376.32431865625495
  0
LINE
  8
_0-0_
  6
CONTINUOUS
 62
    2
 10
934.97956051884159
 20
376.32431865625495
 11
931.00497022044112
 21
375.45633911904235
  0
CIRCLE
  8
_0-0_
  6
CONTINUOUS
 62
    7
 10
956.14218230271729
 20
422.85658045213563
 40
26.194515482695333
  0
LINE
  8
_0-0_
  6
CONTINUOUS
 62
    7
 10
982.336697785409
 20
375.45633911903928
 11
986.836697785409
 21
375.45633911903928
  0
LINE
  8
_0-0_
  6
CONTINUOUS
 62
    7
 10
986.836697785409
 20
446.40931056494696
 11
986.836697785409
 21
375.45633911903928
  0
LINE
  8
_0-0_
  6
CONTINUOUS
 62
    7
 10
982.336697785409
 20
442.95633911903928
 11
982.336697785409
 21
375.45633911903928
  0
LINE
  8
_0-0_
  6
CONTINUOUS
 62
    7
 10
801.81829036029524
 20
491.32610060755246
 11
982.336697785409
 21
442.95633911903928
  0
LINE
  8
_0-0_
  6
CONTINUOUS
 62
    7
 10
797.31829036029524
 20
456.26251585777823
 11
774.81829036029524
 21
456.26251585777823
  0
LINE
  8
_0-0_
  6
CONTINUOUS
 62
    7
 10
774.81829036029524
 20
456.26251585777823
 11
774.81829036029524
 21
451.76251585777823
  0
LINE
  8
_0-0_
  6
CONTINUOUS
 62
    7
 10
797.31829036029524
 20
492.53187197349212
 11
797.31829036029524
 21
456.26251585777823
  0
LINE
  8
_0-0_
  6
CONTINUOUS
 62
    7
 10
801.81829036029524
 20
491.32610060755246
 11
801.81829036029524
 21
451.76251585777823
  0
LINE
  8
_0-0_
  6
CONTINUOUS
 62
    7
 10
774.81829036029524
 20
451.76251585777823
 11
801.81829036029524
 21
451.76251585777823
  0
LINE
  8
_0-0_
  6
CONTINUOUS
 62
    7
 10
821.81519201729463
 20
451.76251585777823
 11
821.81519201729463
 21
447.26251585777823
  0
LINE
  8
_0-0_
  6
CONTINUOUS
 62
    7
 10
893.64011635539612
 20
433.76251585777823
 11
917.50497022044112
 21
409.8976619927314
  0
LINE
  8
_0-0_
  6
CONTINUOUS
 62
    4
 10
899.23199944743612
 20
447.26251585777823
 11
931.00497022044112
 21
415.48954508476777
  0
LINE
  8
_0-0_
  6
CONTINUOUS
 62
    7
 10
719.6829958706254
 20
513.33418643615073
 11
797.31829036029524
 21
492.53187197349212
  0
LINE
  8
_0-0_
  6
CONTINUOUS
 62
    7
 10
719.6829958706254
 20
517.99292924799806
 11
986.836697785409
 21
446.40931056494696
  0
LINE
  8
_0-0_
  6
CONTINUOUS
 62
    4
 10
719.6829958706254
 20
447.26251585777823
 11
899.23199944743612
 21
447.26251585777823
  0
LINE
  8
_0-0_
  6
CONTINUOUS
 62
    7
 10
719.6829958706254
 20
451.76251585777823
 11
821.81519201729463
 21
451.76251585777823
  0
LINE
  8
_0-0_
  6
CONTINUOUS
 62
    7
 10
719.6829958706254
 20
433.76251585777823
 11
893.64011635539612
 21
433.76251585777823
  0
LINE
  8
_0-0_
  6
CONTINUOUS
 62
    7
 10
719.6829958706254
 20
369.57865253578416
 11
783.86685919261402
 21
433.76251585777277
  0
LINE
  8
_0-0_
  6
CONTINUOUS
 62
    7
 10
719.6829958706254
 20
353.66874995909234
 11
799.77676176930584
 21
433.76251585777277
  0
LINE
  8
_0-0_
  6
CONTINUOUS
 62
    7
 10
719.6829958706254
 20
337.75884738239324
 11
815.68666434600493
 21
433.76251585777277
  0
LINE
  8
_0-0_
  6
CONTINUOUS
 62
    7
 10
917.50497022044112
 20
409.8976619927314
 11
917.50497022044112
 21
197.06114812935334
  0
LINE
  8
_0-0_
  6
CONTINUOUS
 62
    4
 10
931.00497022044112
 20
415.48954508476777
 11
931.00497022044112
 21
197.06114812935334
  0
LINE
  8
_0-0_
  6
CONTINUOUS
 62
    7
 10
954.56786834090565
 20
389.86162278321967
 11
994.9491544295721
 21
319.9191836026755
  0
TEXT
  8
_0-0_
 62
    7
 10
997.99307905290664
 20
302.68318325498763
 40
21.617968000000001
 41
1
 50
0
  1
ｼｰﾘﾝｸﾞ
  0
POINT
  8
_0-0_
 62
    7
 10
954.56786834090565
 20
389.86162278321967
  0
LINE
  8
_0-0_
  6
CONTINUOUS
 62
    7
 10
956.39015301073562
 20
417.35742939218358
 11
996.56750648948366
 21
486.94664693102891
  0
POINT
  8
_0-0_
 62
    7
 10
956.39015301073562
 20
417.35742939218358
  0
TEXT
  8
_0-0_
 62
    7
 10
1000.0390803756069
 20
480.64837407125083
 40
21.617968000000001
 41
1
 50
0
  1
ﾊﾞｯｸｱｯﾌﾟ材
  0
LINE
  8
_0-0_
  6
CONTINUOUS
 62
    3
 10
1221.3905237354311
 20
917.19336704413831
 11
1221.3905237354311
 21
921.39336704413813
  0
CIRCLE
  8
_0-0_
  6
DASHED2
 62
    1
 10
1224.7825815009192
 20
916.90401828574045
 40
67.350194333739935
  0
TEXT
  8
_0-0_
 62
    7
 10
1212.4908361417647
 20
972.21590655808973
 40
24
 41
1
 50
0
  1
Ｂ
  0
LINE
  8
_0-0_
  6
CONTINUOUS
 62
    3
 10
1160.7839220176329
 20
1209.477743116481
 11
1160.7839220176329
 21
1213.6777431164808
  0
CIRCLE
  8
_0-0_
  6
DASHED2
 62
    1
 10
1164.175979783121
 20
1209.1883943580831
 40
67.350194333739935
  0
LINE
  8
_0-0_
  6
CONTINUOUS
 62
    7
 10
672.13606690525205
 20
1633.3565543671129
 11
1706.8525777203686
 21
1633.3565543671129
  0
LINE
  8
_0-0_
  6
CONTINUOUS
 62
    7
 10
672.13606690525205
 20
1553.3565543671129
 11
1706.8525777203686
 21
1553.3565543671129
  0
LINE
  8
_0-0_
  6
CONTINUOUS
 62
    7
 10
672.13606690525205
 20
1473.3565543671129
 11
1706.8525777203686
 21
1473.3565543671129
  0
LINE
  8
_0-0_
  6
CONTINUOUS
 62
    7
 10
1189.4943223128103
 20
1633.3565543671129
 11
1189.4943223128103
 21
1473.3565543671129
  0
TEXT
  8
_0-0_
 62
    7
 10
696.13606690525205
 20
1497.3565543671129
 40
20
 41
1
 50
0
  1
施工部位：トップライト
  0
TEXT
  8
_0-0_
 62
    7
 10
1213.4943223128103
 20
1577.3565543671129
 40
20
 41
1
 50
0
  1
構造：ＲＣ造
  0
TEXT
  8
_0-0_
 62
    7
 10
1213.4943223128103
 20
1497.3565543671129
 40
20
 41
1
 50
0
  1
下地：コンクリートスラブ
  0
TEXT
  8
_0-0_
 62
    7
 10
696.13606690525194
 20
1577.3565543671129
 40
20
 41
1
 50
0
  1
図面番号：tsuki-PU-top-01
  0
ENDSEC
  0
EOF
