  0
SECTION
  2
HEADER
  9
$ACADVER
  1
AC1009
  9
$INSBASE
 10
0
 20
0
 30
0
  9
$EXTMIN
 10
0
 20
0
  9
$EXTMAX
 10
2378
 20
1682
  9
$LIMMIN
 10
0
 20
0
  9
$LIMMAX
 10
2378
 20
1682
  9
$LTSCALE
 40
1
  0
ENDSEC
  0
SECTION
  2
TABLES
  0
TABLE
  2
LTYPE
 70
     9
  0
LTYPE
  2
CONTINUOUS
 70
    64
  3
実線
 72
    65
 73
     0
 40
0.0
  0
LTYPE
  2
DASHED1
 70
    64
  3
--  --  --  --  --  --  --  --  
 72
    65
 73
     2
 40
2.5
 49
1.25
 49
-1.25
  0
LTYPE
  2
DASHED2
 70
    64
  3
----    ----    ----    ----    
 72
    65
 73
     2
 40
5.0
 49
2.5
 49
-2.5
  0
LTYPE
  2
DASHED3
 70
    64
  3
------  ------  ------  ------  
 72
    65
 73
     2
 40
5.0
 49
3.75
 49
-1.25
  0
LTYPE
  2
CENTER1
 70
    64
  3
----- - ----- - ----- - ----- - 
 72
    65
 73
     4
 40
10.0
 49
6.25
 49
-1.25
 49
1.25
 49
-1.25
  0
LTYPE
  2
CENTER2
 70
    64
  3
----------  --  ----------  --  
 72
    65
 73
     4
 40
20.0
 49
12.5
 49
-2.5
 49
2.5
 49
-2.5
  0
LTYPE
  2
PHANTOM1
 70
    64
  3
--- - - --- - - --- - - --- - - 
 72
    65
 73
     6
 40
10.0
 49
3.25
 49
-1.25
 49
1.25
 49
-1.25
 49
1.25
 49
-1.25
  0
LTYPE
  2
PHANTOM2
 70
    64
  3
--------  -  -  --------  -  -  
 72
    65
 73
     6
 40
20.0
 49
10.0
 49
-2.5
 49
1.25
 49
-2.5
 49
1.25
 49
-2.5
  0
LTYPE
  2
DOT
 70
    64
  3
-   -   -   -   -   -   -   -   
 72
    65
 73
     2
 40
2.5
 49
0.625
 49
-1.875
  0
LTYPE
  2
DUMMY
 70
    64
  3
ダミー
 72
    65
 73
     0
 40
0.0
  0
LTYPE
  2
RAND1
 70
    64
  3
ランダム線1
 72
    65
 73
     4
 40
10.0
 49
1.0
 49
-2.0
 49
3.0
 49
-4.0
  0
LTYPE
  2
RAND2
 70
    64
  3
ランダム線2
 72
    65
 73
     4
 40
14.0
 49
2.0
 49
-3.0
 49
4.0
 49
-5.0
  0
LTYPE
  2
RAND3
 70
    64
  3
ランダム線3
 72
    65
 73
     4
 40
18.0
 49
3.0
 49
-4.0
 49
5.0
 49
-6.0
  0
LTYPE
  2
RAND4
 70
    64
  3
ランダム線4
 72
    65
 73
     4
 40
22.0
 49
4.0
 49
-5.0
 49
6.0
 49
-7.0
  0
LTYPE
  2
RAND5
 70
    64
  3
ランダム線5
 72
    65
 73
     4
 40
26.0
 49
5.0
 49
-6.0
 49
7.0
 49
-8.0
  0
LTYPE
  2
LONG1
 70
    64
  3
----------  --  ----------  --  
 72
    65
 73
     4
 40
40.0
 49
32.5
 49
-2.5
 49
2.5
 49
-2.5
  0
LTYPE
  2
LONG2
 70
    64
  3
--------  -  -  --------  -  -  
 72
    65
 73
     6
 40
40.0
 49
30.0
 49
-2.5
 49
1.25
 49
-2.5
 49
1.25
 49
-2.5
  0
LTYPE
  2
LONG3
 70
    64
  3
+++++++++++++++..+++++++++++++++
 72
    65
 73
     2
 40
40.0
 49
37.5
 49
-2.5
  0
LTYPE
  2
LONG4
 70
    64
  3
+++++++++++++++..+++++++++++++++
 72
    65
 73
     2
 40
80.0
 49
75.0
 49
-5.0
  0
LTYPE
  2
LONG5
 70
    64
  3
----------  --  ----------  --  
 72
    65
 73
     4
 40
60.0
 49
37.5
 49
-7.5
 49
7.5
 49
-7.5
  0
LTYPE
  2
dashed
 70
   64
  3
-------   -------------   ------
 72
   65
 73
    2
 40
7.5
 49
6
 49
-1.5
  0
LTYPE
  2
dashed_spaced
 70
   64
  3
----        --------        ----
 72
   65
 73
    2
 40
12
 49
6
 49
-6
  0
LTYPE
  2
long_dashed_dotted
 70
   64
  3
------------- --- --------------
 72
   65
 73
    4
 40
15.25
 49
12
 49
-1.5
 49
0.25
 49
-1.5
  0
LTYPE
  2
long_dashed_double-dotted
 70
   64
  3
----------- --- --- ------------
 72
   65
 73
    6
 40
17
 49
12
 49
-1.5
 49
0.25
 49
-1.5
 49
0.25
 49
-1.5
  0
LTYPE
  2
long_dashed_triplicate-dotted
 70
   64
  3
--------- --- --- --- ----------
 72
   65
 73
    8
 40
18.75
 49
12
 49
-1.5
 49
0.25
 49
-1.5
 49
0.25
 49
-1.5
 49
0.25
 49
-1.5
  0
LTYPE
  2
dotted
 70
   64
  3
   -       -       -       -    
 72
   65
 73
    2
 40
1.75
 49
0.25
 49
-1.5
  0
LTYPE
  2
chain
 70
   64
  3
-------------- -- --------------
 72
   65
 73
    4
 40
18.5
 49
12
 49
-1.5
 49
3.5
 49
-1.5
  0
LTYPE
  2
chain_double_dash
 70
   64
  3
------------ -- -- -------------
 72
   65
 73
    6
 40
23.5
 49
12
 49
-1.5
 49
3.5
 49
-1.5
 49
3.5
 49
-1.5
  0
LTYPE
  2
dashed_dotted
 70
   64
  3
-----------     -     ----------
 72
   65
 73
    4
 40
9.25
 49
6
 49
-1.5
 49
0.25
 49
-1.5
  0
LTYPE
  2
double-dashed_dotted
 70
   64
  3
------   -----------   -   -----
 72
   65
 73
    6
 40
16.75
 49
6
 49
-1.5
 49
6
 49
-1.5
 49
0.25
 49
-1.5
  0
LTYPE
  2
dashed_double-dotted
 70
   64
  3
---------    -    -    ---------
 72
   65
 73
    6
 40
11
 49
6
 49
-1.5
 49
0.25
 49
-1.5
 49
0.25
 49
-1.5
  0
LTYPE
  2
double-dashed_double-dotted
 70
   64
  3
-----   ---------   -   -   ----
 72
   65
 73
    8
 40
18.5
 49
6
 49
-1.5
 49
6
 49
-1.5
 49
0.25
 49
-1.5
 49
0.25
 49
-1.5
  0
LTYPE
  2
dashed_triplicate-dotted
 70
   64
  3
-------    -    -    -    ------
 72
   65
 73
    8
 40
12.75
 49
6
 49
-1.5
 49
0.25
 49
-1.5
 49
0.25
 49
-1.5
 49
0.25
 49
-1.5
  0
LTYPE
  2
double-dashed_triplicate-dotted
 70
   64
  3
-----  ---------  -  -  -  -----
 72
   65
 73
   10
 40
20.25
 49
6
 49
-1.5
 49
6
 49
-1.5
 49
0.25
 49
-1.5
 49
0.25
 49
-1.5
 49
0.25
 49
-1.5
  0
LTYPE
  2
undefined
 70
   64
  3
--------------------------------
 72
   65
 73
    0
 40
0
  0
ENDTAB
  0
TABLE
  2
STYLE
  5
3
100
AcDbSymbolTable
 70
     1
  0
STYLE
  5
10
100
AcDbSymbolTableRecord
100
AcDbTextStyleTableRecord
  2
STANDARD
 70
     0
 40
0.0
 41
1.0
 50
0.0
 71
     0
 42
0.2
  3
txt
  4
bigfont.shx
  0
STYLE
  5
26
100
AcDbSymbolTableRecord
100
AcDbTextStyleTableRecord
  2
TATEGAKI
 70
    68
 40
0.0
 41
1.0
 50
0.0
 71
     0
 42
1.0
  3
txt
  4
bigfont.shx
  0
ENDTAB
  0
TABLE
  2
LAYER
 70
    2
  0
LAYER
  2
_0-0_
 70
   64
 62
    7
  6
CONTINUOUS
  0
LAYER
  2
ADD_LINE
 70
   64
 62
    7
  6
CONTINUOUS
  0
ENDTAB
  0
ENDSEC
  0
SECTION
  2
BLOCKS
  0
ENDSEC
  0
SECTION
  2
ENTITIES
  0
ARC
  8
_0-0_
  6
CONTINUOUS
 62
    4
 10
1023.7983667252063
 20
388.74032955044368
 40
10.800000000000001
 50
0
 51
90
  0
ARC
  8
_0-0_
  6
CONTINUOUS
 62
    4
 10
1037.9254991561124
 20
1227.3279057056284
 40
6
 50
0
 51
90
  0
LINE
  8
_0-0_
  6
CONTINUOUS
 62
    7
 10
998.59836672520635
 20
218.99648751841937
 11
998.59836672520635
 21
298.74032955044368
  0
ARC
  8
_0-0_
  6
CONTINUOUS
 62
    7
 10
1072.9518364040614
 20
1207.3279057056284
 40
10
 50
0
 51
180
  0
POINT
  8
_0-0_
 62
    7
 10
1216.1733265094576
 20
1060.4922480620157
  0
LINE
  8
_0-0_
  6
CONTINUOUS
 62
    7
 10
1216.1733265094576
 20
1060.4922480620157
 11
1275.9312715000365
 21
1163.9960449416044
  0
TEXT
  8
_0-0_
 62
    7
 10
1429.6891920142089
 20
576.02721287347731
 40
40
 41
1
 50
0
  1
Ｂ
  0
TEXT
  8
_0-0_
 62
    7
 10
906.73245032900388
 20
575.67973412101173
 40
40
 41
1
 50
0
  1
Ａ
  0
LINE
  8
_0-0_
  6
CONTINUOUS
 62
    3
 10
1073.9254991561124
 20
1058.9922480620157
 11
1523.9254991561124
 21
1058.9922480620157
  0
LINE
  8
_0-0_
  6
CONTINUOUS
 62
    4
 10
1029.9254991561124
 20
1067.9922480620157
 11
1523.9254991561124
 21
1067.9922480620157
  0
LINE
  8
_0-0_
  6
CONTINUOUS
 62
    7
 10
1023.9254991561126
 20
1052.9922480620157
 11
1523.9254991561124
 21
1052.9922480620157
  0
LINE
  8
_0-0_
  6
CONTINUOUS
 62
    7
 10
1079.1989496475876
 20
772.99224806201573
 11
1359.1989496475876
 21
1052.9922480620157
  0
LINE
  8
_0-0_
  6
CONTINUOUS
 62
    7
 10
1419.6152552510125
 20
872.99224806201573
 11
1523.9254991561133
 21
977.30249196711566
  0
LINE
  8
_0-0_
  6
CONTINUOUS
 62
    7
 10
1412.5441874391477
 20
872.99224806201573
 11
1523.9254991561124
 21
984.37355977898051
  0
LINE
  8
_0-0_
  6
CONTINUOUS
 62
    7
 10
1405.4731196272828
 20
872.99224806201573
 11
1523.9254991561133
 21
991.44462759084627
  0
LINE
  8
_0-0_
  6
CONTINUOUS
 62
    7
 10
1223.9254991561124
 20
872.99224806201573
 11
1223.9254991561124
 21
772.99224806201573
  0
LINE
  8
_0-0_
  6
CONTINUOUS
 62
    7
 10
1223.9254991561124
 20
872.99224806201573
 11
1523.9254991561124
 21
872.99224806201573
  0
LINE
  8
_0-0_
  6
CONTINUOUS
 62
    4
 10
1016.1377012032914
 20
1274.0297458012051
 11
1029.9254991561124
 21
1259.7520630606391
  0
LINE
  8
_0-0_
  6
CONTINUOUS
 62
    7
 10
1013.5056235992275
 20
1268.118002710708
 11
1023.9254991561126
 21
1257.3279057056284
  0
LINE
  8
_0-0_
  6
CONTINUOUS
 62
    7
 10
873.92549915611346
 20
1232.3991718858974
 11
913.14886520765469
 21
1271.6225379374387
  0
LINE
  8
_0-0_
  6
CONTINUOUS
 62
    7
 10
873.92549915611255
 20
1239.4702396977614
 11
906.31639259688984
 21
1271.8611331385387
  0
LINE
  8
_0-0_
  6
CONTINUOUS
 62
    7
 10
873.92549915611255
 20
1246.5413075096262
 11
899.48391998612408
 21
1272.0997283396377
  0
LINE
  8
_0-0_
  6
CONTINUOUS
 62
    7
 10
873.92549915611255
 20
1020.267137529931
 11
1023.9254991561126
 21
1170.267137529931
  0
LINE
  8
_0-0_
  6
CONTINUOUS
 62
    7
 10
873.92549915611255
 20
1013.1960697180662
 11
1023.9254991561135
 21
1163.1960697180671
  0
LINE
  8
_0-0_
  6
CONTINUOUS
 62
    7
 10
873.92549915611346
 20
1006.1250019062022
 11
1023.9254991561126
 21
1156.1250019062013
  0
LINE
  8
_0-0_
  6
CONTINUOUS
 62
    7
 10
873.92549915611255
 20
793.9929675502367
 11
1132.9247796678924
 21
1052.9922480620148
  0
LINE
  8
_0-0_
  6
CONTINUOUS
 62
    7
 10
873.92549915611255
 20
786.92189973837094
 11
1139.9958474797563
 21
1052.9922480620148
  0
LINE
  8
_0-0_
  6
CONTINUOUS
 62
    7
 10
873.92549915611346
 20
779.850831926507
 11
1147.0669152916221
 21
1052.9922480620148
  0
LINE
  8
_0-0_
  6
CONTINUOUS
 62
    7
 10
1086.2700174594524
 20
772.99224806201573
 11
1366.2700174594524
 21
1052.9922480620148
  0
LINE
  8
_0-0_
  6
CONTINUOUS
 62
    7
 10
1093.3410852713164
 20
772.99224806201482
 11
1373.3410852713173
 21
1052.9922480620157
  0
LINE
  8
_0-0_
  6
CONTINUOUS
 62
    7
 10
672.13606690525205
 20
1553.3565543671134
 11
1706.8525777203677
 21
1553.3565543671134
  0
LINE
  8
_0-0_
  6
CONTINUOUS
 62
    7
 10
672.13606690525205
 20
1633.3565543671134
 11
1706.8525777203677
 21
1633.3565543671134
  0
LINE
  8
_0-0_
  6
CONTINUOUS
 62
    7
 10
1706.8525777203677
 20
1633.3565543671134
 11
1706.8525777203677
 21
167.53106997205509
  0
LINE
  8
_0-0_
  6
CONTINUOUS
 62
    7
 10
672.13606690525205
 20
1633.3565543671134
 11
672.13606690525205
 21
167.53106997205509
  0
LINE
  8
_0-0_
  6
CONTINUOUS
 62
    7
 10
1189.4943223128098
 20
627.53106997205532
 11
1189.4943223128098
 21
167.53106997205509
  0
LINE
  8
_0-0_
  6
CONTINUOUS
 62
    7
 10
672.13606690525205
 20
627.53106997205532
 11
1706.8525777203677
 21
627.53106997205532
  0
LINE
  8
_0-0_
  6
CONTINUOUS
 62
    7
 10
672.13606690525205
 20
167.53106997205509
 11
1706.8525777203677
 21
167.53106997205509
  0
LINE
  8
_0-0_
  6
CONTINUOUS
 62
    7
 10
672.13606690525205
 20
567.53106997205532
 11
1706.8525777203677
 21
567.53106997205532
  0
LINE
  8
_0-0_
  6
DASHED1
 62
    7
 10
916.74017122517137
 20
1227.3279057056284
 11
916.74017122517137
 21
1187.3279057056284
  0
LINE
  8
_0-0_
  6
DASHED1
 62
    7
 10
916.74017122517137
 20
1227.3279057056284
 11
916.74017122517137
 21
1187.3279057056284
  0
ARC
  8
_0-0_
  6
CONTINUOUS
 62
    7
 10
1072.9518364040614
 20
1207.3279057056284
 40
20
 50
1.8794552231624875
 51
90
  0
LINE
  8
_0-0_
  6
CONTINUOUS
 62
    7
 10
1082.9518364040614
 20
1207.3279057056284
 11
1082.9518364040614
 21
1147.3279057056284
  0
LINE
  8
_0-0_
  6
CONTINUOUS
 62
    7
 10
1062.9518364040614
 20
1207.3279057056284
 11
1062.9518364040614
 21
1147.3279057056284
  0
ARC
  8
_0-0_
  6
DASHED1
 62
    7
 10
1072.9518364040614
 20
1207.3279057056284
 40
10
 50
180
 51
1.879455223162438
  0
ARC
  8
_0-0_
  6
CONTINUOUS
 62
    7
 10
1072.9518364040614
 20
1147.3279057056284
 40
10
 50
180
 51
0
  0
CIRCLE
  8
_0-0_
  6
DASHED1
 62
    7
 10
937.06813921920241
 20
1207.6558736996594
 40
9.6720320059689584
  0
ARC
  8
_0-0_
  6
CONTINUOUS
 62
    7
 10
1072.9518364040614
 20
1207.3279057056284
 40
20
 50
299.99999999999989
 51
1.8794552231624542
  0
ARC
  8
_0-0_
  6
DASHED1
 62
    7
 10
1072.9518364040614
 20
1207.6558736996594
 40
20.284691458917379
 50
270
 51
299.53680866691025
  0
LINE
  8
_0-0_
  6
DASHED1
 62
    7
 10
1062.9518364040614
 20
1187.3279057056284
 11
1072.9518364040614
 21
1187.3279057056284
  0
LINE
  8
_0-0_
  6
DASHED1
 62
    7
 10
1023.9254991561126
 20
1227.3279057056284
 11
916.74017122517137
 21
1227.3279057056284
  0
LINE
  8
_0-0_
  6
DASHED1
 62
    7
 10
1023.9254991561126
 20
1187.3279057056284
 11
916.74017122517137
 21
1187.3279057056284
  0
LINE
  8
_0-0_
  6
CONTINUOUS
 62
    7
 10
1072.9518364040614
 20
1227.3279057056284
 11
1023.9254991561126
 21
1227.3279057056284
  0
LINE
  8
_0-0_
  6
CONTINUOUS
 62
    7
 10
1062.9518364040614
 20
1187.3279057056284
 11
1023.9254991561126
 21
1187.3279057056284
  0
LINE
  8
_0-0_
  6
CONTINUOUS
 62
    3
 10
1073.9254991561124
 20
1058.9922480620157
 11
1073.9254991561124
 21
1052.9922480620157
  0
CIRCLE
  8
_0-0_
  6
DASHED2
 62
    1
 10
951.16433613602487
 20
1269.5458920707847
 40
94.513505632925799
  0
TEXT
  8
_0-0_
 62
    7
 10
941.25844822473812
 20
1351.4850665766121
 40
24
 41
1
 50
0
  1
Ａ
  0
CIRCLE
  8
_0-0_
  6
DASHED2
 62
    1
 10
1073.9254991561124
 20
1058.9922480620157
 40
67.350194333739935
  0
TEXT
  8
_0-0_
 62
    7
 10
1060.6039995918031
 20
1114.1237376053609
 40
24
 41
1
 50
0
  1
Ｂ
  0
LINE
  8
_0-0_
  6
CONTINUOUS
 62
    7
 10
672.13606690525205
 20
1473.3565543671134
 11
1706.8525777203677
 21
1473.3565543671134
  0
LINE
  8
_0-0_
  6
DASHED2
 62
    5
 10
1412.4364183677494
 20
304.01045251187179
 11
1514.3970054503584
 21
304.01045251187179
  0
LINE
  8
_0-0_
  6
DASHED2
 62
    5
 10
1415.4364183677494
 20
293.54986542926281
 11
1514.3970054503584
 21
293.54986542926281
  0
LINE
  8
_0-0_
  6
CONTINUOUS
 62
    7
 10
1363.7821263458914
 20
305.9051589705673
 11
1410.7991753243073
 21
387.34107662313954
  0
LINE
  8
_0-0_
  6
CONTINUOUS
 62
    4
 10
1412.4364183677494
 20
296.54986542926281
 11
1514.3970054503584
 21
296.54986542926281
  0
LINE
  8
_0-0_
  6
CONTINUOUS
 62
    7
 10
1213.5150799397611
 20
419.67722315069159
 11
1288.0386678441751
 21
494.20081105510462
  0
LINE
  8
_0-0_
  6
CONTINUOUS
 62
    7
 10
1213.5150799397611
 20
435.58712572738887
 11
1272.1287652674778
 21
494.20081105510462
  0
LINE
  8
_0-0_
  6
CONTINUOUS
 62
    7
 10
1213.5150799397611
 20
451.49702830408432
 11
1256.2188626907823
 21
494.20081105510462
  0
LINE
  8
_0-0_
  6
CONTINUOUS
 62
    7
 10
1302.9364183677494
 20
277.04986542926281
 11
1663.1080209871411
 21
277.04986542926281
  0
LINE
  8
_0-0_
  6
CONTINUOUS
 62
    3
 10
1415.4364183677494
 20
290.54986542926281
 11
1663.1080209871411
 21
290.54986542926281
  0
LINE
  8
_0-0_
  6
CONTINUOUS
 62
    4
 10
1316.4364183677494
 20
310.79986542926281
 11
1663.1080209871411
 21
310.79986542926281
  0
LINE
  8
_0-0_
  6
CONTINUOUS
 62
    7
 10
1498.7868014113096
 20
195.83206216792519
 11
1580.0046046726452
 21
277.04986542926008
  0
LINE
  8
_0-0_
  6
CONTINUOUS
 62
    7
 10
1482.8768988346123
 20
195.83206216792519
 11
1564.0947020959479
 21
277.04986542926008
  0
LINE
  8
_0-0_
  6
CONTINUOUS
 62
    7
 10
1466.9669962579169
 20
195.83206216792519
 11
1548.1847995192543
 21
277.04986542926008
  0
LINE
  8
_0-0_
  6
CONTINUOUS
 62
    4
 10
1316.4364183677494
 20
494.20081105510462
 11
1316.4364183677494
 21
310.79986542926281
  0
LINE
  8
_0-0_
  6
DASHED2
 62
    5
 10
1309.6864183677494
 20
304.01045251187179
 11
1309.6864183677494
 21
494.20081105510462
  0
LINE
  8
_0-0_
  6
CONTINUOUS
 62
    7
 10
1302.9364183677494
 20
277.04986542926281
 11
1302.9364183677494
 21
494.20081105510462
  0
LINE
  8
_0-0_
  6
DASHED2
 62
    5
 10
1514.3970054503584
 20
304.01045251187179
 11
1517.3970054503584
 21
301.01045251187179
  0
LINE
  8
_0-0_
  6
DASHED2
 62
    5
 10
1517.3970054503584
 20
301.01045251187179
 11
1640.3970054503602
 21
301.01045251187179
  0
LINE
  8
_0-0_
  6
DASHED2
 62
    5
 10
1309.6864183677494
 20
301.01045251187179
 11
1409.4364183677494
 21
301.01045251187179
  0
LINE
  8
_0-0_
  6
DASHED2
 62
    5
 10
1412.4364183677494
 20
304.01045251187179
 11
1409.4364183677494
 21
301.01045251187179
  0
LINE
  8
_0-0_
  6
CONTINUOUS
 62
    4
 10
1302.9364183677494
 20
289.04986542926281
 11
1404.9364183677494
 21
289.04986542926281
  0
LINE
  8
_0-0_
  6
CONTINUOUS
 62
    4
 10
1404.9364183677494
 20
289.04986542926281
 11
1412.4364183677494
 21
296.54986542926281
  0
LINE
  8
_0-0_
  6
DASHED2
 62
    5
 10
1302.9364183677494
 20
283.04986542926281
 11
1404.9364183677494
 21
283.04986542926281
  0
LINE
  8
_0-0_
  6
CONTINUOUS
 62
    4
 10
1514.3970054503584
 20
296.54986542926281
 11
1520.3970054503584
 21
290.54986542926281
  0
LINE
  8
_0-0_
  6
CONTINUOUS
 62
    3
 10
1415.4364183677494
 20
290.54986542926281
 11
1415.4364183677494
 21
277.04986542926281
  0
LINE
  8
_0-0_
  6
DASHED2
 62
    5
 10
1415.4364183677494
 20
293.54986542926281
 11
1404.9364183677494
 21
283.04986542926281
  0
LINE
  8
_0-0_
  6
CONTINUOUS
 62
    7
 10
1419.0774571876887
 20
304.01045251187179
 11
1446.5221186725134
 21
351.54600060011717
  0
POINT
  8
_0-0_
 62
    7
 10
1419.0774571876887
 20
304.01045251187179
  0
POINT
  8
_0-0_
 62
    7
 10
1363.7821263458914
 20
305.9051589705673
  0
LINE
  8
_0-0_
  6
CONTINUOUS
 62
    7
 10
1323.9179412830285
 20
310.79986542926281
 11
1402.6298069960026
 21
447.13281600267283
  0
POINT
  8
_0-0_
 62
    7
 10
1323.9179412830285
 20
310.79986542926281
  0
POINT
  8
_0-0_
 62
    7
 10
1463.2830663466661
 20
293.54986542926281
  0
POINT
  8
_0-0_
 62
    7
 10
1521.1928681366749
 20
283.79986542926281
  0
LINE
  8
_0-0_
  6
CONTINUOUS
 62
    7
 10
1568.1714147846883
 20
277.04986542926281
 11
1599.5361227998451
 21
331.37513327607712
  0
POINT
  8
_0-0_
 62
    7
 10
1568.1714147846883
 20
277.04986542926281
  0
TEXT
  8
_0-0_
 62
    7
 10
1392.2385952695672
 20
449.48135349236054
 40
21.617968000000001
 41
1
 50
0
  1
ﾄｯﾌﾟｺｰﾄ
  0
TEXT
  8
_0-0_
 62
    7
 10
1515.281891711375
 20
408.95589554005574
 40
21.617968000000001
 41
1
 50
0
  1
DFﾒｯｼｭﾃｰﾌﾟ
  0
TEXT
  8
_0-0_
 62
    7
 10
1394.7086854841746
 20
390.22926677997293
 40
21.617968000000001
 41
1
 50
0
  1
ｳﾚﾀﾝ防水
  0
LINE
  8
_0-0_
  6
CONTINUOUS
 62
    7
 10
1463.2830663466661
 20
293.54986542926281
 11
1525.8620688576066
 21
401.93987726519072
  0
TEXT
  8
_0-0_
 62
    7
 10
1541.969233102262
 20
367.23714644876782
 40
21.617968000000001
 41
1
 50
0
  1
通気緩衝ｼｰﾄ
  0
TEXT
  8
_0-0_
 62
    7
 10
1429.8621815776637
 20
354.41869599314759
 40
21.617968000000001
 41
1
 50
0
  1
LSﾒｯｼｭ
  0
TEXT
  8
_0-0_
 62
    7
 10
1594.1308549117239
 20
332.73523111305167
 40
21.617968000000001
 41
1
 50
0
  1
ﾌﾟﾗｲﾏｰ
  0
LINE
  8
_0-0_
  6
CONTINUOUS
 62
    7
 10
1521.1928681366749
 20
283.79986542926281
 11
1566.0945521438716
 21
361.57186347513198
  0
TEXT
  8
_0-0_
 62
    7
 10
1278.0307866011312
 20
1149.9441219393943
 40
30
 41
1
 50
0
  1
防水層
  0
LINE
  8
_0-0_
  6
CONTINUOUS
 62
    7
 10
1023.9254991561126
 20
1187.3279057056284
 11
1013.9254991561126
 21
1187.3279057056284
  0
LINE
  8
_0-0_
  6
CONTINUOUS
 62
    7
 10
1013.9254991561126
 20
1187.3279057056284
 11
1013.9254991561126
 21
1177.3279057056284
  0
LINE
  8
_0-0_
  6
CONTINUOUS
 62
    7
 10
1013.9254991561126
 20
1177.3279057056284
 11
1023.9254991561126
 21
1177.3279057056284
  0
LINE
  8
_0-0_
  6
CONTINUOUS
 62
    7
 10
1023.9254991561126
 20
1052.9922480620157
 11
1023.9254991561126
 21
1177.3279057056284
  0
LINE
  8
_0-0_
  6
CONTINUOUS
 62
    7
 10
1023.9254991561126
 20
1227.3279057056284
 11
1013.9254991561126
 21
1227.3279057056284
  0
LINE
  8
_0-0_
  6
CONTINUOUS
 62
    7
 10
1013.9254991561126
 20
1227.3279057056284
 11
1013.9254991561126
 21
1237.3279057056284
  0
LINE
  8
_0-0_
  6
CONTINUOUS
 62
    7
 10
1013.9254991561126
 20
1237.3279057056284
 11
1023.9254991561126
 21
1237.3279057056284
  0
LINE
  8
_0-0_
  6
CONTINUOUS
 62
    7
 10
1023.9254991561126
 20
1237.3279057056284
 11
1023.9254991561126
 21
1257.3279057056284
  0
LINE
  8
_0-0_
  6
CONTINUOUS
 62
    2
 10
1023.9254991561124
 20
1187.3279057056284
 11
1023.9254991561124
 21
1187.3279057056284
  0
LINE
  8
_0-0_
  6
CONTINUOUS
 62
    2
 10
1023.9254991561124
 20
1187.3279057056284
 11
1023.6229474302651
 21
1184.2442698070806
  0
LINE
  8
_0-0_
  6
CONTINUOUS
 62
    2
 10
1023.6229474302651
 20
1184.2442698070806
 11
1023.5927260221489
 21
1181.1024061550374
  0
LINE
  8
_0-0_
  6
CONTINUOUS
 62
    2
 10
1023.5927260221489
 20
1181.1024061550374
 11
1023.8357531939569
 21
1177.9977786867062
  0
LINE
  8
_0-0_
  6
CONTINUOUS
 62
    2
 10
1023.8357531939569
 20
1177.9977786867062
 11
1023.9254991561124
 21
1177.3279057056284
  0
LINE
  8
_0-0_
  6
CONTINUOUS
 62
    2
 10
1023.9254991561124
 20
1237.3279057056284
 11
1023.9254991561124
 21
1237.3279057056284
  0
LINE
  8
_0-0_
  6
CONTINUOUS
 62
    2
 10
1023.9254991561124
 20
1237.3279057056284
 11
1023.6229474302651
 21
1234.2442698070806
  0
LINE
  8
_0-0_
  6
CONTINUOUS
 62
    2
 10
1023.6229474302651
 20
1234.2442698070806
 11
1023.5927260221489
 21
1231.1024061550374
  0
LINE
  8
_0-0_
  6
CONTINUOUS
 62
    2
 10
1023.5927260221489
 20
1231.1024061550374
 11
1023.8357531939569
 21
1227.9977786867062
  0
LINE
  8
_0-0_
  6
CONTINUOUS
 62
    2
 10
1023.8357531939569
 20
1227.9977786867062
 11
1023.9254991561124
 21
1227.3279057056284
  0
LINE
  8
_0-0_
  6
CONTINUOUS
 62
    2
 10
1023.2035117548154
 20
1227.3279057056284
 11
1023.8399114355331
 21
1227.964305386346
  0
LINE
  8
_0-0_
  6
CONTINUOUS
 62
    2
 10
1020.3750846300699
 20
1227.3279057056284
 11
1023.6149408841167
 21
1230.5677619596752
  0
LINE
  8
_0-0_
  6
CONTINUOUS
 62
    2
 10
1017.546657505323
 20
1227.3279057056284
 11
1023.586893415474
 21
1233.3681416157792
  0
LINE
  8
_0-0_
  6
CONTINUOUS
 62
    2
 10
1014.7182303805758
 20
1227.3279057056279
 11
1023.8067432478698
 21
1236.4164185729219
  0
LINE
  8
_0-0_
  6
CONTINUOUS
 62
    2
 10
1013.9254991561128
 20
1229.3636016059097
 11
1021.8898032558312
 21
1237.3279057056282
  0
LINE
  8
_0-0_
  6
CONTINUOUS
 62
    2
 10
1013.9254991561123
 20
1232.1920287306559
 11
1019.061376131085
 21
1237.3279057056286
  0
LINE
  8
_0-0_
  6
CONTINUOUS
 62
    2
 10
1013.9254991561123
 20
1235.0204558554026
 11
1016.2329490063383
 21
1237.3279057056286
  0
LINE
  8
_0-0_
  6
CONTINUOUS
 62
    2
 10
1021.2867728755006
 20
1177.3279057056284
 11
1023.6675202459111
 21
1179.7086530760389
  0
LINE
  8
_0-0_
  6
CONTINUOUS
 62
    2
 10
1018.4583457507539
 20
1177.3279057056284
 11
1023.5720543088725
 21
1182.4416142637469
  0
LINE
  8
_0-0_
  6
CONTINUOUS
 62
    2
 10
1015.6299186260088
 20
1177.3279057056282
 11
1023.7038788331453
 21
1185.4018659127646
  0
LINE
  8
_0-0_
  6
CONTINUOUS
 62
    2
 10
1013.9254991561126
 20
1178.4519133604786
 11
1022.8014915012624
 21
1187.3279057056284
  0
LINE
  8
_0-0_
  6
CONTINUOUS
 62
    2
 10
1013.9254991561123
 20
1181.280340485225
 11
1019.9730643765157
 21
1187.3279057056284
  0
LINE
  8
_0-0_
  6
CONTINUOUS
 62
    2
 10
1013.9254991561126
 20
1184.1087676099719
 11
1017.1446372517688
 21
1187.3279057056282
  0
LINE
  8
_0-0_
  6
CONTINUOUS
 62
    2
 10
1013.9254991561128
 20
1186.937194734717
 11
1014.316210127024
 21
1187.3279057056282
  0
LINE
  8
_0-0_
  6
CONTINUOUS
 62
    2
 10
1023.2035117548154
 20
1227.3279057056284
 11
1023.8399114355331
 21
1227.964305386346
  0
LINE
  8
_0-0_
  6
CONTINUOUS
 62
    2
 10
1020.3750846300699
 20
1227.3279057056284
 11
1023.6149408841167
 21
1230.5677619596752
  0
LINE
  8
_0-0_
  6
CONTINUOUS
 62
    2
 10
1017.546657505323
 20
1227.3279057056284
 11
1023.586893415474
 21
1233.3681416157792
  0
LINE
  8
_0-0_
  6
CONTINUOUS
 62
    2
 10
1014.7182303805758
 20
1227.3279057056279
 11
1023.8067432478698
 21
1236.4164185729219
  0
LINE
  8
_0-0_
  6
CONTINUOUS
 62
    2
 10
1013.9254991561128
 20
1229.3636016059097
 11
1021.8898032558312
 21
1237.3279057056282
  0
LINE
  8
_0-0_
  6
CONTINUOUS
 62
    2
 10
1013.9254991561123
 20
1232.1920287306559
 11
1019.061376131085
 21
1237.3279057056286
  0
LINE
  8
_0-0_
  6
CONTINUOUS
 62
    2
 10
1013.9254991561123
 20
1235.0204558554026
 11
1016.2329490063383
 21
1237.3279057056286
  0
LINE
  8
_0-0_
  6
CONTINUOUS
 62
    7
 10
873.92549915611255
 20
1272.9922480620148
 11
1013.5056235992275
 21
1268.118002710708
  0
LINE
  8
_0-0_
  6
CONTINUOUS
 62
    7
 10
873.92549915611255
 20
1272.9922480620148
 11
873.92549915611255
 21
772.99224806201573
  0
LINE
  8
_0-0_
  6
CONTINUOUS
 62
    4
 10
879.09999663962515
 20
1278.8152078939506
 11
1016.1377012032914
 21
1274.0297458012051
  0
LINE
  8
_0-0_
  6
CONTINUOUS
 62
    4
 10
873.92549915611255
 20
1273.8182537588552
 11
873.92549915611255
 21
1272.9922480620148
  0
ARC
  8
_0-0_
  6
CONTINUOUS
 62
    4
 10
878.92549915611255
 20
1273.8182537588552
 40
5
 50
88.000000000000227
 51
180.00000000000006
  0
ARC
  8
_0-0_
  6
CONTINUOUS
 62
    7
 10
1086.8457737715144
 20
352.74032955044368
 40
18
 50
0
 51
180
  0
LINE
  8
_0-0_
  6
CONTINUOUS
 62
    4
 10
984.58033041012811
 20
472.8036417224821
 11
1009.3983667252063
 21
447.10381278946352
  0
LINE
  8
_0-0_
  6
CONTINUOUS
 62
    7
 10
979.84259072281327
 20
462.16250415958712
 11
998.59836672520635
 21
442.74032955044368
  0
LINE
  8
_0-0_
  6
CONTINUOUS
 62
    7
 10
728.59836672520794
 20
397.86860867492851
 11
799.20042561798198
 21
468.47066756770255
  0
LINE
  8
_0-0_
  6
CONTINUOUS
 62
    7
 10
728.59836672520612
 20
410.59653073628306
 11
786.90197491860533
 21
468.90013892968273
  0
LINE
  8
_0-0_
  6
CONTINUOUS
 62
    7
 10
728.59836672520612
 20
423.32445279764033
 11
774.60352421922687
 21
469.32961029166108
  0
LINE
  8
_0-0_
  6
DASHED1
 62
    7
 10
805.66477644951226
 20
388.74032955044368
 11
805.66477644951226
 21
316.74032955044368
  0
LINE
  8
_0-0_
  6
DASHED1
 62
    7
 10
805.66477644951226
 20
388.74032955044368
 11
805.66477644951226
 21
316.74032955044368
  0
ARC
  8
_0-0_
  6
CONTINUOUS
 62
    7
 10
1086.8457737715144
 20
352.74032955044368
 40
36
 50
1.8794552231624875
 51
90
  0
LINE
  8
_0-0_
  6
CONTINUOUS
 62
    7
 10
1104.8457737715144
 20
352.74032955044368
 11
1104.8457737715144
 21
244.74032955044345
  0
ARC
  8
_0-0_
  6
DASHED1
 62
    7
 10
1086.8457737715144
 20
352.74032955044368
 40
18
 50
180
 51
1.879455223162438
  0
ARC
  8
_0-0_
  6
CONTINUOUS
 62
    7
 10
1086.8457737715144
 20
244.74032955044345
 40
18
 50
180
 51
0
  0
CIRCLE
  8
_0-0_
  6
DASHED1
 62
    7
 10
842.25511883876823
 20
353.33067193969964
 40
17.409657610744127
  0
ARC
  8
_0-0_
  6
CONTINUOUS
 62
    7
 10
1086.8457737715144
 20
352.74032955044368
 40
36
 50
299.99999999999989
 51
1.8794552231624542
  0
ARC
  8
_0-0_
  6
DASHED1
 62
    7
 10
1086.8457737715144
 20
353.33067193969964
 40
36.512444626051284
 50
270
 51
299.53680866691025
  0
LINE
  8
_0-0_
  6
DASHED1
 62
    7
 10
1068.8457737715144
 20
316.74032955044368
 11
1086.8457737715144
 21
316.74032955044368
  0
LINE
  8
_0-0_
  6
DASHED1
 62
    7
 10
998.59836672520635
 20
388.74032955044368
 11
805.66477644951226
 21
388.74032955044368
  0
LINE
  8
_0-0_
  6
DASHED1
 62
    7
 10
998.59836672520635
 20
316.74032955044368
 11
805.66477644951226
 21
316.74032955044368
  0
LINE
  8
_0-0_
  6
CONTINUOUS
 62
    7
 10
1086.8457737715144
 20
388.74032955044368
 11
998.59836672520635
 21
388.74032955044368
  0
LINE
  8
_0-0_
  6
CONTINUOUS
 62
    7
 10
1068.8457737715144
 20
316.74032955044368
 11
998.59836672520635
 21
316.74032955044368
  0
LINE
  8
_0-0_
  6
CONTINUOUS
 62
    7
 10
998.59836672520635
 20
316.74032955044368
 11
980.59836672520635
 21
316.74032955044368
  0
LINE
  8
_0-0_
  6
CONTINUOUS
 62
    7
 10
980.59836672520635
 20
316.74032955044368
 11
980.59836672520635
 21
298.74032955044368
  0
LINE
  8
_0-0_
  6
CONTINUOUS
 62
    7
 10
980.59836672520635
 20
298.74032955044368
 11
998.59836672520635
 21
298.74032955044368
  0
LINE
  8
_0-0_
  6
CONTINUOUS
 62
    7
 10
998.59836672520635
 20
388.74032955044368
 11
980.59836672520635
 21
388.74032955044368
  0
LINE
  8
_0-0_
  6
CONTINUOUS
 62
    7
 10
980.59836672520635
 20
388.74032955044368
 11
980.59836672520635
 21
406.74032955044368
  0
LINE
  8
_0-0_
  6
CONTINUOUS
 62
    7
 10
980.59836672520635
 20
406.74032955044368
 11
998.59836672520635
 21
406.74032955044368
  0
LINE
  8
_0-0_
  6
CONTINUOUS
 62
    7
 10
998.59836672520635
 20
406.74032955044368
 11
998.59836672520635
 21
442.74032955044368
  0
LINE
  8
_0-0_
  6
CONTINUOUS
 62
    2
 10
998.59836672520612
 20
316.74032955044368
 11
998.59836672520612
 21
316.74032955044368
  0
LINE
  8
_0-0_
  6
CONTINUOUS
 62
    2
 10
998.59836672520612
 20
316.74032955044368
 11
998.05377361868091
 21
311.18978493305787
  0
LINE
  8
_0-0_
  6
CONTINUOUS
 62
    2
 10
998.05377361868091
 20
311.18978493305787
 11
997.99937508407186
 21
305.53443035937994
  0
LINE
  8
_0-0_
  6
CONTINUOUS
 62
    2
 10
997.99937508407186
 20
305.53443035937994
 11
998.43682399332602
 21
299.94610091638367
  0
LINE
  8
_0-0_
  6
CONTINUOUS
 62
    2
 10
998.43682399332602
 20
299.94610091638367
 11
998.59836672520612
 21
298.74032955044368
  0
LINE
  8
_0-0_
  6
CONTINUOUS
 62
    2
 10
998.59836672520612
 20
406.74032955044368
 11
998.59836672520612
 21
406.74032955044368
  0
LINE
  8
_0-0_
  6
CONTINUOUS
 62
    2
 10
998.59836672520612
 20
406.74032955044368
 11
998.05377361868091
 21
401.18978493305787
  0
LINE
  8
_0-0_
  6
CONTINUOUS
 62
    2
 10
998.05377361868091
 20
401.18978493305787
 11
997.99937508407186
 21
395.53443035937994
  0
LINE
  8
_0-0_
  6
CONTINUOUS
 62
    2
 10
997.99937508407186
 20
395.53443035937994
 11
998.43682399332602
 21
389.94610091638367
  0
LINE
  8
_0-0_
  6
CONTINUOUS
 62
    2
 10
998.43682399332602
 20
389.94610091638367
 11
998.59836672520612
 21
388.74032955044368
  0
LINE
  8
_0-0_
  6
CONTINUOUS
 62
    2
 10
997.29878940287142
 20
388.74032955044368
 11
998.44430882816312
 21
389.88584897573583
  0
LINE
  8
_0-0_
  6
CONTINUOUS
 62
    2
 10
992.20762057832951
 20
388.74032955044368
 11
998.0393618356137
 21
394.57207080772787
  0
LINE
  8
_0-0_
  6
CONTINUOUS
 62
    2
 10
987.1164517537851
 20
388.74032955044368
 11
997.98887639205702
 21
399.61275418871537
  0
LINE
  8
_0-0_
  6
CONTINUOUS
 62
    2
 10
982.02528292924023
 20
388.74032955044322
 11
998.3846060903694
 21
405.09965271157216
  0
LINE
  8
_0-0_
  6
CONTINUOUS
 62
    2
 10
980.59836672520657
 20
392.40458217095056
 11
994.93411410469992
 21
406.74032955044368
  0
LINE
  8
_0-0_
  6
CONTINUOUS
 62
    2
 10
980.59836672520589
 20
397.49575099549384
 11
989.84294528015664
 21
406.74032955044459
  0
LINE
  8
_0-0_
  6
CONTINUOUS
 62
    2
 10
980.59836672520589
 20
402.58691982003756
 11
984.75177645561268
 21
406.74032955044459
  0
LINE
  8
_0-0_
  6
CONTINUOUS
 62
    2
 10
993.84865942010458
 20
298.74032955044368
 11
998.1340046868437
 21
303.02567481718279
  0
LINE
  8
_0-0_
  6
CONTINUOUS
 62
    2
 10
988.75749059556063
 20
298.74032955044368
 11
997.96216600017408
 21
307.94500495505736
  0
LINE
  8
_0-0_
  6
CONTINUOUS
 62
    2
 10
983.66632177101962
 20
298.74032955044368
 11
998.19945014386519
 21
313.27345792328924
  0
LINE
  8
_0-0_
  6
CONTINUOUS
 62
    2
 10
980.59836672520635
 20
300.76354332917435
 11
996.5751529464759
 21
316.74032955044368
  0
LINE
  8
_0-0_
  6
CONTINUOUS
 62
    2
 10
980.59836672520589
 20
305.85471215371763
 11
991.48398412193194
 21
316.74032955044368
  0
LINE
  8
_0-0_
  6
CONTINUOUS
 62
    2
 10
980.59836672520635
 20
310.94588097826227
 11
986.39281529738753
 21
316.74032955044368
  0
LINE
  8
_0-0_
  6
CONTINUOUS
 62
    2
 10
980.59836672520657
 20
316.03704980280327
 11
981.30164647284676
 21
316.74032955044368
  0
LINE
  8
_0-0_
  6
CONTINUOUS
 62
    2
 10
997.29878940287142
 20
388.74032955044368
 11
998.44430882816312
 21
389.88584897573583
  0
LINE
  8
_0-0_
  6
CONTINUOUS
 62
    2
 10
992.20762057832951
 20
388.74032955044368
 11
998.0393618356137
 21
394.57207080772787
  0
LINE
  8
_0-0_
  6
CONTINUOUS
 62
    2
 10
987.1164517537851
 20
388.74032955044368
 11
997.98887639205702
 21
399.61275418871537
  0
LINE
  8
_0-0_
  6
CONTINUOUS
 62
    2
 10
982.02528292924023
 20
388.74032955044322
 11
998.3846060903694
 21
405.09965271157216
  0
LINE
  8
_0-0_
  6
CONTINUOUS
 62
    2
 10
980.59836672520657
 20
392.40458217095056
 11
994.93411410469992
 21
406.74032955044368
  0
LINE
  8
_0-0_
  6
CONTINUOUS
 62
    2
 10
980.59836672520589
 20
397.49575099549384
 11
989.84294528015664
 21
406.74032955044459
  0
LINE
  8
_0-0_
  6
CONTINUOUS
 62
    2
 10
980.59836672520589
 20
402.58691982003756
 11
984.75177645561268
 21
406.74032955044459
  0
LINE
  8
_0-0_
  6
CONTINUOUS
 62
    4
 10
737.9124621955292
 20
481.41747348942408
 11
984.58033041012811
 21
472.8036417224821
  0
LINE
  8
_0-0_
  6
CONTINUOUS
 62
    4
 10
728.59836672520612
 20
472.42295604625224
 11
728.59836672520612
 21
470.93614579193945
  0
ARC
  8
_0-0_
  6
CONTINUOUS
 62
    4
 10
737.59836672520612
 20
472.42295604625224
 40
9
 50
88.000000000000227
 51
180.00000000000006
  0
LINE
  8
_0-0_
  6
CONTINUOUS
 62
    7
 10
728.59836672520612
 20
470.93614579193945
 11
728.59836672520612
 21
218.99648751841937
  0
LINE
  8
_0-0_
  6
CONTINUOUS
 62
    7
 10
931.56390740943732
 20
218.99648751841937
 11
998.59836672520635
 21
286.0309468341884
  0
LINE
  8
_0-0_
  6
CONTINUOUS
 62
    7
 10
944.29182947079346
 20
218.99648751841937
 11
998.59836672520794
 21
273.30302477283385
  0
LINE
  8
_0-0_
  6
CONTINUOUS
 62
    7
 10
957.01975153215051
 20
218.99648751841937
 11
998.59836672520635
 21
260.57510271147521
  0
LINE
  8
_0-0_
  6
CONTINUOUS
 62
    7
 10
992.96552524745596
 20
396.2378978884276
 11
1039.4554013824099
 21
442.7277740233817
  0
POINT
  8
_0-0_
 62
    7
 10
992.96552524745596
 20
396.2378978884276
  0
TEXT
  8
_0-0_
 62
    7
 10
1040.7070001967245
 20
433.16958129268187
 40
21.617968000000001
 41
1
 50
0
  1
ｼｰﾘﾝｸﾞ
  0
LINE
  8
_0-0_
  6
CONTINUOUS
 62
    7
 10
990.87242048123392
 20
309.16686937527265
 11
1039.4554013824099
 21
442.7277740233817
  0
POINT
  8
_0-0_
 62
    7
 10
990.87242048123392
 20
309.16686937527265
  0
LINE
  8
_0-0_
  6
CONTINUOUS
 62
    7
 10
979.84259072281327
 20
462.16250415958712
 11
728.59836672520612
 21
470.93614579193809
  0
POINT
  8
_0-0_
 62
    7
 10
989.22047872401004
 20
452.45141685501511
  0
LINE
  8
_0-0_
  6
CONTINUOUS
 62
    7
 10
1022.0761096606209
 20
483.08978836797718
 11
989.22047872401004
 21
452.45141685501511
  0
TEXT
  8
_0-0_
 62
    7
 10
1024.1823131653755
 20
473.41653526275422
 40
21.617968000000001
 41
1
 50
0
  1
面取り
  0
ARC
  8
_0-0_
  6
CONTINUOUS
 62
    4
 10
1037.9254991561124
 20
1187.3279057056284
 40
6
 50
270
 51
0
  0
LINE
  8
_0-0_
  6
DASHED2
 62
    5
 10
982.03598872619978
 20
467.08895673500126
 11
737.71004511465401
 21
475.62100669271126
  0
LINE
  8
_0-0_
  6
DASHED2
 62
    5
 10
982.03598872619978
 20
467.08895673500126
 11
1003.5983667252063
 21
444.76046067961943
  0
LINE
  8
_0-0_
  6
DASHED2
 62
    5
 10
1003.5983667252063
 20
218.99648751841937
 11
1003.5983667252063
 21
311.74032955044368
  0
LINE
  8
_0-0_
  6
CONTINUOUS
 62
    7
 10
1068.8457737715144
 20
352.74032955044368
 11
1068.8457737715144
 21
311.59533436009428
  0
LINE
  8
_0-0_
  6
CONTINUOUS
 62
    7
 10
1068.8457737715144
 20
311.59533436009428
 11
1068.8457737715144
 21
244.74032955044345
  0
LINE
  8
_0-0_
  6
DASHED2
 62
    5
 10
1003.5983667252063
 20
393.74032955044368
 11
1003.5983667252063
 21
444.76046067961943
  0
ARC
  8
_0-0_
  6
CONTINUOUS
 62
    4
 10
1023.7983667252063
 20
316.74032955044368
 40
10.800000000000001
 50
270
 51
0
  0
LINE
  8
_0-0_
  6
DASHED2
 62
    5
 10
1023.7983667252063
 20
393.74032955044368
 11
1003.5983667252063
 21
393.74032955044368
  0
LINE
  8
_0-0_
  6
DASHED2
 62
    5
 10
1023.7983667252063
 20
311.74032955044368
 11
1003.5983667252063
 21
311.74032955044368
  0
LINE
  8
_0-0_
  6
CONTINUOUS
 62
    4
 10
1029.9254991561124
 20
1233.3279057056284
 11
1029.9254991561124
 21
1259.7520630606391
  0
LINE
  8
_0-0_
  6
CONTINUOUS
 62
    4
 10
1029.9254991561124
 20
1233.3279057056284
 11
1037.9254991561124
 21
1233.3279057056284
  0
LINE
  8
_0-0_
  6
CONTINUOUS
 62
    4
 10
1037.9254991561124
 20
1181.3279057056284
 11
1029.9254991561124
 21
1181.3279057056284
  0
LINE
  8
_0-0_
  6
CONTINUOUS
 62
    4
 10
1029.9254991561124
 20
1181.3279057056284
 11
1029.9254991561124
 21
1067.9922480620157
  0
LINE
  8
_0-0_
  6
CONTINUOUS
 62
    4
 10
1009.3983667252063
 20
399.54032955044369
 11
1009.3983667252063
 21
447.10381278946352
  0
LINE
  8
_0-0_
  6
CONTINUOUS
 62
    4
 10
1009.3983667252063
 20
399.54032955044369
 11
1023.7983667252063
 21
399.54032955044369
  0
LINE
  8
_0-0_
  6
CONTINUOUS
 62
    4
 10
1009.3983667252063
 20
305.94032955044372
 11
1023.7983667252063
 21
305.94032955044372
  0
LINE
  8
_0-0_
  6
CONTINUOUS
 62
    4
 10
1009.3983667252063
 20
305.94032955044372
 11
1009.3983667252063
 21
218.99648751841937
  0
TEXT
  8
_0-0_
 62
    7
 10
696.13606690525194
 20
1577.3565543671134
 40
20
 41
1
 50
0
  1
図面番号：tsuki-PU-para-03
  0
LINE
  8
_0-0_
  6
CONTINUOUS
 62
    7
 10
1189.4943223128098
 20
1633.3565543671134
 11
1189.4943223128098
 21
1473.3565543671134
  0
TEXT
  8
_0-0_
 62
    7
 10
696.13606690525205
 20
1497.3565543671134
 40
20
 41
1
 50
0
  1
施工部位：パラペット(丸環)
  0
TEXT
  8
_0-0_
 62
    7
 10
1213.4943223128098
 20
1497.3565543671134
 40
20
 41
1
 50
0
  1
下地：コンクリートスラブ
  0
TEXT
  8
_0-0_
 62
    7
 10
1213.4943223128098
 20
1577.3565543671134
 40
20
 41
1
 50
0
  1
構造：ＲＣ造
  0
ENDSEC
  0
EOF
