  0
SECTION
  2
HEADER
  9
$ACADVER
  1
AC1009
  9
$INSBASE
 10
0
 20
0
 30
0
  9
$EXTMIN
 10
0
 20
0
  9
$EXTMAX
 10
2378
 20
1682
  9
$LIMMIN
 10
0
 20
0
  9
$LIMMAX
 10
2378
 20
1682
  9
$LTSCALE
 40
1
  0
ENDSEC
  0
SECTION
  2
TABLES
  0
TABLE
  2
LTYPE
 70
     9
  0
LTYPE
  2
CONTINUOUS
 70
    64
  3
実線
 72
    65
 73
     0
 40
0.0
  0
LTYPE
  2
DASHED1
 70
    64
  3
--  --  --  --  --  --  --  --  
 72
    65
 73
     2
 40
2.5
 49
1.25
 49
-1.25
  0
LTYPE
  2
DASHED2
 70
    64
  3
----    ----    ----    ----    
 72
    65
 73
     2
 40
5.0
 49
2.5
 49
-2.5
  0
LTYPE
  2
DASHED3
 70
    64
  3
------  ------  ------  ------  
 72
    65
 73
     2
 40
5.0
 49
3.75
 49
-1.25
  0
LTYPE
  2
CENTER1
 70
    64
  3
----- - ----- - ----- - ----- - 
 72
    65
 73
     4
 40
10.0
 49
6.25
 49
-1.25
 49
1.25
 49
-1.25
  0
LTYPE
  2
CENTER2
 70
    64
  3
----------  --  ----------  --  
 72
    65
 73
     4
 40
20.0
 49
12.5
 49
-2.5
 49
2.5
 49
-2.5
  0
LTYPE
  2
PHANTOM1
 70
    64
  3
--- - - --- - - --- - - --- - - 
 72
    65
 73
     6
 40
10.0
 49
3.25
 49
-1.25
 49
1.25
 49
-1.25
 49
1.25
 49
-1.25
  0
LTYPE
  2
PHANTOM2
 70
    64
  3
--------  -  -  --------  -  -  
 72
    65
 73
     6
 40
20.0
 49
10.0
 49
-2.5
 49
1.25
 49
-2.5
 49
1.25
 49
-2.5
  0
LTYPE
  2
DOT
 70
    64
  3
-   -   -   -   -   -   -   -   
 72
    65
 73
     2
 40
2.5
 49
0.625
 49
-1.875
  0
LTYPE
  2
DUMMY
 70
    64
  3
ダミー
 72
    65
 73
     0
 40
0.0
  0
LTYPE
  2
RAND1
 70
    64
  3
ランダム線1
 72
    65
 73
     4
 40
10.0
 49
1.0
 49
-2.0
 49
3.0
 49
-4.0
  0
LTYPE
  2
RAND2
 70
    64
  3
ランダム線2
 72
    65
 73
     4
 40
14.0
 49
2.0
 49
-3.0
 49
4.0
 49
-5.0
  0
LTYPE
  2
RAND3
 70
    64
  3
ランダム線3
 72
    65
 73
     4
 40
18.0
 49
3.0
 49
-4.0
 49
5.0
 49
-6.0
  0
LTYPE
  2
RAND4
 70
    64
  3
ランダム線4
 72
    65
 73
     4
 40
22.0
 49
4.0
 49
-5.0
 49
6.0
 49
-7.0
  0
LTYPE
  2
RAND5
 70
    64
  3
ランダム線5
 72
    65
 73
     4
 40
26.0
 49
5.0
 49
-6.0
 49
7.0
 49
-8.0
  0
LTYPE
  2
LONG1
 70
    64
  3
----------  --  ----------  --  
 72
    65
 73
     4
 40
40.0
 49
32.5
 49
-2.5
 49
2.5
 49
-2.5
  0
LTYPE
  2
LONG2
 70
    64
  3
--------  -  -  --------  -  -  
 72
    65
 73
     6
 40
40.0
 49
30.0
 49
-2.5
 49
1.25
 49
-2.5
 49
1.25
 49
-2.5
  0
LTYPE
  2
LONG3
 70
    64
  3
+++++++++++++++..+++++++++++++++
 72
    65
 73
     2
 40
40.0
 49
37.5
 49
-2.5
  0
LTYPE
  2
LONG4
 70
    64
  3
+++++++++++++++..+++++++++++++++
 72
    65
 73
     2
 40
80.0
 49
75.0
 49
-5.0
  0
LTYPE
  2
LONG5
 70
    64
  3
----------  --  ----------  --  
 72
    65
 73
     4
 40
60.0
 49
37.5
 49
-7.5
 49
7.5
 49
-7.5
  0
LTYPE
  2
dashed
 70
   64
  3
-------   -------------   ------
 72
   65
 73
    2
 40
7.5
 49
6
 49
-1.5
  0
LTYPE
  2
dashed_spaced
 70
   64
  3
----        --------        ----
 72
   65
 73
    2
 40
12
 49
6
 49
-6
  0
LTYPE
  2
long_dashed_dotted
 70
   64
  3
------------- --- --------------
 72
   65
 73
    4
 40
15.25
 49
12
 49
-1.5
 49
0.25
 49
-1.5
  0
LTYPE
  2
long_dashed_double-dotted
 70
   64
  3
----------- --- --- ------------
 72
   65
 73
    6
 40
17
 49
12
 49
-1.5
 49
0.25
 49
-1.5
 49
0.25
 49
-1.5
  0
LTYPE
  2
long_dashed_triplicate-dotted
 70
   64
  3
--------- --- --- --- ----------
 72
   65
 73
    8
 40
18.75
 49
12
 49
-1.5
 49
0.25
 49
-1.5
 49
0.25
 49
-1.5
 49
0.25
 49
-1.5
  0
LTYPE
  2
dotted
 70
   64
  3
   -       -       -       -    
 72
   65
 73
    2
 40
1.75
 49
0.25
 49
-1.5
  0
LTYPE
  2
chain
 70
   64
  3
-------------- -- --------------
 72
   65
 73
    4
 40
18.5
 49
12
 49
-1.5
 49
3.5
 49
-1.5
  0
LTYPE
  2
chain_double_dash
 70
   64
  3
------------ -- -- -------------
 72
   65
 73
    6
 40
23.5
 49
12
 49
-1.5
 49
3.5
 49
-1.5
 49
3.5
 49
-1.5
  0
LTYPE
  2
dashed_dotted
 70
   64
  3
-----------     -     ----------
 72
   65
 73
    4
 40
9.25
 49
6
 49
-1.5
 49
0.25
 49
-1.5
  0
LTYPE
  2
double-dashed_dotted
 70
   64
  3
------   -----------   -   -----
 72
   65
 73
    6
 40
16.75
 49
6
 49
-1.5
 49
6
 49
-1.5
 49
0.25
 49
-1.5
  0
LTYPE
  2
dashed_double-dotted
 70
   64
  3
---------    -    -    ---------
 72
   65
 73
    6
 40
11
 49
6
 49
-1.5
 49
0.25
 49
-1.5
 49
0.25
 49
-1.5
  0
LTYPE
  2
double-dashed_double-dotted
 70
   64
  3
-----   ---------   -   -   ----
 72
   65
 73
    8
 40
18.5
 49
6
 49
-1.5
 49
6
 49
-1.5
 49
0.25
 49
-1.5
 49
0.25
 49
-1.5
  0
LTYPE
  2
dashed_triplicate-dotted
 70
   64
  3
-------    -    -    -    ------
 72
   65
 73
    8
 40
12.75
 49
6
 49
-1.5
 49
0.25
 49
-1.5
 49
0.25
 49
-1.5
 49
0.25
 49
-1.5
  0
LTYPE
  2
double-dashed_triplicate-dotted
 70
   64
  3
-----  ---------  -  -  -  -----
 72
   65
 73
   10
 40
20.25
 49
6
 49
-1.5
 49
6
 49
-1.5
 49
0.25
 49
-1.5
 49
0.25
 49
-1.5
 49
0.25
 49
-1.5
  0
LTYPE
  2
undefined
 70
   64
  3
--------------------------------
 72
   65
 73
    0
 40
0
  0
ENDTAB
  0
TABLE
  2
STYLE
  5
3
100
AcDbSymbolTable
 70
     1
  0
STYLE
  5
10
100
AcDbSymbolTableRecord
100
AcDbTextStyleTableRecord
  2
STANDARD
 70
     0
 40
0.0
 41
1.0
 50
0.0
 71
     0
 42
0.2
  3
txt
  4
bigfont.shx
  0
STYLE
  5
26
100
AcDbSymbolTableRecord
100
AcDbTextStyleTableRecord
  2
TATEGAKI
 70
    68
 40
0.0
 41
1.0
 50
0.0
 71
     0
 42
1.0
  3
txt
  4
bigfont.shx
  0
ENDTAB
  0
TABLE
  2
LAYER
 70
    2
  0
LAYER
  2
_0-0_
 70
   64
 62
    7
  6
CONTINUOUS
  0
LAYER
  2
ADD_LINE
 70
   64
 62
    7
  6
CONTINUOUS
  0
ENDTAB
  0
ENDSEC
  0
SECTION
  2
BLOCKS
  0
ENDSEC
  0
SECTION
  2
ENTITIES
  0
LINE
  8
_0-0_
  6
CONTINUOUS
 62
    7
 10
672.13606690525205
 20
1633.3565543671132
 11
672.13606690525205
 21
167.53106997205509
  0
LINE
  8
_0-0_
  6
CONTINUOUS
 62
    7
 10
1706.8525777203677
 20
1633.3565543671132
 11
1706.8525777203677
 21
167.53106997205509
  0
LINE
  8
_0-0_
  6
CONTINUOUS
 62
    7
 10
672.13606690525205
 20
167.53106997205509
 11
1706.8525777203677
 21
167.53106997205509
  0
LINE
  8
_0-0_
  6
CONTINUOUS
 62
    7
 10
1442.9199898603472
 20
846.06167174061329
 11
1502.677934850926
 21
949.56546862020195
  0
POINT
  8
_0-0_
 62
    7
 10
1442.9199898603472
 20
846.06167174061329
  0
LINE
  8
_0-0_
  6
CONTINUOUS
 62
    7
 10
1182.6169821451037
 20
1097.0928551965528
 11
1182.6169821451037
 21
1030.956950196553
  0
LINE
  8
_0-0_
  6
CONTINUOUS
 62
    7
 10
1216.6521651451037
 20
1030.956950196553
 11
1216.6521651451037
 21
1097.0928551965528
  0
LINE
  8
_0-0_
  6
CONTINUOUS
 62
    7
 10
1075.8261821451031
 20
1030.9530131965525
 11
1333.1076221451019
 21
1030.9530131965525
  0
LINE
  8
_0-0_
  6
CONTINUOUS
 62
    7
 10
994.81480514510235
 20
867.49118319655327
 11
1397.5548001451023
 21
867.49118319655327
  0
LINE
  8
_0-0_
  6
CONTINUOUS
 62
    7
 10
1288.2879542570943
 20
657.24666019655297
 11
1468.2879542570934
 21
837.24666019655206
  0
LINE
  8
_0-0_
  6
CONTINUOUS
 62
    7
 10
1281.2168864452285
 20
657.24666019655206
 11
1461.2168864452294
 21
837.24666019655297
  0
LINE
  8
_0-0_
  6
CONTINUOUS
 62
    7
 10
1274.1458186333655
 20
657.24666019655297
 11
1454.1458186333646
 21
837.24666019655297
  0
LINE
  8
_0-0_
  6
CONTINUOUS
 62
    7
 10
1062.0137842773991
 20
657.24666019655297
 11
1242.0137842774
 21
837.24666019655388
  0
LINE
  8
_0-0_
  6
CONTINUOUS
 62
    7
 10
1054.9427164655351
 20
657.24666019655388
 11
1234.9427164655342
 21
837.24666019655297
  0
LINE
  8
_0-0_
  6
CONTINUOUS
 62
    7
 10
1047.8716486536684
 20
657.24666019655206
 11
1227.8716486536694
 21
837.24666019655297
  0
LINE
  8
_0-0_
  6
CONTINUOUS
 62
    7
 10
1397.5548001451023
 20
867.49118319655327
 11
1397.5548001451023
 21
852.24666019655297
  0
LINE
  8
_0-0_
  6
CONTINUOUS
 62
    7
 10
994.81480514510235
 20
867.49118319655327
 11
994.81480514510235
 21
852.24666019655297
  0
LINE
  8
_0-0_
  6
CONTINUOUS
 62
    7
 10
1500.4199886130607
 20
657.24666019655297
 11
1547.5548001451023
 21
704.38147172859635
  0
LINE
  8
_0-0_
  6
CONTINUOUS
 62
    7
 10
1507.4910564249255
 20
657.24666019655388
 11
1547.5548001451023
 21
697.31040391673059
  0
LINE
  8
_0-0_
  6
CONTINUOUS
 62
    7
 10
1514.5621242367877
 20
657.24666019655115
 11
1547.5548001451023
 21
690.23933610486574
  0
LINE
  8
_0-0_
  6
CONTINUOUS
 62
    7
 10
844.81480514510235
 20
680.46398666768118
 11
1001.5974786739741
 21
837.24666019655297
  0
LINE
  8
_0-0_
  6
CONTINUOUS
 62
    7
 10
844.81480514510235
 20
673.39291885581633
 11
1008.668546485839
 21
837.24666019655297
  0
LINE
  8
_0-0_
  6
CONTINUOUS
 62
    7
 10
844.81480514510235
 20
666.32185104395148
 11
1015.7396142977047
 21
837.24666019655388
  0
LINE
  8
_0-0_
  6
CONTINUOUS
 62
    7
 10
1547.5548001451023
 20
837.24666019655297
 11
844.81480514510235
 21
837.24666019655297
  0
LINE
  8
_0-0_
  6
CONTINUOUS
 62
    3
 10
1547.5548001451023
 20
843.24666019655297
 11
844.81480514510235
 21
843.24666019655297
  0
LINE
  8
_0-0_
  6
CONTINUOUS
 62
    4
 10
1547.5548001451023
 20
852.24666019655297
 11
844.81480514510235
 21
852.24666019655297
  0
POINT
  8
_0-0_
 62
    7
 10
1342.8389173384455
 20
858.9351706957118
  0
LINE
  8
_0-0_
  6
CONTINUOUS
 62
    7
 10
1342.8389173384455
 20
858.9351706957118
 11
1402.5968623290244
 21
962.43896757530047
  0
LINE
  8
_0-0_
  6
CONTINUOUS
 62
    7
 10
1075.8261821451031
 20
1030.9530131965525
 11
1075.8261821451031
 21
867.49118319655327
  0
LINE
  8
_0-0_
  6
CONTINUOUS
 62
    7
 10
1333.1076221451019
 20
1030.9530131965525
 11
1333.1076221451019
 21
867.49118319655327
  0
LINE
  8
_0-0_
  6
CONTINUOUS
 62
    7
 10
1272.2583072773975
 20
867.49118319655145
 11
1333.1076221451037
 21
928.34049806425674
  0
LINE
  8
_0-0_
  6
CONTINUOUS
 62
    7
 10
1265.1872394655336
 20
867.49118319655236
 11
1333.1076221451019
 21
935.41156587612068
  0
LINE
  8
_0-0_
  6
CONTINUOUS
 62
    7
 10
1258.1161716536697
 20
867.49118319655327
 11
1333.107622145101
 21
942.48263368798462
  0
LINE
  8
_0-0_
  6
CONTINUOUS
 62
    7
 10
1075.8261821451022
 20
897.33322804395038
 11
1209.4459672977034
 21
1030.9530131965525
  0
LINE
  8
_0-0_
  6
CONTINUOUS
 62
    7
 10
1075.8261821451022
 20
904.40429585581614
 11
1202.3748994858386
 21
1030.9530131965525
  0
LINE
  8
_0-0_
  6
CONTINUOUS
 62
    7
 10
1075.8261821451049
 20
911.47536366768372
 11
1195.3038316739719
 21
1030.9530131965507
  0
CIRCLE
  8
_0-0_
  6
CONTINUOUS
 62
    7
 10
1199.6345736451037
 20
1115.9564618271604
 40
7.3062537407017327
  0
LINE
  8
_0-0_
  6
CONTINUOUS
 62
    7
 10
1171.6345736451037
 20
1097.0928551965528
 11
1227.6345736451037
 21
1097.0928551965528
  0
LINE
  8
_0-0_
  6
CONTINUOUS
 62
    7
 10
1171.6345736451037
 20
1097.0928551965528
 11
1171.6345736451037
 21
1216.0610451965533
  0
TEXT
  8
_0-0_
 62
    7
 10
1406.1101642153233
 20
952.47819357692129
 40
30
 41
1
 50
0
  1
ﾊﾟｯｷﾝ
  0
TEXT
  8
_0-0_
 62
    7
 10
1509.855778079818
 20
933.72596615436646
 40
30
 41
1
 50
0
  1
防水層
  0
LINE
  8
_0-0_
  6
CONTINUOUS
 62
    7
 10
1227.6345736451037
 20
1216.0611851965552
 11
1226.4565436451046
 21
1214.3120181965553
  0
LINE
  8
_0-0_
  6
CONTINUOUS
 62
    7
 10
1225.058958645104
 20
1212.7286111965552
 11
1223.4675016451035
 21
1211.340441196555
  0
LINE
  8
_0-0_
  6
CONTINUOUS
 62
    7
 10
1221.7092556451041
 20
1210.1711961965541
 11
1219.8136696451036
 21
1209.2404621965545
  0
LINE
  8
_0-0_
  6
CONTINUOUS
 62
    7
 10
1217.8131326451046
 20
1208.5641711965548
 11
1215.7418676451041
 21
1208.1538101965546
  0
LINE
  8
_0-0_
  6
CONTINUOUS
 62
    7
 10
1213.6345736451037
 20
1208.0162251965542
 11
1211.5272866451039
 21
1208.1538101965546
  0
LINE
  8
_0-0_
  6
CONTINUOUS
 62
    7
 10
1209.4560216451043
 20
1208.5641711965548
 11
1207.4554846451035
 21
1209.2404621965545
  0
LINE
  8
_0-0_
  6
CONTINUOUS
 62
    7
 10
1205.5598986451039
 20
1210.1711961965541
 11
1203.8016526451036
 21
1211.340441196555
  0
LINE
  8
_0-0_
  6
CONTINUOUS
 62
    7
 10
1202.210195645104
 20
1212.7286111965552
 11
1200.8126106451043
 21
1214.3120181965553
  0
LINE
  8
_0-0_
  6
CONTINUOUS
 62
    7
 10
1199.6345736451046
 20
1216.0611851965552
 11
1198.4565436451037
 21
1217.8102051965545
  0
LINE
  8
_0-0_
  6
CONTINUOUS
 62
    7
 10
1197.058958645104
 20
1219.3936121965546
 11
1195.4675016451044
 21
1220.7817821965548
  0
LINE
  8
_0-0_
  6
CONTINUOUS
 62
    7
 10
1193.7092556451041
 20
1221.9510271965557
 11
1191.8136696451045
 21
1222.8817611965535
  0
LINE
  8
_0-0_
  6
CONTINUOUS
 62
    7
 10
1189.8131326451037
 20
1223.5580521965551
 11
1187.7418676451041
 21
1223.9684131965535
  0
LINE
  8
_0-0_
  6
CONTINUOUS
 62
    7
 10
1185.6345736451037
 20
1224.1060051965544
 11
1183.5272866451039
 21
1223.9684131965535
  0
LINE
  8
_0-0_
  6
CONTINUOUS
 62
    7
 10
1181.4560216451043
 20
1223.5580521965551
 11
1179.4554846451035
 21
1222.8817611965535
  0
LINE
  8
_0-0_
  6
CONTINUOUS
 62
    7
 10
1177.5598986451039
 20
1221.9510271965557
 11
1175.8016526451036
 21
1220.7817821965548
  0
LINE
  8
_0-0_
  6
CONTINUOUS
 62
    7
 10
1174.210195645104
 20
1219.3936121965546
 11
1172.8126106451043
 21
1217.8102051965545
  0
LINE
  8
_0-0_
  6
CONTINUOUS
 62
    7
 10
1171.6345736451037
 20
1216.0610451965533
 11
1172.8126106451043
 21
1217.8102051965545
  0
LINE
  8
_0-0_
  6
CONTINUOUS
 62
    7
 10
1174.210195645104
 20
1219.3936121965546
 11
1175.8016526451036
 21
1220.7817821965548
  0
LINE
  8
_0-0_
  6
CONTINUOUS
 62
    7
 10
1177.5598986451039
 20
1221.9510271965557
 11
1179.4554846451035
 21
1222.8817611965535
  0
LINE
  8
_0-0_
  6
CONTINUOUS
 62
    7
 10
1181.4560216451043
 20
1223.5580521965551
 11
1183.5272866451039
 21
1223.9684131965535
  0
LINE
  8
_0-0_
  6
CONTINUOUS
 62
    7
 10
1185.6345736451037
 20
1224.1060051965544
 11
1187.7418676451041
 21
1223.9684131965535
  0
LINE
  8
_0-0_
  6
CONTINUOUS
 62
    7
 10
1189.8131326451037
 20
1223.5580521965551
 11
1191.8136696451045
 21
1222.8817611965535
  0
LINE
  8
_0-0_
  6
CONTINUOUS
 62
    7
 10
1193.7092556451041
 20
1221.9510271965557
 11
1195.4675016451044
 21
1220.7817821965548
  0
LINE
  8
_0-0_
  6
CONTINUOUS
 62
    7
 10
1197.058958645104
 20
1219.3936121965546
 11
1198.4565436451037
 21
1217.8102051965545
  0
LINE
  8
_0-0_
  6
CONTINUOUS
 62
    7
 10
1199.6345736451046
 20
1216.0611851965552
 11
1200.8126106451043
 21
1214.3120181965553
  0
LINE
  8
_0-0_
  6
CONTINUOUS
 62
    7
 10
1199.6345736451046
 20
1216.0611851965552
 11
1200.8126106451043
 21
1217.8102051965545
  0
LINE
  8
_0-0_
  6
CONTINUOUS
 62
    7
 10
1202.210195645104
 20
1219.3936121965546
 11
1203.8016526451036
 21
1220.7817821965548
  0
LINE
  8
_0-0_
  6
CONTINUOUS
 62
    7
 10
1205.5598986451039
 20
1221.9510271965557
 11
1207.4554846451035
 21
1222.8817611965535
  0
LINE
  8
_0-0_
  6
CONTINUOUS
 62
    7
 10
1202.210195645104
 20
1212.7286111965552
 11
1203.8016526451036
 21
1211.340441196555
  0
LINE
  8
_0-0_
  6
CONTINUOUS
 62
    7
 10
1205.5598986451039
 20
1210.1711961965541
 11
1207.4554846451035
 21
1209.2404621965545
  0
LINE
  8
_0-0_
  6
CONTINUOUS
 62
    7
 10
1209.4560216451043
 20
1208.5641711965548
 11
1211.5272866451039
 21
1208.1538101965546
  0
LINE
  8
_0-0_
  6
CONTINUOUS
 62
    7
 10
1213.6345736451037
 20
1208.0162251965542
 11
1215.7418676451041
 21
1208.1538101965546
  0
LINE
  8
_0-0_
  6
CONTINUOUS
 62
    7
 10
1217.8131326451046
 20
1208.5641711965548
 11
1219.8136696451036
 21
1209.2404621965545
  0
LINE
  8
_0-0_
  6
CONTINUOUS
 62
    7
 10
1221.7092556451041
 20
1210.1711961965541
 11
1223.4675016451035
 21
1211.340441196555
  0
LINE
  8
_0-0_
  6
CONTINUOUS
 62
    7
 10
1225.058958645104
 20
1212.7286111965552
 11
1226.4565436451046
 21
1214.3120181965553
  0
LINE
  8
_0-0_
  6
CONTINUOUS
 62
    7
 10
1226.4565436451046
 20
1217.8102051965545
 11
1225.058958645104
 21
1219.3936121965546
  0
LINE
  8
_0-0_
  6
CONTINUOUS
 62
    7
 10
1223.4675016451035
 20
1220.7817821965548
 11
1221.7092556451041
 21
1221.9510271965557
  0
LINE
  8
_0-0_
  6
CONTINUOUS
 62
    7
 10
1219.8136696451036
 20
1222.8817611965535
 11
1217.8131326451046
 21
1223.5580521965551
  0
LINE
  8
_0-0_
  6
CONTINUOUS
 62
    7
 10
1215.7418676451041
 20
1223.9684131965535
 11
1213.6345736451037
 21
1224.1060051965544
  0
LINE
  8
_0-0_
  6
CONTINUOUS
 62
    7
 10
1211.5272866451039
 20
1223.9684131965535
 11
1209.4560216451043
 21
1223.5580521965551
  0
LINE
  8
_0-0_
  6
CONTINUOUS
 62
    7
 10
1227.6345736451037
 20
1216.0610451965533
 11
1226.4565436451046
 21
1217.8102051965545
  0
LINE
  8
_0-0_
  6
CONTINUOUS
 62
    7
 10
1200.8126106451043
 20
1217.8102051965545
 11
1202.210195645104
 21
1219.3936121965546
  0
LINE
  8
_0-0_
  6
CONTINUOUS
 62
    7
 10
1203.8016526451036
 20
1220.7817821965548
 11
1205.5598986451039
 21
1221.9510271965557
  0
LINE
  8
_0-0_
  6
CONTINUOUS
 62
    7
 10
1207.4554846451035
 20
1222.8817611965535
 11
1209.4560216451043
 21
1223.5580521965551
  0
LINE
  8
_0-0_
  6
CONTINUOUS
 62
    7
 10
1211.5272866451039
 20
1223.9684131965535
 11
1213.6345736451037
 21
1224.1060051965544
  0
LINE
  8
_0-0_
  6
CONTINUOUS
 62
    7
 10
1215.7418676451041
 20
1223.9684131965535
 11
1217.8131326451046
 21
1223.5580521965551
  0
LINE
  8
_0-0_
  6
CONTINUOUS
 62
    7
 10
1219.8136696451036
 20
1222.8817611965535
 11
1221.7092556451041
 21
1221.9510271965557
  0
LINE
  8
_0-0_
  6
CONTINUOUS
 62
    7
 10
1223.4675016451035
 20
1220.7817821965548
 11
1225.058958645104
 21
1219.3936121965546
  0
LINE
  8
_0-0_
  6
CONTINUOUS
 62
    7
 10
1227.6345736451037
 20
1097.0928551965528
 11
1227.6345736451037
 21
1216.0611851965552
  0
LINE
  8
_0-0_
  6
CONTINUOUS
 62
    7
 10
672.13606690525205
 20
1633.3565543671132
 11
1706.8525777203677
 21
1633.3565543671132
  0
LINE
  8
_0-0_
  6
CONTINUOUS
 62
    7
 10
672.13606690525205
 20
1553.3565543671132
 11
1706.8525777203677
 21
1553.3565543671132
  0
LINE
  8
_0-0_
  6
CONTINUOUS
 62
    7
 10
672.13606690525205
 20
1473.3565543671132
 11
1706.8525777203677
 21
1473.3565543671132
  0
LINE
  8
_0-0_
  6
CONTINUOUS
 62
    7
 10
1189.4943223128093
 20
1633.3565543671132
 11
1189.4943223128093
 21
1473.3565543671132
  0
TEXT
  8
_0-0_
 62
    7
 10
1213.4943223128093
 20
1577.3565543671132
 40
20
 41
1
 50
0
  1
構造：ＲＣ造
  0
TEXT
  8
_0-0_
 62
    7
 10
1213.4943223128093
 20
1497.3565543671132
 40
20
 41
1
 50
0
  1
下地：コンクリートスラブ
  0
TEXT
  8
_0-0_
 62
    7
 10
696.13606690525194
 20
1577.3565543671134
 40
20
 41
1
 50
0
  1
図面番号：tsuki-PU-kiso-01
  0
TEXT
  8
_0-0_
 62
    7
 10
696.13606690525205
 20
1497.3565543671132
 40
20
 41
1
 50
0
  1
施工部位：基礎・架台(置き基礎)
  0
ENDSEC
  0
EOF
