  0
SECTION
  2
HEADER
  9
$ACADVER
  1
AC1009
  9
$INSBASE
 10
0
 20
0
 30
0
  9
$EXTMIN
 10
0
 20
0
  9
$EXTMAX
 10
2378
 20
1682
  9
$LIMMIN
 10
0
 20
0
  9
$LIMMAX
 10
2378
 20
1682
  9
$LTSCALE
 40
1
  0
ENDSEC
  0
SECTION
  2
TABLES
  0
TABLE
  2
LTYPE
 70
     9
  0
LTYPE
  2
CONTINUOUS
 70
    64
  3
実線
 72
    65
 73
     0
 40
0.0
  0
LTYPE
  2
DASHED1
 70
    64
  3
--  --  --  --  --  --  --  --  
 72
    65
 73
     2
 40
2.5
 49
1.25
 49
-1.25
  0
LTYPE
  2
DASHED2
 70
    64
  3
----    ----    ----    ----    
 72
    65
 73
     2
 40
5.0
 49
2.5
 49
-2.5
  0
LTYPE
  2
DASHED3
 70
    64
  3
------  ------  ------  ------  
 72
    65
 73
     2
 40
5.0
 49
3.75
 49
-1.25
  0
LTYPE
  2
CENTER1
 70
    64
  3
----- - ----- - ----- - ----- - 
 72
    65
 73
     4
 40
10.0
 49
6.25
 49
-1.25
 49
1.25
 49
-1.25
  0
LTYPE
  2
CENTER2
 70
    64
  3
----------  --  ----------  --  
 72
    65
 73
     4
 40
20.0
 49
12.5
 49
-2.5
 49
2.5
 49
-2.5
  0
LTYPE
  2
PHANTOM1
 70
    64
  3
--- - - --- - - --- - - --- - - 
 72
    65
 73
     6
 40
10.0
 49
3.25
 49
-1.25
 49
1.25
 49
-1.25
 49
1.25
 49
-1.25
  0
LTYPE
  2
PHANTOM2
 70
    64
  3
--------  -  -  --------  -  -  
 72
    65
 73
     6
 40
20.0
 49
10.0
 49
-2.5
 49
1.25
 49
-2.5
 49
1.25
 49
-2.5
  0
LTYPE
  2
DOT
 70
    64
  3
-   -   -   -   -   -   -   -   
 72
    65
 73
     2
 40
2.5
 49
0.625
 49
-1.875
  0
LTYPE
  2
DUMMY
 70
    64
  3
ダミー
 72
    65
 73
     0
 40
0.0
  0
LTYPE
  2
RAND1
 70
    64
  3
ランダム線1
 72
    65
 73
     4
 40
10.0
 49
1.0
 49
-2.0
 49
3.0
 49
-4.0
  0
LTYPE
  2
RAND2
 70
    64
  3
ランダム線2
 72
    65
 73
     4
 40
14.0
 49
2.0
 49
-3.0
 49
4.0
 49
-5.0
  0
LTYPE
  2
RAND3
 70
    64
  3
ランダム線3
 72
    65
 73
     4
 40
18.0
 49
3.0
 49
-4.0
 49
5.0
 49
-6.0
  0
LTYPE
  2
RAND4
 70
    64
  3
ランダム線4
 72
    65
 73
     4
 40
22.0
 49
4.0
 49
-5.0
 49
6.0
 49
-7.0
  0
LTYPE
  2
RAND5
 70
    64
  3
ランダム線5
 72
    65
 73
     4
 40
26.0
 49
5.0
 49
-6.0
 49
7.0
 49
-8.0
  0
LTYPE
  2
LONG1
 70
    64
  3
----------  --  ----------  --  
 72
    65
 73
     4
 40
40.0
 49
32.5
 49
-2.5
 49
2.5
 49
-2.5
  0
LTYPE
  2
LONG2
 70
    64
  3
--------  -  -  --------  -  -  
 72
    65
 73
     6
 40
40.0
 49
30.0
 49
-2.5
 49
1.25
 49
-2.5
 49
1.25
 49
-2.5
  0
LTYPE
  2
LONG3
 70
    64
  3
+++++++++++++++..+++++++++++++++
 72
    65
 73
     2
 40
40.0
 49
37.5
 49
-2.5
  0
LTYPE
  2
LONG4
 70
    64
  3
+++++++++++++++..+++++++++++++++
 72
    65
 73
     2
 40
80.0
 49
75.0
 49
-5.0
  0
LTYPE
  2
LONG5
 70
    64
  3
----------  --  ----------  --  
 72
    65
 73
     4
 40
60.0
 49
37.5
 49
-7.5
 49
7.5
 49
-7.5
  0
LTYPE
  2
dashed
 70
   64
  3
-------   -------------   ------
 72
   65
 73
    2
 40
7.5
 49
6
 49
-1.5
  0
LTYPE
  2
dashed_spaced
 70
   64
  3
----        --------        ----
 72
   65
 73
    2
 40
12
 49
6
 49
-6
  0
LTYPE
  2
long_dashed_dotted
 70
   64
  3
------------- --- --------------
 72
   65
 73
    4
 40
15.25
 49
12
 49
-1.5
 49
0.25
 49
-1.5
  0
LTYPE
  2
long_dashed_double-dotted
 70
   64
  3
----------- --- --- ------------
 72
   65
 73
    6
 40
17
 49
12
 49
-1.5
 49
0.25
 49
-1.5
 49
0.25
 49
-1.5
  0
LTYPE
  2
long_dashed_triplicate-dotted
 70
   64
  3
--------- --- --- --- ----------
 72
   65
 73
    8
 40
18.75
 49
12
 49
-1.5
 49
0.25
 49
-1.5
 49
0.25
 49
-1.5
 49
0.25
 49
-1.5
  0
LTYPE
  2
dotted
 70
   64
  3
   -       -       -       -    
 72
   65
 73
    2
 40
1.75
 49
0.25
 49
-1.5
  0
LTYPE
  2
chain
 70
   64
  3
-------------- -- --------------
 72
   65
 73
    4
 40
18.5
 49
12
 49
-1.5
 49
3.5
 49
-1.5
  0
LTYPE
  2
chain_double_dash
 70
   64
  3
------------ -- -- -------------
 72
   65
 73
    6
 40
23.5
 49
12
 49
-1.5
 49
3.5
 49
-1.5
 49
3.5
 49
-1.5
  0
LTYPE
  2
dashed_dotted
 70
   64
  3
-----------     -     ----------
 72
   65
 73
    4
 40
9.25
 49
6
 49
-1.5
 49
0.25
 49
-1.5
  0
LTYPE
  2
double-dashed_dotted
 70
   64
  3
------   -----------   -   -----
 72
   65
 73
    6
 40
16.75
 49
6
 49
-1.5
 49
6
 49
-1.5
 49
0.25
 49
-1.5
  0
LTYPE
  2
dashed_double-dotted
 70
   64
  3
---------    -    -    ---------
 72
   65
 73
    6
 40
11
 49
6
 49
-1.5
 49
0.25
 49
-1.5
 49
0.25
 49
-1.5
  0
LTYPE
  2
double-dashed_double-dotted
 70
   64
  3
-----   ---------   -   -   ----
 72
   65
 73
    8
 40
18.5
 49
6
 49
-1.5
 49
6
 49
-1.5
 49
0.25
 49
-1.5
 49
0.25
 49
-1.5
  0
LTYPE
  2
dashed_triplicate-dotted
 70
   64
  3
-------    -    -    -    ------
 72
   65
 73
    8
 40
12.75
 49
6
 49
-1.5
 49
0.25
 49
-1.5
 49
0.25
 49
-1.5
 49
0.25
 49
-1.5
  0
LTYPE
  2
double-dashed_triplicate-dotted
 70
   64
  3
-----  ---------  -  -  -  -----
 72
   65
 73
   10
 40
20.25
 49
6
 49
-1.5
 49
6
 49
-1.5
 49
0.25
 49
-1.5
 49
0.25
 49
-1.5
 49
0.25
 49
-1.5
  0
LTYPE
  2
undefined
 70
   64
  3
--------------------------------
 72
   65
 73
    0
 40
0
  0
ENDTAB
  0
TABLE
  2
STYLE
  5
3
100
AcDbSymbolTable
 70
     1
  0
STYLE
  5
10
100
AcDbSymbolTableRecord
100
AcDbTextStyleTableRecord
  2
STANDARD
 70
     0
 40
0.0
 41
1.0
 50
0.0
 71
     0
 42
0.2
  3
txt
  4
bigfont.shx
  0
STYLE
  5
26
100
AcDbSymbolTableRecord
100
AcDbTextStyleTableRecord
  2
TATEGAKI
 70
    68
 40
0.0
 41
1.0
 50
0.0
 71
     0
 42
1.0
  3
txt
  4
bigfont.shx
  0
ENDTAB
  0
TABLE
  2
LAYER
 70
    2
  0
LAYER
  2
_0-0_
 70
   64
 62
    7
  6
CONTINUOUS
  0
LAYER
  2
ADD_LINE
 70
   64
 62
    7
  6
CONTINUOUS
  0
ENDTAB
  0
ENDSEC
  0
SECTION
  2
BLOCKS
  0
ENDSEC
  0
SECTION
  2
ENTITIES
  0
LINE
  8
_0-0_
  6
CONTINUOUS
 62
    7
 10
1189.4943223128103
 20
1633.3565543671132
 11
1189.4943223128103
 21
1473.3565543671132
  0
LINE
  8
_0-0_
  6
CONTINUOUS
 62
    7
 10
672.13606690525205
 20
1473.3565543671132
 11
1706.8525777203677
 21
1473.3565543671132
  0
LINE
  8
_0-0_
  6
CONTINUOUS
 62
    7
 10
672.13606690525205
 20
1633.3565543671132
 11
1706.8525777203677
 21
1633.3565543671132
  0
LINE
  8
_0-0_
  6
CONTINUOUS
 62
    7
 10
1706.8525777203677
 20
1633.3565543671132
 11
1706.8525777203677
 21
167.53106997205509
  0
LINE
  8
_0-0_
  6
CONTINUOUS
 62
    7
 10
672.13606690525205
 20
1633.3565543671132
 11
672.13606690525205
 21
167.53106997205509
  0
LINE
  8
_0-0_
  6
CONTINUOUS
 62
    7
 10
672.13606690525205
 20
167.53106997205509
 11
1706.8525777203677
 21
167.53106997205509
  0
LINE
  8
_0-0_
  6
CONTINUOUS
 62
    7
 10
672.13606690525205
 20
1553.3565543671132
 11
1706.8525777203677
 21
1553.3565543671132
  0
TEXT
  8
_0-0_
 62
    7
 10
695.19456431683204
 20
1416.8391566663192
 40
30
 41
1
 50
0
  1
【モルタル層がある場合】
  0
LINE
  8
_0-0_
  6
CONTINUOUS
 62
    7
 10
1177.5505523972179
 20
652.15118653287527
 11
1177.5505523972179
 21
685.90118653287527
  0
LINE
  8
_0-0_
  6
CONTINUOUS
 62
    7
 10
862.5505523972198
 20
830.81676513660909
 11
1200.0505523972179
 21
1168.3167651366111
  0
LINE
  8
_0-0_
  6
CONTINUOUS
 62
    7
 10
862.55055239721798
 20
846.72666771330296
 11
1200.0505523972179
 21
1184.226667713303
  0
LINE
  8
_0-0_
  6
CONTINUOUS
 62
    7
 10
862.55055239721798
 20
862.63657028999887
 11
1200.0505523972179
 21
1200.1365702899989
  0
LINE
  8
_0-0_
  6
CONTINUOUS
 62
    7
 10
1194.932051094409
 20
685.90118653287527
 11
1200.0505523972179
 21
691.01968783568464
  0
LINE
  8
_0-0_
  6
CONTINUOUS
 62
    7
 10
1200.0505523972179
 20
685.90118653287527
 11
1200.0505523972179
 21
1262.8921363823893
  0
LINE
  8
_0-0_
  6
CONTINUOUS
 62
    7
 10
862.55055239721798
 20
353.51968783568464
 11
1177.5505523972179
 21
668.51968783568509
  0
LINE
  8
_0-0_
  6
CONTINUOUS
 62
    7
 10
1177.5505523972179
 20
652.15118653287527
 11
1222.5505523972179
 21
626.17042441934245
  0
LINE
  8
_0-0_
  6
CONTINUOUS
 62
    4
 10
1191.0505523972179
 20
659.94541516693562
 11
1236.0505523972179
 21
633.9646530534028
  0
LINE
  8
_0-0_
  6
CONTINUOUS
 62
    4
 10
1191.0505523972179
 20
659.94541516693562
 11
1191.0505523972179
 21
677.08858401571138
  0
LINE
  8
_0-0_
  6
CONTINUOUS
 62
    4
 10
1191.0505523972179
 20
677.08858401571138
 11
1191.0505523972179
 21
685.90118653287527
  0
LINE
  8
_0-0_
  6
CONTINUOUS
 62
    2
 10
1191.0505523972179
 20
683.07155641711438
 11
1193.8801825129804
 21
685.90118653287732
  0
LINE
  8
_0-0_
  6
CONTINUOUS
 62
    2
 10
1192.5275248351372
 20
659.092684732316
 11
1219.3360266356958
 21
685.90118653287573
  0
LINE
  8
_0-0_
  6
CONTINUOUS
 62
    2
 10
1191.0505523972179
 20
663.97967332507733
 11
1212.9720656050158
 21
685.90118653287482
  0
LINE
  8
_0-0_
  6
CONTINUOUS
 62
    2
 10
1191.0505523972179
 20
670.34363435575733
 11
1206.608104574334
 21
685.90118653287527
  0
LINE
  8
_0-0_
  6
CONTINUOUS
 62
    2
 10
1191.0505523972179
 20
676.70759538643392
 11
1200.1473479704373
 21
685.80439095965448
  0
LINE
  8
_0-0_
  6
CONTINUOUS
 62
    7
 10
1177.5505523972179
 20
685.90118653287527
 11
1222.5505523972179
 21
685.90118653287527
  0
POINT
  8
_0-0_
 62
    7
 10
1211.1989744069124
 20
1237.3766877118073
  0
POINT
  8
_0-0_
 62
    7
 10
1211.1989744069124
 20
1211.7302177941131
  0
POINT
  8
_0-0_
 62
    7
 10
1210.0839104974475
 20
1197.2343869710683
  0
POINT
  8
_0-0_
 62
    7
 10
1207.8537826785168
 20
1183.853620057489
  0
POINT
  8
_0-0_
 62
    7
 10
1211.1989744069124
 20
1158.2071501397945
  0
POINT
  8
_0-0_
 62
    7
 10
1207.8537826785168
 20
1138.1359997694253
  0
POINT
  8
_0-0_
 62
    7
 10
1208.9688465879826
 20
1102.4539546665462
  0
POINT
  8
_0-0_
 62
    7
 10
1205.623654859588
 20
1079.0376125677819
  0
POINT
  8
_0-0_
 62
    7
 10
1210.0839104974475
 20
1070.117101292062
  0
POINT
  8
_0-0_
 62
    7
 10
1216.7742939542377
 20
1054.5062065595528
  0
POINT
  8
_0-0_
 62
    7
 10
1204.5085909501231
 20
1035.5501200986482
  0
POINT
  8
_0-0_
 62
    7
 10
1212.3140383163764
 20
1021.0542892756037
  0
POINT
  8
_0-0_
 62
    7
 10
1213.4291022258412
 20
987.60237199165476
  0
POINT
  8
_0-0_
 62
    7
 10
1206.738718769051
 20
985.37224417272523
  0
POINT
  8
_0-0_
 62
    7
 10
1207.8537826785168
 20
1120.2949772179857
  0
POINT
  8
_0-0_
 62
    7
 10
1211.1989744069124
 20
1048.9308870122277
  0
POINT
  8
_0-0_
 62
    7
 10
1208.9688465879826
 20
1009.9036501809544
  0
POINT
  8
_0-0_
 62
    7
 10
1208.9688465879826
 20
966.41615771182046
  0
POINT
  8
_0-0_
 62
    7
 10
1207.8537826785168
 20
945.22994343198593
  0
POINT
  8
_0-0_
 62
    7
 10
1208.9688465879826
 20
929.61904869947625
  0
POINT
  8
_0-0_
 62
    7
 10
1205.623654859588
 20
909.54789832910706
  0
POINT
  8
_0-0_
 62
    7
 10
1210.0839104974475
 20
886.13155623034254
  0
POINT
  8
_0-0_
 62
    7
 10
1206.738718769051
 20
870.52066149783309
  0
POINT
  8
_0-0_
 62
    7
 10
1219.0044217731665
 20
860.48508631264872
  0
POINT
  8
_0-0_
 62
    7
 10
1207.8537826785168
 20
842.64406376120883
  0
POINT
  8
_0-0_
 62
    7
 10
1211.1989744069124
 20
821.45784948137475
  0
POINT
  8
_0-0_
 62
    7
 10
1212.3140383163764
 20
800.27163520154045
  0
POINT
  8
_0-0_
 62
    7
 10
1206.738718769051
 20
796.92644347314558
  0
POINT
  8
_0-0_
 62
    7
 10
1206.738718769051
 20
767.93478182705644
  0
POINT
  8
_0-0_
 62
    7
 10
1210.0839104974475
 20
738.94312018096707
  0
POINT
  8
_0-0_
 62
    7
 10
1206.738718769051
 20
730.02260890524735
  0
POINT
  8
_0-0_
 62
    7
 10
1206.738718769051
 20
706.60626680648306
  0
POINT
  8
_0-0_
 62
    7
 10
1210.0839104974475
 20
712.18158635380837
  0
POINT
  8
_0-0_
 62
    7
 10
1207.8537826785168
 20
751.20882318508166
  0
POINT
  8
_0-0_
 62
    7
 10
1208.9688465879826
 20
781.3155487406359
  0
POINT
  8
_0-0_
 62
    7
 10
1208.9688465879826
 20
811.4222742961897
  0
POINT
  8
_0-0_
 62
    7
 10
1204.5085909501231
 20
833.72355248548934
  0
POINT
  8
_0-0_
 62
    7
 10
1207.8537826785168
 20
856.02483067478875
  0
POINT
  8
_0-0_
 62
    7
 10
1215.6592300447719
 20
869.40559758836821
  0
POINT
  8
_0-0_
 62
    7
 10
1213.4291022258412
 20
921.81360133322164
  0
POINT
  8
_0-0_
 62
    7
 10
1208.9688465879826
 20
957.49564643610051
  0
POINT
  8
_0-0_
 62
    7
 10
1213.4291022258412
 20
976.45173289700506
  0
POINT
  8
_0-0_
 62
    7
 10
1205.623654859588
 20
996.52288326737448
  0
POINT
  8
_0-0_
 62
    7
 10
1211.1989744069124
 20
1173.8180448723042
  0
POINT
  8
_0-0_
 62
    7
 10
1208.9688465879826
 20
1226.2260486171576
  0
POINT
  8
_0-0_
 62
    7
 10
1206.5662862057325
 20
1057.8054162710623
  0
POINT
  8
_0-0_
 62
    7
 10
1207.183488123098
 20
694.59678318511465
  0
POINT
  8
_0-0_
 62
    7
 10
1205.3612729384949
 20
624.89705237403518
  0
POINT
  8
_0-0_
 62
    7
 10
1213.1056874730593
 20
623.07483718943172
  0
POINT
  8
_0-0_
 62
    7
 10
1209.005703307701
 20
604.85268534339752
  0
POINT
  8
_0-0_
 62
    7
 10
1218.5723330268684
 20
583.89721072045882
  0
POINT
  8
_0-0_
 62
    7
 10
1209.4612571038515
 20
579.34167275895038
  0
POINT
  8
_0-0_
 62
    7
 10
1208.094595715399
 20
560.20841332061468
  0
POINT
  8
_0-0_
 62
    7
 10
1214.0167950653613
 20
541.98626147458094
  0
POINT
  8
_0-0_
 62
    7
 10
1217.6612254345673
 20
531.05297036696038
  0
POINT
  8
_0-0_
 62
    7
 10
1201.7168425692889
 20
520.11967925934027
  0
POINT
  8
_0-0_
 62
    7
 10
1204.9057191423435
 20
505.0864039863618
  0
POINT
  8
_0-0_
 62
    7
 10
1212.6501336769088
 20
513.74192611322815
  0
POINT
  8
_0-0_
 62
    7
 10
1211.7390260846078
 20
526.04187860930097
  0
POINT
  8
_0-0_
 62
    7
 10
1206.7279343269474
 20
534.69740073616731
  0
POINT
  8
_0-0_
 62
    7
 10
1205.8168267346455
 20
552.00844498989954
  0
POINT
  8
_0-0_
 62
    7
 10
1218.1167792307178
 20
549.73067600914533
  0
POINT
  8
_0-0_
 62
    7
 10
1214.0167950653613
 20
566.58616646672658
  0
POINT
  8
_0-0_
 62
    7
 10
1205.8168267346455
 20
571.597258224386
  0
POINT
  8
_0-0_
 62
    7
 10
1214.9279026576623
 20
575.69724238974322
  0
POINT
  8
_0-0_
 62
    7
 10
1211.7390260846078
 20
587.99719488581673
  0
POINT
  8
_0-0_
 62
    7
 10
1205.3612729384949
 20
592.09717905117395
  0
POINT
  8
_0-0_
 62
    7
 10
1208.5501495115495
 20
596.65271701268261
  0
POINT
  8
_0-0_
 62
    7
 10
1214.4723488615118
 20
598.01937840113533
  0
POINT
  8
_0-0_
 62
    7
 10
1215.8390102499643
 20
609.86377710105739
  0
POINT
  8
_0-0_
 62
    7
 10
1207.6390419192485
 20
615.78597645101831
  0
POINT
  8
_0-0_
 62
    7
 10
1216.7501178422654
 20
617.15263783947034
  0
LINE
  8
_0-0_
  6
CONTINUOUS
 62
    3
 10
1230.9880523972179
 20
1242.7761865328753
 11
1214.1130523972179
 21
1242.7761865328753
  0
LINE
  8
_0-0_
  6
CONTINUOUS
 62
    3
 10
1230.9880523972179
 20
1225.9011865328753
 11
1214.1130523972179
 21
1225.9011865328753
  0
LINE
  8
_0-0_
  6
CONTINUOUS
 62
    3
 10
1230.9880523972179
 20
1057.1511865328753
 11
1214.1130523972179
 21
1057.1511865328753
  0
LINE
  8
_0-0_
  6
CONTINUOUS
 62
    3
 10
1230.9880523972179
 20
1040.2761865328753
 11
1214.1130523972179
 21
1040.2761865328753
  0
LINE
  8
_0-0_
  6
CONTINUOUS
 62
    3
 10
1230.9880523972179
 20
871.52618653287527
 11
1214.1130523972179
 21
871.52618653287527
  0
LINE
  8
_0-0_
  6
CONTINUOUS
 62
    3
 10
1230.9880523972179
 20
854.65118653287527
 11
1214.1130523972179
 21
854.65118653287527
  0
LINE
  8
_0-0_
  6
CONTINUOUS
 62
    3
 10
1230.9880523972179
 20
685.90118653287527
 11
1214.1130523972179
 21
685.90118653287527
  0
LINE
  8
_0-0_
  6
CONTINUOUS
 62
    3
 10
1230.9880523972179
 20
1225.9011865328753
 11
1230.9880523972179
 21
1057.1511865328753
  0
LINE
  8
_0-0_
  6
CONTINUOUS
 62
    3
 10
1230.9880523972179
 20
1040.2761865328753
 11
1230.9880523972179
 21
871.52618653287527
  0
LINE
  8
_0-0_
  6
CONTINUOUS
 62
    3
 10
1230.9880523972179
 20
854.65118653287527
 11
1230.9880523972179
 21
685.90118653287527
  0
LINE
  8
_0-0_
  6
CONTINUOUS
 62
    3
 10
1214.1130523972179
 20
1225.9011865328753
 11
1214.1130523972179
 21
1057.1511865328753
  0
LINE
  8
_0-0_
  6
CONTINUOUS
 62
    3
 10
1214.1130523972179
 20
1040.2761865328753
 11
1214.1130523972179
 21
871.52618653287527
  0
LINE
  8
_0-0_
  6
CONTINUOUS
 62
    3
 10
1214.1130523972179
 20
854.65118653287527
 11
1214.1130523972179
 21
685.90118653287527
  0
LINE
  8
_0-0_
  6
CONTINUOUS
 62
    3
 10
1222.5505523972179
 20
1242.7761865328753
 11
1222.5505523972179
 21
1225.9011865328753
  0
LINE
  8
_0-0_
  6
CONTINUOUS
 62
    3
 10
1222.5505523972179
 20
1057.1511865328753
 11
1222.5505523972179
 21
1040.2761865328753
  0
LINE
  8
_0-0_
  6
CONTINUOUS
 62
    3
 10
1222.5505523972179
 20
871.52618653287527
 11
1222.5505523972179
 21
854.65118653287527
  0
LINE
  8
_0-0_
  6
CONTINUOUS
 62
    3
 10
1214.1130523972179
 20
1262.8921363823893
 11
1214.1130523972179
 21
1242.7761865328753
  0
LINE
  8
_0-0_
  6
CONTINUOUS
 62
    3
 10
1230.9880523972179
 20
1262.8921363823893
 11
1230.9880523972179
 21
1242.7761865328753
  0
LINE
  8
_0-0_
  6
CONTINUOUS
 62
    7
 10
1222.5505523972179
 20
1225.9011865328753
 11
1222.5505523972179
 21
1242.7761865328753
  0
LINE
  8
_0-0_
  6
CONTINUOUS
 62
    7
 10
1222.5505523972179
 20
1040.2761865328753
 11
1222.5505523972179
 21
1057.1511865328753
  0
LINE
  8
_0-0_
  6
CONTINUOUS
 62
    7
 10
1222.5505523972179
 20
854.65118653287527
 11
1222.5505523972179
 21
871.52618653287527
  0
ARC
  8
_0-0_
  6
CONTINUOUS
 62
    2
 10
1370.3491972989614
 20
673.2703779662736
 40
139.93236235185515
 50
174.82122399558867
 51
196.31338261519315
  0
LINE
  8
_0-0_
  6
CONTINUOUS
 62
    2
 10
1232.8734210827024
 20
635.79897067308934
 11
1234.9636739137204
 21
637.88922350410758
  0
LINE
  8
_0-0_
  6
CONTINUOUS
 62
    2
 10
1228.8388314579461
 20
638.12834207901278
 11
1233.7265662983264
 21
643.01607691939262
  0
LINE
  8
_0-0_
  6
CONTINUOUS
 62
    2
 10
1224.8042418331879
 20
640.45771348493463
 11
1232.6602957108289
 21
648.31376736257585
  0
LINE
  8
_0-0_
  6
CONTINUOUS
 62
    2
 10
1220.7696522084316
 20
642.78708489085807
 11
1231.7785826842137
 21
653.79601536664018
  0
LINE
  8
_0-0_
  6
CONTINUOUS
 62
    2
 10
1216.7350625836752
 20
645.11645629678083
 11
1231.0980691394489
 21
659.47946285255262
  0
LINE
  8
_0-0_
  6
CONTINUOUS
 62
    2
 10
1212.7004729589198
 20
647.44582770270426
 11
1230.6392119237844
 21
665.38456666756906
  0
LINE
  8
_0-0_
  6
CONTINUOUS
 62
    2
 10
1196.5621144598908
 20
656.76331332639461
 11
1225.6999876663722
 21
685.90118653287527
  0
LINE
  8
_0-0_
  6
CONTINUOUS
 62
    2
 10
1200.596704084649
 20
654.43394192047231
 11
1230.8863334374928
 21
684.72357127331566
  0
LINE
  8
_0-0_
  6
CONTINUOUS
 62
    2
 10
1204.6312937094053
 20
652.10457051454955
 11
1230.4957425601733
 21
677.96901936531799
  0
LINE
  8
_0-0_
  6
CONTINUOUS
 62
    2
 10
1208.6658833341617
 20
649.77519910862611
 11
1230.4275726395017
 21
671.53688841396615
  0
POINT
  8
_0-0_
 62
    7
 10
1209.1120742277008
 20
500.04130509692459
  0
POINT
  8
_0-0_
 62
    7
 10
1215.034273577663
 20
481.81915325089108
  0
POINT
  8
_0-0_
 62
    7
 10
1218.6787039468691
 20
470.88586214327029
  0
POINT
  8
_0-0_
 62
    7
 10
1202.7343210815907
 20
459.95257103565018
  0
POINT
  8
_0-0_
 62
    7
 10
1205.9231976546453
 20
444.91929576267171
  0
POINT
  8
_0-0_
 62
    7
 10
1213.6676121892106
 20
453.57481788953805
  0
POINT
  8
_0-0_
 62
    7
 10
1212.7565045969086
 20
465.8747703856111
  0
POINT
  8
_0-0_
 62
    7
 10
1207.7454128392483
 20
474.53029251247744
  0
POINT
  8
_0-0_
 62
    7
 10
1206.8343052469472
 20
491.84133676620945
  0
POINT
  8
_0-0_
 62
    7
 10
1219.1342577430196
 20
489.56356778545523
  0
POINT
  8
_0-0_
 62
    7
 10
1215.034273577663
 20
506.41905824303672
  0
POINT
  8
_0-0_
 62
    7
 10
1206.8343052469472
 20
511.43015000069613
  0
POINT
  8
_0-0_
 62
    7
 10
1209.6699028604753
 20
414.69352428238767
  0
POINT
  8
_0-0_
 62
    7
 10
1215.5921022104376
 20
396.47137243635393
  0
POINT
  8
_0-0_
 62
    7
 10
1219.2365325796436
 20
385.53808132873337
  0
POINT
  8
_0-0_
 62
    7
 10
1203.2921497143652
 20
374.60479022111326
  0
POINT
  8
_0-0_
 62
    7
 10
1206.4810262874198
 20
359.57151494813479
  0
POINT
  8
_0-0_
 62
    7
 10
1214.2254408219851
 20
368.22703707500114
  0
POINT
  8
_0-0_
 62
    7
 10
1213.3143332296831
 20
380.52698957107395
  0
POINT
  8
_0-0_
 62
    7
 10
1208.3032414720228
 20
389.1825116979403
  0
POINT
  8
_0-0_
 62
    7
 10
1207.3921338797218
 20
406.49355595167253
  0
POINT
  8
_0-0_
 62
    7
 10
1219.6920863757941
 20
404.21578697091832
  0
POINT
  8
_0-0_
 62
    7
 10
1215.5921022104376
 20
421.07127742849957
  0
POINT
  8
_0-0_
 62
    7
 10
1207.3921338797218
 20
426.08236918615899
  0
POINT
  8
_0-0_
 62
    7
 10
1209.4506175957104
 20
436.84270564848771
  0
POINT
  8
_0-0_
 62
    7
 10
1216.7023898217822
 20
442.42099197623497
  0
POINT
  8
_0-0_
 62
    7
 10
1216.7023898217822
 20
432.93790521906431
  0
POINT
  8
_0-0_
 62
    7
 10
1219.4915329856567
 20
360.42018295834646
  0
LINE
  8
_0-0_
  6
CONTINUOUS
 62
    7
 10
894.37035755060981
 20
353.51968783568464
 11
1187.3462865168949
 21
646.49561680196985
  0
LINE
  8
_0-0_
  6
CONTINUOUS
 62
    7
 10
878.46045497391435
 20
353.51968783568464
 11
1177.5505523972179
 21
652.60978525898872
  0
LINE
  8
_0-0_
  6
CONTINUOUS
 62
    7
 10
862.55055239721798
 20
1262.8921363823893
 11
862.55055239721798
 21
353.51968783568464
  0
LINE
  8
_0-0_
  6
CONTINUOUS
 62
    7
 10
1200.0505523972179
 20
353.51968783568464
 11
1200.0505523972179
 21
639.16080547610864
  0
LINE
  8
_0-0_
  6
CONTINUOUS
 62
    7
 10
1222.5505523972179
 20
353.51968783568464
 11
1222.5505523972179
 21
626.17042441934245
  0
LINE
  8
_0-0_
  6
CONTINUOUS
 62
    4
 10
1236.0505523972179
 20
353.51968783568464
 11
1236.0505523972179
 21
633.9646530534028
  0
LINE
  8
_0-0_
  6
CONTINUOUS
 62
    7
 10
1213.288917589517
 20
665.43147043792214
 11
1341.1557976064041
 21
886.90340323248392
  0
POINT
  8
_0-0_
 62
    7
 10
1213.288917589517
 20
665.43147043792214
  0
TEXT
  8
_0-0_
 62
    7
 10
1355.7701208869094
 20
874.24818477868985
 40
30
 41
1
 50
0
  1
ｼｰﾘﾝｸﾞ
  0
CIRCLE
  8
_0-0_
  6
DASHED1
 62
    7
 10
1206.5103791397487
 20
658.53625224772964
 40
50.779132721868216
  0
LINE
  8
_0-0_
  6
CONTINUOUS
 62
    7
 10
1230.8544087166756
 20
584.08349639635321
 11
1284.7234064660806
 21
490.77965534156988
  0
POINT
  8
_0-0_
 62
    7
 10
1230.8544087166756
 20
584.08349639635321
  0
TEXT
  8
_0-0_
 62
    7
 10
1293.5386977701855
 20
474.82009757487003
 40
30
 41
1
 50
0
  1
防水層
  0
TEXT
  8
_0-0_
 62
    7
 10
1293.0001755788198
 20
383.80984723403117
 40
30
 41
1
 50
0
  1
モルタル層
  0
LINE
  8
_0-0_
  6
CONTINUOUS
 62
    7
 10
1215.9408287546066
 20
519.51752012732277
 11
1284.8992584738135
 21
400.07801624348758
  0
POINT
  8
_0-0_
 62
    7
 10
1215.9408287546066
 20
519.51752012732277
  0
LINE
  8
_0-0_
  6
CONTINUOUS
 62
    7
 10
1239.4013948179036
 20
655.63995938835592
 11
1310.9898122873174
 21
655.63995938835592
  0
TEXT
  8
_0-0_
 62
    7
 10
1317.360735862163
 20
641.8850377762426
 40
30
 41
1
 50
0
  1
目地は躯体まで欠き込む
  0
LINE
  8
_0-0_
  6
DASHED2
 62
    5
 10
1228.5505523972179
 20
353.51968783568464
 11
1228.5505523972179
 21
629.63452603448025
  0
LINE
  8
_0-0_
  6
DASHED2
 62
    5
 10
1187.3005523972179
 20
653.45022463855207
 11
1228.5505523972179
 21
629.63452603448025
  0
TEXT
  8
_0-0_
 62
    7
 10
1213.4943223128103
 20
1497.3565543671132
 40
20
 41
1
 50
0
  1
下地：コンクリートスラブ
  0
TEXT
  8
_0-0_
 62
    7
 10
1213.4943223128103
 20
1577.3565543671132
 40
20
 41
1
 50
0
  1
構造：ＲＣ造
  0
TEXT
  8
_0-0_
 62
    7
 10
696.13606690525216
 20
1577.3565543671132
 40
20
 41
1
 50
0
  1
図面番号：tsuki-PU-kabe-03
  0
TEXT
  8
_0-0_
 62
    7
 10
696.13606690525205
 20
1497.3565543671132
 40
20
 41
1
 50
0
  1
施工部位：壁面立上り（目地切り）
  0
ENDSEC
  0
EOF
