  0
SECTION
  2
HEADER
  9
$ACADVER
  1
AC1009
  9
$INSBASE
 10
0
 20
0
 30
0
  9
$EXTMIN
 10
0
 20
0
  9
$EXTMAX
 10
2378
 20
1682
  9
$LIMMIN
 10
0
 20
0
  9
$LIMMAX
 10
2378
 20
1682
  9
$LTSCALE
 40
1
  0
ENDSEC
  0
SECTION
  2
TABLES
  0
TABLE
  2
LTYPE
 70
     9
  0
LTYPE
  2
CONTINUOUS
 70
    64
  3
実線
 72
    65
 73
     0
 40
0.0
  0
LTYPE
  2
DASHED1
 70
    64
  3
--  --  --  --  --  --  --  --  
 72
    65
 73
     2
 40
2.5
 49
1.25
 49
-1.25
  0
LTYPE
  2
DASHED2
 70
    64
  3
----    ----    ----    ----    
 72
    65
 73
     2
 40
5.0
 49
2.5
 49
-2.5
  0
LTYPE
  2
DASHED3
 70
    64
  3
------  ------  ------  ------  
 72
    65
 73
     2
 40
5.0
 49
3.75
 49
-1.25
  0
LTYPE
  2
CENTER1
 70
    64
  3
----- - ----- - ----- - ----- - 
 72
    65
 73
     4
 40
10.0
 49
6.25
 49
-1.25
 49
1.25
 49
-1.25
  0
LTYPE
  2
CENTER2
 70
    64
  3
----------  --  ----------  --  
 72
    65
 73
     4
 40
20.0
 49
12.5
 49
-2.5
 49
2.5
 49
-2.5
  0
LTYPE
  2
PHANTOM1
 70
    64
  3
--- - - --- - - --- - - --- - - 
 72
    65
 73
     6
 40
10.0
 49
3.25
 49
-1.25
 49
1.25
 49
-1.25
 49
1.25
 49
-1.25
  0
LTYPE
  2
PHANTOM2
 70
    64
  3
--------  -  -  --------  -  -  
 72
    65
 73
     6
 40
20.0
 49
10.0
 49
-2.5
 49
1.25
 49
-2.5
 49
1.25
 49
-2.5
  0
LTYPE
  2
DOT
 70
    64
  3
-   -   -   -   -   -   -   -   
 72
    65
 73
     2
 40
2.5
 49
0.625
 49
-1.875
  0
LTYPE
  2
DUMMY
 70
    64
  3
ダミー
 72
    65
 73
     0
 40
0.0
  0
LTYPE
  2
RAND1
 70
    64
  3
ランダム線1
 72
    65
 73
     4
 40
10.0
 49
1.0
 49
-2.0
 49
3.0
 49
-4.0
  0
LTYPE
  2
RAND2
 70
    64
  3
ランダム線2
 72
    65
 73
     4
 40
14.0
 49
2.0
 49
-3.0
 49
4.0
 49
-5.0
  0
LTYPE
  2
RAND3
 70
    64
  3
ランダム線3
 72
    65
 73
     4
 40
18.0
 49
3.0
 49
-4.0
 49
5.0
 49
-6.0
  0
LTYPE
  2
RAND4
 70
    64
  3
ランダム線4
 72
    65
 73
     4
 40
22.0
 49
4.0
 49
-5.0
 49
6.0
 49
-7.0
  0
LTYPE
  2
RAND5
 70
    64
  3
ランダム線5
 72
    65
 73
     4
 40
26.0
 49
5.0
 49
-6.0
 49
7.0
 49
-8.0
  0
LTYPE
  2
LONG1
 70
    64
  3
----------  --  ----------  --  
 72
    65
 73
     4
 40
40.0
 49
32.5
 49
-2.5
 49
2.5
 49
-2.5
  0
LTYPE
  2
LONG2
 70
    64
  3
--------  -  -  --------  -  -  
 72
    65
 73
     6
 40
40.0
 49
30.0
 49
-2.5
 49
1.25
 49
-2.5
 49
1.25
 49
-2.5
  0
LTYPE
  2
LONG3
 70
    64
  3
+++++++++++++++..+++++++++++++++
 72
    65
 73
     2
 40
40.0
 49
37.5
 49
-2.5
  0
LTYPE
  2
LONG4
 70
    64
  3
+++++++++++++++..+++++++++++++++
 72
    65
 73
     2
 40
80.0
 49
75.0
 49
-5.0
  0
LTYPE
  2
LONG5
 70
    64
  3
----------  --  ----------  --  
 72
    65
 73
     4
 40
60.0
 49
37.5
 49
-7.5
 49
7.5
 49
-7.5
  0
LTYPE
  2
dashed
 70
   64
  3
-------   -------------   ------
 72
   65
 73
    2
 40
7.5
 49
6
 49
-1.5
  0
LTYPE
  2
dashed_spaced
 70
   64
  3
----        --------        ----
 72
   65
 73
    2
 40
12
 49
6
 49
-6
  0
LTYPE
  2
long_dashed_dotted
 70
   64
  3
------------- --- --------------
 72
   65
 73
    4
 40
15.25
 49
12
 49
-1.5
 49
0.25
 49
-1.5
  0
LTYPE
  2
long_dashed_double-dotted
 70
   64
  3
----------- --- --- ------------
 72
   65
 73
    6
 40
17
 49
12
 49
-1.5
 49
0.25
 49
-1.5
 49
0.25
 49
-1.5
  0
LTYPE
  2
long_dashed_triplicate-dotted
 70
   64
  3
--------- --- --- --- ----------
 72
   65
 73
    8
 40
18.75
 49
12
 49
-1.5
 49
0.25
 49
-1.5
 49
0.25
 49
-1.5
 49
0.25
 49
-1.5
  0
LTYPE
  2
dotted
 70
   64
  3
   -       -       -       -    
 72
   65
 73
    2
 40
1.75
 49
0.25
 49
-1.5
  0
LTYPE
  2
chain
 70
   64
  3
-------------- -- --------------
 72
   65
 73
    4
 40
18.5
 49
12
 49
-1.5
 49
3.5
 49
-1.5
  0
LTYPE
  2
chain_double_dash
 70
   64
  3
------------ -- -- -------------
 72
   65
 73
    6
 40
23.5
 49
12
 49
-1.5
 49
3.5
 49
-1.5
 49
3.5
 49
-1.5
  0
LTYPE
  2
dashed_dotted
 70
   64
  3
-----------     -     ----------
 72
   65
 73
    4
 40
9.25
 49
6
 49
-1.5
 49
0.25
 49
-1.5
  0
LTYPE
  2
double-dashed_dotted
 70
   64
  3
------   -----------   -   -----
 72
   65
 73
    6
 40
16.75
 49
6
 49
-1.5
 49
6
 49
-1.5
 49
0.25
 49
-1.5
  0
LTYPE
  2
dashed_double-dotted
 70
   64
  3
---------    -    -    ---------
 72
   65
 73
    6
 40
11
 49
6
 49
-1.5
 49
0.25
 49
-1.5
 49
0.25
 49
-1.5
  0
LTYPE
  2
double-dashed_double-dotted
 70
   64
  3
-----   ---------   -   -   ----
 72
   65
 73
    8
 40
18.5
 49
6
 49
-1.5
 49
6
 49
-1.5
 49
0.25
 49
-1.5
 49
0.25
 49
-1.5
  0
LTYPE
  2
dashed_triplicate-dotted
 70
   64
  3
-------    -    -    -    ------
 72
   65
 73
    8
 40
12.75
 49
6
 49
-1.5
 49
0.25
 49
-1.5
 49
0.25
 49
-1.5
 49
0.25
 49
-1.5
  0
LTYPE
  2
double-dashed_triplicate-dotted
 70
   64
  3
-----  ---------  -  -  -  -----
 72
   65
 73
   10
 40
20.25
 49
6
 49
-1.5
 49
6
 49
-1.5
 49
0.25
 49
-1.5
 49
0.25
 49
-1.5
 49
0.25
 49
-1.5
  0
LTYPE
  2
undefined
 70
   64
  3
--------------------------------
 72
   65
 73
    0
 40
0
  0
ENDTAB
  0
TABLE
  2
STYLE
  5
3
100
AcDbSymbolTable
 70
     1
  0
STYLE
  5
10
100
AcDbSymbolTableRecord
100
AcDbTextStyleTableRecord
  2
STANDARD
 70
     0
 40
0.0
 41
1.0
 50
0.0
 71
     0
 42
0.2
  3
txt
  4
bigfont.shx
  0
STYLE
  5
26
100
AcDbSymbolTableRecord
100
AcDbTextStyleTableRecord
  2
TATEGAKI
 70
    68
 40
0.0
 41
1.0
 50
0.0
 71
     0
 42
1.0
  3
txt
  4
bigfont.shx
  0
ENDTAB
  0
TABLE
  2
LAYER
 70
    2
  0
LAYER
  2
_0-0_
 70
   64
 62
    7
  6
CONTINUOUS
  0
LAYER
  2
ADD_LINE
 70
   64
 62
    7
  6
CONTINUOUS
  0
ENDTAB
  0
ENDSEC
  0
SECTION
  2
BLOCKS
  0
ENDSEC
  0
SECTION
  2
ENTITIES
  0
LINE
  8
_0-0_
  6
CONTINUOUS
 62
    4
 10
1255.3643745645522
 20
464.98235466124538
 11
1327.043196296421
 21
464.98235466124538
  0
LINE
  8
_0-0_
  6
CONTINUOUS
 62
    7
 10
1152.6316444763943
 20
463.49707328701083
 11
1151.9245376952113
 21
464.20418006819386
  0
LINE
  8
_0-0_
  6
CONTINUOUS
 62
    7
 10
1160.4098190694494
 20
455.71889869395477
 11
1159.7027122882591
 21
456.42600547514508
  0
LINE
  8
_0-0_
  6
CONTINUOUS
 62
    7
 10
1247.1879936625019
 20
459.98235466124538
 11
1233.1879936625019
 21
446.98235466124538
  0
LINE
  8
_0-0_
  6
CONTINUOUS
 62
    7
 10
672.13606690525205
 20
167.53106997205509
 11
1706.8525777203668
 21
167.53106997205509
  0
LINE
  8
_0-0_
  6
CONTINUOUS
 62
    7
 10
672.13606690525205
 20
1633.3565543671134
 11
672.13606690525205
 21
167.53106997205509
  0
LINE
  8
_0-0_
  6
CONTINUOUS
 62
    7
 10
1706.8525777203668
 20
1633.3565543671134
 11
1706.8525777203668
 21
167.53106997205509
  0
LINE
  8
_0-0_
  6
CONTINUOUS
 62
    3
 10
1383.6972548246958
 20
462.90056485494392
 11
1382.7108609008637
 21
468.81892839793659
  0
LINE
  8
_0-0_
  6
CONTINUOUS
 62
    3
 10
1382.7108609008637
 20
468.81892839793659
 11
1450.751843706561
 21
480.15909219888658
  0
LINE
  8
_0-0_
  6
CONTINUOUS
 62
    7
 10
1024.187993662501
 20
426.48235466123992
 11
1024.187993662501
 21
421.98235466124083
  0
LINE
  8
_0-0_
  6
CONTINUOUS
 62
    7
 10
1024.187993662501
 20
413.96368037980142
 11
1022.2066679439405
 21
411.98235466124083
  0
LINE
  8
_0-0_
  6
CONTINUOUS
 62
    7
 10
1024.187993662501
 20
418.45380844033593
 11
1017.716539883406
 21
411.98235466124083
  0
LINE
  8
_0-0_
  6
CONTINUOUS
 62
    7
 10
1024.187993662501
 20
422.94393650087045
 11
1013.2264118228724
 21
411.98235466124083
  0
LINE
  8
_0-0_
  6
CONTINUOUS
 62
    7
 10
1024.187993662501
 20
427.43406456140497
 11
1008.7362837623369
 21
411.98235466124083
  0
LINE
  8
_0-0_
  6
CONTINUOUS
 62
    7
 10
1024.187993662501
 20
431.92419262193948
 11
1004.2461557018024
 21
411.98235466124083
  0
LINE
  8
_0-0_
  6
CONTINUOUS
 62
    7
 10
1019.7560276412715
 20
431.98235466124447
 11
1004.1879936625011
 21
416.414320682474
  0
LINE
  8
_0-0_
  6
CONTINUOUS
 62
    7
 10
1015.2658995807379
 20
431.98235466124447
 11
1004.1879936625011
 21
420.90444874300852
  0
LINE
  8
_0-0_
  6
CONTINUOUS
 62
    7
 10
1010.7757715202025
 20
431.98235466124447
 11
1004.1879936625011
 21
425.39457680354303
  0
LINE
  8
_0-0_
  6
CONTINUOUS
 62
    7
 10
1006.2856434596689
 20
431.98235466124447
 11
1004.1879936625011
 21
429.88470486407755
  0
LINE
  8
_0-0_
  6
CONTINUOUS
 62
    7
 10
1023.8163288755505
 20
431.98235466124447
 11
1024.187993662501
 21
431.61068987429394
  0
LINE
  8
_0-0_
  6
CONTINUOUS
 62
    7
 10
1019.3262008150169
 20
431.98235466124447
 11
1024.187993662501
 21
427.12056181375942
  0
LINE
  8
_0-0_
  6
CONTINUOUS
 62
    7
 10
1014.8360727544815
 20
431.98235466124447
 11
1024.187993662501
 21
422.63043375322491
  0
LINE
  8
_0-0_
  6
CONTINUOUS
 62
    7
 10
1010.345944693947
 20
431.98235466124447
 11
1024.187993662501
 21
418.14030569269039
  0
LINE
  8
_0-0_
  6
CONTINUOUS
 62
    7
 10
1005.8558166334134
 20
431.98235466124447
 11
1024.187993662501
 21
413.65017763215587
  0
LINE
  8
_0-0_
  6
CONTINUOUS
 62
    7
 10
1004.1879936625011
 20
429.16004957162136
 11
1021.3656885728816
 21
411.98235466124083
  0
LINE
  8
_0-0_
  6
CONTINUOUS
 62
    7
 10
1004.1879936625011
 20
424.66992151108684
 11
1016.875560512348
 21
411.98235466124083
  0
LINE
  8
_0-0_
  6
CONTINUOUS
 62
    7
 10
1004.1879936625011
 20
420.17979345055232
 11
1012.3854324518126
 21
411.98235466124083
  0
LINE
  8
_0-0_
  6
CONTINUOUS
 62
    7
 10
1004.1879936625011
 20
415.68966539001781
 11
1007.895304391279
 21
411.98235466124083
  0
LINE
  8
_0-0_
  6
CONTINUOUS
 62
    7
 10
1004.1879936625011
 20
411.98235466124083
 11
1004.1879936625011
 21
431.98235466124447
  0
LINE
  8
_0-0_
  6
CONTINUOUS
 62
    7
 10
1024.187993662501
 20
426.48235466123992
 11
1024.187993662501
 21
431.98235466124447
  0
LINE
  8
_0-0_
  6
CONTINUOUS
 62
    7
 10
1024.187993662501
 20
421.98235466124083
 11
1024.187993662501
 21
411.98235466124083
  0
LINE
  8
_0-0_
  6
CONTINUOUS
 62
    7
 10
1004.1879936625011
 20
411.98235466124083
 11
1024.187993662501
 21
411.98235466124083
  0
LINE
  8
_0-0_
  6
CONTINUOUS
 62
    7
 10
1024.187993662501
 20
421.98235466124356
 11
1109.1879936625055
 21
421.98235466124538
  0
LINE
  8
_0-0_
  6
CONTINUOUS
 62
    7
 10
1109.1879936625055
 20
426.48235466124538
 11
1024.187993662501
 21
426.48235466124265
  0
LINE
  8
_0-0_
  6
CONTINUOUS
 62
    7
 10
1004.1879936625011
 20
555.9823546612472
 11
1109.1879936625055
 21
555.98235466124538
  0
LINE
  8
_0-0_
  6
CONTINUOUS
 62
    7
 10
1109.1879936625055
 20
551.48235466124538
 11
1004.1879936625011
 21
551.48235466124811
  0
LINE
  8
_0-0_
  6
CONTINUOUS
 62
    7
 10
1024.1298316232005
 20
557.96368037980778
 11
1022.1485059046391
 21
555.9823546612472
  0
LINE
  8
_0-0_
  6
CONTINUOUS
 62
    7
 10
1024.1298316232005
 20
562.4538084403423
 11
1017.6583778441046
 21
555.9823546612472
  0
LINE
  8
_0-0_
  6
CONTINUOUS
 62
    7
 10
1024.1298316232005
 20
566.94393650087682
 11
1013.168249783571
 21
555.9823546612472
  0
LINE
  8
_0-0_
  6
CONTINUOUS
 62
    7
 10
1024.1298316232005
 20
571.43406456141224
 11
1008.6781217230365
 21
555.9823546612472
  0
LINE
  8
_0-0_
  6
CONTINUOUS
 62
    7
 10
1024.1298316232005
 20
575.92419262194585
 11
1004.1879936625011
 21
555.9823546612472
  0
LINE
  8
_0-0_
  6
CONTINUOUS
 62
    7
 10
1019.6978656019711
 20
575.98235466125175
 11
1004.1298316232006
 21
560.41432068248128
  0
LINE
  8
_0-0_
  6
CONTINUOUS
 62
    7
 10
1015.2077375414375
 20
575.98235466125175
 11
1004.1298316232006
 21
564.90444874301579
  0
LINE
  8
_0-0_
  6
CONTINUOUS
 62
    7
 10
1010.7176094809021
 20
575.98235466125175
 11
1004.1298316232006
 21
569.39457680355031
  0
LINE
  8
_0-0_
  6
CONTINUOUS
 62
    7
 10
1006.2274814203685
 20
575.98235466125175
 11
1004.1298316232006
 21
573.88470486408482
  0
LINE
  8
_0-0_
  6
CONTINUOUS
 62
    7
 10
1014.7779107151802
 20
575.98235466125175
 11
1024.1298316232005
 21
566.63043375323127
  0
LINE
  8
_0-0_
  6
CONTINUOUS
 62
    7
 10
1010.2877826546456
 20
575.98235466125175
 11
1024.1298316232005
 21
562.14030569269767
  0
LINE
  8
_0-0_
  6
CONTINUOUS
 62
    7
 10
1005.797654594112
 20
575.98235466125175
 11
1024.1298316232005
 21
557.65017763216224
  0
LINE
  8
_0-0_
  6
CONTINUOUS
 62
    7
 10
1004.1298316232006
 20
573.16004957162863
 11
1021.3075265335812
 21
555.9823546612472
  0
LINE
  8
_0-0_
  6
CONTINUOUS
 62
    7
 10
1004.1298316232006
 20
568.66992151109321
 11
1016.8173984730466
 21
555.9823546612472
  0
LINE
  8
_0-0_
  6
CONTINUOUS
 62
    7
 10
1004.1298316232006
 20
564.17979345055869
 11
1012.3272704125121
 21
555.9823546612472
  0
LINE
  8
_0-0_
  6
CONTINUOUS
 62
    7
 10
1004.1298316232006
 20
559.68966539002417
 11
1007.8371423519785
 21
555.9823546612472
  0
LINE
  8
_0-0_
  6
CONTINUOUS
 62
    7
 10
1004.1298316232006
 20
555.9823546612472
 11
1004.1298316232006
 21
575.98235466125175
  0
LINE
  8
_0-0_
  6
CONTINUOUS
 62
    7
 10
1024.1298316232005
 20
565.9823546612472
 11
1024.1298316232005
 21
555.9823546612472
  0
LINE
  8
_0-0_
  6
CONTINUOUS
 62
    7
 10
1300.7879936625013
 20
416.78235466124556
 11
1300.7879936625013
 21
429.98235466124538
  0
ARC
  8
_0-0_
  6
CONTINUOUS
 62
    7
 10
1310.987993662502
 20
416.78235466124556
 40
10.2000000000005
 50
180.00000000000125
 51
270.00000000000125
  0
LINE
  8
_0-0_
  6
CONTINUOUS
 62
    7
 10
1322.1879936625028
 20
406.58235466124484
 11
1310.987993662502
 21
406.58235466124484
  0
LINE
  8
_0-0_
  6
CONTINUOUS
 62
    7
 10
1322.1879936625028
 20
413.38235466124502
 11
1322.1879936625028
 21
406.58235466124484
  0
LINE
  8
_0-0_
  6
CONTINUOUS
 62
    7
 10
1310.987993662502
 20
413.38235466124502
 11
1322.1879936625028
 21
413.38235466124502
  0
ARC
  8
_0-0_
  6
CONTINUOUS
 62
    7
 10
1310.987993662502
 20
416.78235466124556
 40
3.3999999999998631
 50
179.99999999999619
 51
269.99999999999619
  0
LINE
  8
_0-0_
  6
CONTINUOUS
 62
    7
 10
1307.5879936625024
 20
429.98235466124538
 11
1307.5879936625024
 21
416.78235466124556
  0
LINE
  8
_0-0_
  6
CONTINUOUS
 62
    7
 10
1300.4379936625019
 20
429.98235466124538
 11
1300.4379936625019
 21
436.98235466124538
  0
LINE
  8
_0-0_
  6
CONTINUOUS
 62
    7
 10
1307.9379936625019
 20
429.98235466124538
 11
1300.4379936625019
 21
429.98235466124538
  0
LINE
  8
_0-0_
  6
CONTINUOUS
 62
    7
 10
1307.9379936625019
 20
436.98235466124538
 11
1307.9379936625019
 21
429.98235466124538
  0
LINE
  8
_0-0_
  6
CONTINUOUS
 62
    7
 10
1112.987993662502
 20
604.58235466124574
 11
1126.187993662501
 21
604.58235466124574
  0
ARC
  8
_0-0_
  6
CONTINUOUS
 62
    7
 10
1112.987993662502
 20
614.78235466124556
 40
10.200000000000269
 50
180.00000000000259
 51
270.00000000000261
  0
LINE
  8
_0-0_
  6
CONTINUOUS
 62
    7
 10
1102.7879936625013
 20
625.98235466124538
 11
1102.7879936625013
 21
614.78235466124556
  0
LINE
  8
_0-0_
  6
CONTINUOUS
 62
    7
 10
1109.5879936625024
 20
625.98235466124538
 11
1102.7879936625013
 21
625.98235466124538
  0
LINE
  8
_0-0_
  6
CONTINUOUS
 62
    7
 10
1109.5879936625024
 20
614.78235466124556
 11
1109.5879936625024
 21
625.98235466124538
  0
ARC
  8
_0-0_
  6
CONTINUOUS
 62
    7
 10
1112.987993662502
 20
614.78235466124556
 40
3.3999999999998631
 50
179.99999999999619
 51
269.99999999999619
  0
LINE
  8
_0-0_
  6
CONTINUOUS
 62
    7
 10
1126.187993662501
 20
611.38235466124502
 11
1112.987993662502
 21
611.38235466124502
  0
LINE
  8
_0-0_
  6
CONTINUOUS
 62
    7
 10
1126.187993662501
 20
604.23235466124538
 11
1133.187993662501
 21
604.23235466124538
  0
LINE
  8
_0-0_
  6
CONTINUOUS
 62
    7
 10
1126.187993662501
 20
611.73235466124538
 11
1126.187993662501
 21
604.23235466124538
  0
LINE
  8
_0-0_
  6
CONTINUOUS
 62
    7
 10
1133.187993662501
 20
611.73235466124538
 11
1126.187993662501
 21
611.73235466124538
  0
LINE
  8
_0-0_
  6
CONTINUOUS
 62
    7
 10
1157.2150874455347
 20
448.98863316411484
 11
1161.8678500657425
 21
453.64139578432264
  0
LINE
  8
_0-0_
  6
CONTINUOUS
 62
    7
 10
1145.1942721653631
 20
461.00944844428636
 11
1157.2150874455347
 21
448.98863316411484
  0
LINE
  8
_0-0_
  6
CONTINUOUS
 62
    7
 10
1149.8470347855709
 20
465.66221106449416
 11
1145.1942721653631
 21
461.00944844428636
  0
LINE
  8
_0-0_
  6
CONTINUOUS
 62
    7
 10
1161.8678500657425
 20
453.64139578432264
 11
1149.8470347855709
 21
465.66221106449416
  0
ARC
  8
_0-0_
  6
CONTINUOUS
 62
    7
 10
1156.8797622305392
 20
466.68453086937666
 40
12.275761717941741
 50
204.74428136361459
 51
245.25571863638609
  0
ARC
  8
_0-0_
  6
CONTINUOUS
 62
    7
 10
1162.8901698706268
 20
460.67412322929181
 40
12.27576171794224
 50
204.74428136361504
 51
245.2557186363849
  0
LINE
  8
_0-0_
  6
CONTINUOUS
 62
    7
 10
1109.1879936625055
 20
555.98235466124538
 11
1109.1879936625055
 21
551.48235466124538
  0
LINE
  8
_0-0_
  6
CONTINUOUS
 62
    7
 10
1132.7679936625018
 20
544.60422966124429
 11
1132.7679936625018
 21
539.38235466124411
  0
LINE
  8
_0-0_
  6
CONTINUOUS
 62
    7
 10
1132.7679936625018
 20
433.36047966124374
 11
1132.7679936625018
 21
438.58235466124484
  0
LINE
  8
_0-0_
  6
CONTINUOUS
 62
    7
 10
1109.1879936625055
 20
421.98235466124538
 11
1109.1879936625055
 21
426.48235466124538
  0
LINE
  8
_0-0_
  6
CONTINUOUS
 62
    7
 10
1125.187993662501
 20
434.12409282334306
 11
1125.187993662501
 21
433.48235466124538
  0
LINE
  8
_0-0_
  6
CONTINUOUS
 62
    7
 10
1104.187993662501
 20
432.46735466124505
 11
1104.187993662501
 21
426.98235466124538
  0
LINE
  8
_0-0_
  6
CONTINUOUS
 62
    7
 10
1151.7415077632304
 20
455.5358687619821
 11
1155.8574424256576
 21
459.6518034244084
  0
LINE
  8
_0-0_
  6
CONTINUOUS
 62
    7
 10
1133.187993662501
 20
610.53235466124556
 11
1126.187993662501
 21
610.53235466124556
  0
LINE
  8
_0-0_
  6
CONTINUOUS
 62
    7
 10
1133.187993662501
 20
605.4323546612452
 11
1126.187993662501
 21
605.4323546612452
  0
LINE
  8
_0-0_
  6
CONTINUOUS
 62
    7
 10
1306.737993662503
 20
436.98235466124538
 11
1306.737993662503
 21
429.98235466124538
  0
LINE
  8
_0-0_
  6
CONTINUOUS
 62
    7
 10
1301.6379936625026
 20
436.98235466124538
 11
1301.6379936625026
 21
429.98235466124538
  0
ARC
  8
_0-0_
  6
CONTINUOUS
 62
    7
 10
1141.4969768281371
 20
432.98235466124538
 40
10
 50
270
 51
300.12318347445199
  0
LINE
  8
_0-0_
  6
CONTINUOUS
 62
    7
 10
1157.4283802773462
 20
430.66469768704269
 11
1146.5155844336487
 21
424.33287041639528
  0
ARC
  8
_0-0_
  6
CONTINUOUS
 62
    7
 10
1153.1879936625037
 20
456.98235466124538
 40
10
 50
180
 51
270
  0
LINE
  8
_0-0_
  6
CONTINUOUS
 62
    7
 10
1143.1879936625037
 20
541.48235466124538
 11
1143.1879936625037
 21
456.98235466124538
  0
ARC
  8
_0-0_
  6
CONTINUOUS
 62
    7
 10
1341.2890141769367
 20
446.98235466124538
 40
5
 50
11.536959032804702
 51
90
  0
ARC
  8
_0-0_
  6
CONTINUOUS
 62
    7
 10
1332.8546603291688
 20
449.98235466124538
 40
2
 50
90
 51
126.86989764582549
  0
ARC
  8
_0-0_
  6
CONTINUOUS
 62
    7
 10
1293.3168874787198
 20
449.98235466124538
 40
2
 50
3.8140748342883031
 51
90
  0
ARC
  8
_0-0_
  6
CONTINUOUS
 62
    7
 10
1146.187993662501
 20
636.64902132791144
 40
2
 50
323.13010235419512
 51
0
  0
ARC
  8
_0-0_
  6
CONTINUOUS
 62
    7
 10
1146.187993662501
 20
597.11124847746146
 40
2
 50
0
 51
86.185925165711907
  0
ARC
  8
_0-0_
  6
CONTINUOUS
 62
    7
 10
1143.187993662501
 20
645.08337517567929
 40
5
 50
0
 51
78.463040967205103
  0
LINE
  8
_0-0_
  6
CONTINUOUS
 62
    7
 10
1144.187993662501
 20
599.24902132791181
 11
1144.187993662501
 21
555.08337517567929
  0
LINE
  8
_0-0_
  6
CONTINUOUS
 62
    7
 10
1144.187993662501
 20
649.98235466124538
 11
1144.187993662501
 21
630.64902132791144
  0
ARC
  8
_0-0_
  6
CONTINUOUS
 62
    7
 10
1135.187993662501
 20
615.31568799457841
 40
2
 50
143.13010235416249
 51
180
  0
LINE
  8
_0-0_
  6
CONTINUOUS
 62
    7
 10
1133.5879936625024
 20
616.51568799457823
 11
1147.7879936625013
 21
635.44902132791162
  0
ARC
  8
_0-0_
  6
CONTINUOUS
 62
    7
 10
1135.187993662501
 20
601.85346084502748
 40
2
 50
180
 51
266.18592516571192
  0
LINE
  8
_0-0_
  6
CONTINUOUS
 62
    7
 10
1133.187993662501
 20
601.85346084502748
 11
1133.187993662501
 21
615.31568799457841
  0
LINE
  8
_0-0_
  6
CONTINUOUS
 62
    7
 10
1135.0549556414535
 20
599.85789052931455
 11
1146.3210316835502
 21
599.10681879317531
  0
ARC
  8
_0-0_
  6
CONTINUOUS
 62
    7
 10
1311.5213269958358
 20
438.98235466124538
 40
2
 50
270
 51
306.8698976458665
  0
LINE
  8
_0-0_
  6
CONTINUOUS
 62
    7
 10
1312.7213269958356
 20
437.38235466124502
 11
1331.6546603291681
 21
451.58235466124484
  0
ARC
  8
_0-0_
  6
CONTINUOUS
 62
    7
 10
1298.0590998462858
 20
438.98235466124538
 40
2
 50
183.81407483428828
 51
270
  0
LINE
  8
_0-0_
  6
CONTINUOUS
 62
    7
 10
1298.0590998462858
 20
436.98235466124538
 11
1311.5213269958358
 21
436.98235466124538
  0
LINE
  8
_0-0_
  6
CONTINUOUS
 62
    7
 10
1296.0635295305719
 20
438.84931664019791
 11
1295.3124577944336
 21
450.11539268229285
  0
LINE
  8
_0-0_
  6
CONTINUOUS
 62
    7
 10
1233.1879936625019
 20
446.98235466124538
 11
1153.1879936625037
 21
446.98235466124538
  0
ARC
  8
_0-0_
  6
CONTINUOUS
 62
    7
 10
1162.4469878828577
 20
422.01521344219259
 40
10
 50
97.125016348904694
 51
120.12318347445199
  0
LINE
  8
_0-0_
  6
CONTINUOUS
 62
    7
 10
1161.206640536966
 20
431.93799220932965
 11
1232.6519775897195
 21
440.86865934092316
  0
LINE
  8
_0-0_
  6
CONTINUOUS
 62
    7
 10
1149.187993662501
 20
436.48235466124538
 11
1233.1879936625019
 21
446.98235466124538
  0
ARC
  8
_0-0_
  6
CONTINUOUS
 62
    7
 10
1231.4116302438279
 20
450.79143810806022
 40
10
 50
277.12501634890469
 51
312.87890360331409
  0
LINE
  8
_0-0_
  6
CONTINUOUS
 62
    7
 10
1244.5126804221136
 20
449.31028957750846
 11
1238.2161412375017
 21
443.46350319179714
  0
LINE
  8
_0-0_
  6
CONTINUOUS
 62
    7
 10
1354.1879936625028
 20
457.98235466124538
 11
1251.1879936625019
 21
457.98235466124538
  0
ARC
  8
_0-0_
  6
CONTINUOUS
 62
    7
 10
1251.3171914157856
 20
441.98235466124538
 40
10
 50
90
 51
132.87890360331409
  0
LINE
  8
_0-0_
  6
CONTINUOUS
 62
    7
 10
1341.2890141769367
 20
451.98235466124538
 11
1251.3171914157856
 21
451.98235466124538
  0
LINE
  8
_0-0_
  6
CONTINUOUS
 62
    7
 10
1354.1879936625028
 20
447.98235466124538
 11
1346.1879936625028
 21
447.98235466124538
  0
LINE
  8
_0-0_
  6
CONTINUOUS
 62
    7
 10
1354.1879936625028
 20
457.98235466124538
 11
1354.1879936625028
 21
447.98235466124538
  0
LINE
  8
_0-0_
  6
CONTINUOUS
 62
    7
 10
1156.187993662501
 20
553.98235466124538
 11
1154.187993662501
 21
554.98235466124538
  0
LINE
  8
_0-0_
  6
CONTINUOUS
 62
    7
 10
1156.187993662501
 20
550.98235466124538
 11
1143.187993662501
 21
536.98235466124538
  0
LINE
  8
_0-0_
  6
CONTINUOUS
 62
    7
 10
1156.187993662501
 20
553.98235466124538
 11
1156.187993662501
 21
550.98235466124538
  0
LINE
  8
_0-0_
  6
CONTINUOUS
 62
    7
 10
1154.187993662501
 20
657.98235466124538
 11
1154.187993662501
 21
554.98235466124538
  0
ARC
  8
_0-0_
  6
CONTINUOUS
 62
    7
 10
1143.187993662501
 20
559.98235466124538
 40
5
 50
270
 51
0
  0
LINE
  8
_0-0_
  6
CONTINUOUS
 62
    7
 10
1148.187993662501
 20
645.08337517567929
 11
1148.187993662501
 21
559.98235466124538
  0
LINE
  8
_0-0_
  6
CONTINUOUS
 62
    7
 10
1144.187993662501
 20
657.98235466124538
 11
1144.187993662501
 21
649.98235466124538
  0
LINE
  8
_0-0_
  6
CONTINUOUS
 62
    7
 10
1154.187993662501
 20
657.98235466124538
 11
1144.187993662501
 21
657.98235466124538
  0
LINE
  8
_0-0_
  6
CONTINUOUS
 62
    7
 10
1109.187993662501
 20
426.98235466124538
 11
1104.187993662501
 21
426.98235466124538
  0
LINE
  8
_0-0_
  6
CONTINUOUS
 62
    7
 10
1109.187993662501
 20
422.98235466124538
 11
1109.187993662501
 21
426.98235466124538
  0
LINE
  8
_0-0_
  6
CONTINUOUS
 62
    7
 10
1109.1879936625055
 20
550.98235466124538
 11
1104.1879936625055
 21
550.98235466124538
  0
LINE
  8
_0-0_
  6
CONTINUOUS
 62
    7
 10
1109.1879936625055
 20
554.98235466124538
 11
1109.1879936625055
 21
550.98235466124538
  0
LINE
  8
_0-0_
  6
CONTINUOUS
 62
    7
 10
1168.187993662501
 20
453.59757835039477
 11
1168.187993662501
 21
447.00065358310371
  0
LINE
  8
_0-0_
  6
CONTINUOUS
 62
    7
 10
1149.8032173516513
 20
471.98235466124538
 11
1143.187993662501
 21
471.98235466124538
  0
LINE
  8
_0-0_
  6
CONTINUOUS
 62
    7
 10
1162.5311394130067
 20
459.25443259989174
 11
1163.2382461941961
 21
458.54732581870053
  0
LINE
  8
_0-0_
  6
CONTINUOUS
 62
    7
 10
1154.7529648199588
 20
467.03260719293962
 11
1155.460071601141
 21
466.32550041175659
  0
LINE
  8
_0-0_
  6
CONTINUOUS
 62
    7
 10
1152.6316444763988
 20
452.18336478802144
 11
1156.8742851635161
 21
447.94072410090234
  0
LINE
  8
_0-0_
  6
CONTINUOUS
 62
    7
 10
1152.6316444763988
 20
452.18336478802144
 11
1150.5103241328388
 21
450.06204444446234
  0
LINE
  8
_0-0_
  6
CONTINUOUS
 62
    7
 10
1148.3890037892788
 20
456.42600547514053
 11
1144.1463631021606
 21
460.66864616226053
  0
LINE
  8
_0-0_
  6
CONTINUOUS
 62
    7
 10
1148.3890037892788
 20
456.42600547514053
 11
1146.2676834457188
 21
454.30468513158144
  0
LINE
  8
_0-0_
  6
CONTINUOUS
 62
    7
 10
1163.2382461941961
 20
458.54732581870053
 11
1168.187993662501
 21
453.59757835039477
  0
LINE
  8
_0-0_
  6
CONTINUOUS
 62
    7
 10
1163.2382461941961
 20
458.54732581870053
 11
1160.4098190694494
 21
455.71889869395477
  0
LINE
  8
_0-0_
  6
CONTINUOUS
 62
    7
 10
1154.7529648199588
 20
467.03260719293962
 11
1149.8032173516513
 21
471.98235466124538
  0
LINE
  8
_0-0_
  6
CONTINUOUS
 62
    7
 10
1154.7529648199588
 20
467.03260719293962
 11
1151.9245376952113
 21
464.20418006819386
  0
ARC
  8
_0-0_
  6
CONTINUOUS
 62
    7
 10
1144.8534698833464
 20
458.5473258480481
 40
2
 50
134.99999999999105
 51
225.00000000000901
  0
LINE
  8
_0-0_
  6
CONTINUOUS
 62
    7
 10
1149.8032173516513
 20
466.32550041175296
 11
1143.4392563209731
 21
459.96153941042144
  0
LINE
  8
_0-0_
  6
CONTINUOUS
 62
    7
 10
1151.9245376952113
 20
464.20418006819386
 11
1149.8032173516513
 21
466.32550041175296
  0
LINE
  8
_0-0_
  6
CONTINUOUS
 62
    7
 10
1162.5311394130094
 20
453.59757835039477
 11
1160.4098190694494
 21
455.71889869395477
  0
ARC
  8
_0-0_
  6
CONTINUOUS
 62
    7
 10
1154.7529648453738
 20
448.64783088392346
 40
2
 50
224.99999992569116
 51
314.99999999999102
  0
LINE
  8
_0-0_
  6
CONTINUOUS
 62
    7
 10
1156.1671784077462
 20
447.23361732155013
 11
1162.5311394130094
 21
453.59757835039477
  0
LINE
  8
_0-0_
  6
CONTINUOUS
 62
    7
 10
1143.4392563209731
 20
457.13311228567477
 11
1153.338751281166
 21
447.23361732338458
  0
LINE
  8
_0-0_
  6
CONTINUOUS
 62
    7
 10
1109.187993662501
 20
422.98235466124538
 11
1141.4969768281371
 21
422.98235466124538
  0
LINE
  8
_0-0_
  6
CONTINUOUS
 62
    7
 10
1137.187993662501
 20
436.48235466124538
 11
1149.187993662501
 21
436.48235466124538
  0
LINE
  8
_0-0_
  6
CONTINUOUS
 62
    7
 10
1105.187993662501
 20
433.49909282334397
 11
1125.187993662501
 21
434.12409282334306
  0
LINE
  8
_0-0_
  6
CONTINUOUS
 62
    7
 10
1104.187993662501
 20
432.46735466124505
 11
1125.2202485983125
 21
433.12461262798865
  0
LINE
  8
_0-0_
  6
CONTINUOUS
 62
    7
 10
1104.187993662501
 20
432.46735466124505
 11
1105.187993662501
 21
433.49909282334397
  0
LINE
  8
_0-0_
  6
CONTINUOUS
 62
    7
 10
1137.187993662501
 20
541.48235466124538
 11
1143.1879936625037
 21
541.48235466124538
  0
LINE
  8
_0-0_
  6
CONTINUOUS
 62
    7
 10
1109.1879936625055
 20
554.98235466124538
 11
1143.187993662501
 21
554.98235466124538
  0
ARC
  8
_0-0_
  6
CONTINUOUS
 62
    7
 10
1127.187993662501
 20
433.48235466124538
 40
2
 50
180
 51
270
  0
ARC
  8
_0-0_
  6
CONTINUOUS
 62
    7
 10
1135.187993662501
 20
433.48235466124538
 40
2
 50
270
 51
0
  0
LINE
  8
_0-0_
  6
CONTINUOUS
 62
    7
 10
1127.187993662501
 20
431.48235466124538
 11
1135.187993662501
 21
431.48235466124538
  0
ARC
  8
_0-0_
  6
CONTINUOUS
 62
    7
 10
1127.187993662501
 20
544.48235466124538
 40
2
 50
90
 51
180
  0
LINE
  8
_0-0_
  6
CONTINUOUS
 62
    7
 10
1127.187993662501
 20
546.48235466124538
 11
1135.187993662501
 21
546.48235466124538
  0
ARC
  8
_0-0_
  6
CONTINUOUS
 62
    7
 10
1135.187993662501
 20
544.48235466124538
 40
2
 50
0
 51
90
  0
LINE
  8
_0-0_
  6
CONTINUOUS
 62
    7
 10
1137.187993662501
 20
544.48235466124538
 11
1137.187993662501
 21
433.48235466124538
  0
LINE
  8
_0-0_
  6
CONTINUOUS
 62
    7
 10
1125.187993662501
 20
544.48235466124538
 11
1125.187993662501
 21
543.84061649914588
  0
LINE
  8
_0-0_
  6
CONTINUOUS
 62
    7
 10
1104.1879936625055
 20
545.4973546612448
 11
1105.1879936625046
 21
544.46561649914588
  0
LINE
  8
_0-0_
  6
CONTINUOUS
 62
    7
 10
1105.1879936625046
 20
544.46561649914588
 11
1125.187993662501
 21
543.84061649914588
  0
LINE
  8
_0-0_
  6
CONTINUOUS
 62
    7
 10
1104.1879936625055
 20
545.4973546612448
 11
1125.2202485983125
 21
544.84009669450029
  0
LINE
  8
_0-0_
  6
CONTINUOUS
 62
    7
 10
1104.1879936625055
 20
550.98235466124538
 11
1104.1879936625037
 21
545.4973546612448
  0
LINE
  8
_0-0_
  6
CONTINUOUS
 62
    7
 10
1154.187993662501
 20
657.98235466124538
 11
1154.187993662501
 21
732.03772351288558
  0
LINE
  8
_0-0_
  6
CONTINUOUS
 62
    7
 10
1004.1879936625011
 20
545.98235466124356
 11
1004.1879936625011
 21
732.03772351288558
  0
LINE
  8
_0-0_
  6
CONTINUOUS
 62
    7
 10
1004.1879936625011
 20
265.15071278623714
 11
1004.1879936625011
 21
431.98235466124447
  0
LINE
  8
_0-0_
  6
CONTINUOUS
 62
    7
 10
1354.187993662501
 20
265.15071278623714
 11
1354.187993662501
 21
308.86740542608936
  0
LINE
  8
_0-0_
  6
CONTINUOUS
 62
    7
 10
1004.187993662502
 20
641.62091466851803
 11
1094.6048025068685
 21
732.03772351288558
  0
LINE
  8
_0-0_
  6
CONTINUOUS
 62
    7
 10
1004.1879936625011
 20
648.69198248038197
 11
1087.5337346950055
 21
732.03772351288558
  0
LINE
  8
_0-0_
  6
CONTINUOUS
 62
    7
 10
1004.187993662502
 20
655.76305029224773
 11
1080.4626668831388
 21
732.03772351288467
  0
LINE
  8
_0-0_
  6
CONTINUOUS
 62
    7
 10
1066.1239961158826
 20
265.15071278623623
 11
1252.9556379908909
 21
451.98235466124538
  0
LINE
  8
_0-0_
  6
CONTINUOUS
 62
    7
 10
1073.1950639277475
 20
265.15071278623714
 11
1260.0267058027548
 21
451.98235466124538
  0
LINE
  8
_0-0_
  6
CONTINUOUS
 62
    7
 10
1080.2661317396123
 20
265.15071278623623
 11
1267.0977736146206
 21
451.98235466124538
  0
LINE
  8
_0-0_
  6
CONTINUOUS
 62
    7
 10
1129.6814680111947
 20
554.98235466124538
 11
1144.187993662501
 21
569.4888803125516
  0
LINE
  8
_0-0_
  6
CONTINUOUS
 62
    7
 10
1136.7525358230614
 20
554.98235466124538
 11
1144.187993662501
 21
562.41781250068584
  0
LINE
  8
_0-0_
  6
CONTINUOUS
 62
    7
 10
1004.1879936625011
 20
415.3467446888219
 11
1004.3594540130999
 21
415.51820503941985
  0
LINE
  8
_0-0_
  6
CONTINUOUS
 62
    7
 10
1143.8703888380023
 20
555.02913986432236
 11
1144.187993662501
 21
555.3467446888219
  0
LINE
  8
_0-0_
  6
CONTINUOUS
 62
    7
 10
1292.3981660955778
 20
265.15071278623714
 11
1451.7382376303931
 21
424.49078432105239
  0
LINE
  8
_0-0_
  6
CONTINUOUS
 62
    7
 10
1299.4692339074427
 20
265.15071278623623
 11
1451.7382376303931
 21
417.41971650918663
  0
LINE
  8
_0-0_
  6
CONTINUOUS
 62
    7
 10
1354.1879936625028
 20
457.98235466124538
 11
1451.7382376303931
 21
474.24072865589392
  0
LINE
  8
_0-0_
  6
CONTINUOUS
 62
    7
 10
1306.5403017193066
 20
265.15071278623623
 11
1451.7382376303931
 21
410.3486486973236
  0
LINE
  8
_0-0_
  6
CONTINUOUS
 62
    7
 10
1354.187993662501
 20
308.86740542608936
 11
1451.7382376303931
 21
308.86740542608936
  0
LINE
  8
_0-0_
  6
CONTINUOUS
 62
    2
 10
1090.0200256048001
 20
433.50360565944197
 11
1090.0169711208446
 21
433.50351020681796
  0
LINE
  8
_0-0_
  6
CONTINUOUS
 62
    2
 10
1090.0200256048001
 20
433.50360565944197
 11
1132.7679936625018
 21
434.83947966124492
  0
LINE
  8
_0-0_
  6
CONTINUOUS
 62
    2
 10
1088.6679936625242
 20
431.98235466124447
 11
1132.7679936625018
 21
433.36047966124374
  0
LINE
  8
_0-0_
  6
CONTINUOUS
 62
    2
 10
1089.1473807529319
 20
431.99733550782025
 11
1090.0200256048001
 21
433.50360565944197
  0
LINE
  8
_0-0_
  6
CONTINUOUS
 62
    2
 10
1088.6679936625242
 20
431.98235466124447
 11
966.12136130695046
 21
431.98235466124447
  0
LINE
  8
_0-0_
  6
CONTINUOUS
 62
    2
 10
1089.1473807529319
 20
545.96737381466869
 11
1090.0169711208446
 21
544.46119911567098
  0
LINE
  8
_0-0_
  6
CONTINUOUS
 62
    2
 10
1132.7679936625018
 20
543.12522966124402
 11
1090.0169711208446
 21
544.46119911567098
  0
LINE
  8
_0-0_
  6
CONTINUOUS
 62
    2
 10
1132.7679936625018
 20
544.60422966124429
 11
1088.6679936625242
 21
545.98235466124356
  0
LINE
  8
_0-0_
  6
CONTINUOUS
 62
    7
 10
1004.1298316232006
 20
575.98235466125175
 11
1024.0399755320714
 21
575.98235466125175
  0
LINE
  8
_0-0_
  6
CONTINUOUS
 62
    7
 10
1024.0399755320714
 20
575.98235466125175
 11
1024.1298316232005
 21
575.98235466125175
  0
LINE
  8
_0-0_
  6
CONTINUOUS
 62
    7
 10
1024.1298316232005
 20
575.98235466125175
 11
1024.1298316232005
 21
565.9823546612472
  0
LINE
  8
_0-0_
  6
DASHED2
 62
    5
 10
1353.9397060716083
 20
460.98235466124538
 11
1333.3272687711606
 21
460.98235466124538
  0
LINE
  8
_0-0_
  6
CONTINUOUS
 62
    4
 10
1160.187993662501
 20
558.60115681476259
 11
1160.187993662501
 21
732.03772351288558
  0
LINE
  8
_0-0_
  6
CONTINUOUS
 62
    4
 10
1158.187993662501
 20
555.13705519962446
 11
1156.187993662501
 21
553.98235466124538
  0
ARC
  8
_0-0_
  6
CONTINUOUS
 62
    4
 10
1156.187993662501
 20
558.60115681476259
 40
4
 50
299.9999999999979
 51
0.0000000000000508
  0
LINE
  8
_0-0_
  6
DASHED2
 62
    5
 10
1157.187993662501
 20
732.03772351288558
 11
1157.187993662501
 21
556.79175573800444
  0
LINE
  8
_0-0_
  6
CONTINUOUS
 62
    4
 10
1381.2312700151151
 20
477.6964737124265
 11
1449.2722528208124
 21
489.03663751337558
  0
LINE
  8
_0-0_
  6
DASHED2
 62
    5
 10
1353.9397060716083
 20
460.98235466124538
 11
1378.3318685157283
 21
465.04771506859856
  0
LINE
  8
_0-0_
  6
DASHED2
 62
    5
 10
1382.2176639389481
 20
471.77811016943383
 11
1431.5373601305546
 21
479.99805953470172
  0
LINE
  8
_0-0_
  6
DASHED2
 62
    5
 10
1382.2176639389481
 20
471.77811016943383
 11
1378.3318685157283
 21
465.04771506859856
  0
LINE
  8
_0-0_
  6
CONTINUOUS
 62
    2
 10
962.56085630694918
 20
491.38048716124536
 11
959.33749205694869
 21
494.22557091124531
  0
LINE
  8
_0-0_
  6
CONTINUOUS
 62
    2
 10
969.68216555694937
 20
434.38048716124422
 11
966.12136130695046
 21
431.98235466124447
  0
LINE
  8
_0-0_
  6
CONTINUOUS
 62
    2
 10
972.90552980694986
 20
437.22557091124395
 11
969.68216555694937
 21
434.38048716124422
  0
LINE
  8
_0-0_
  6
CONTINUOUS
 62
    2
 10
975.73144730694924
 20
440.46532266124518
 11
972.90552980694986
 21
437.22557091124395
  0
LINE
  8
_0-0_
  6
CONTINUOUS
 62
    2
 10
978.11169605694988
 20
444.04460916124367
 11
975.73144730694924
 21
440.46532266124518
  0
LINE
  8
_0-0_
  6
CONTINUOUS
 62
    2
 10
980.00640455694986
 20
447.90348066124511
 11
978.11169605694988
 21
444.04460916124367
  0
LINE
  8
_0-0_
  6
CONTINUOUS
 62
    2
 10
981.38313980695068
 20
451.97600241124337
 11
980.00640455694986
 21
447.90348066124511
  0
LINE
  8
_0-0_
  6
CONTINUOUS
 62
    2
 10
982.21851755694945
 20
456.19250616124373
 11
981.38313980695068
 21
451.97600241124337
  0
LINE
  8
_0-0_
  6
CONTINUOUS
 62
    2
 10
982.49860130695026
 20
460.48235466124584
 11
982.21851755694945
 21
456.19250616124373
  0
LINE
  8
_0-0_
  6
CONTINUOUS
 62
    2
 10
982.21851755694945
 20
464.77218891124426
 11
982.49860130695026
 21
460.48235466124584
  0
LINE
  8
_0-0_
  6
CONTINUOUS
 62
    2
 10
981.38313980695068
 20
468.98869266124461
 11
982.21851755694945
 21
464.77218891124426
  0
LINE
  8
_0-0_
  6
CONTINUOUS
 62
    2
 10
980.00640455694986
 20
473.06121441124537
 11
981.38313980695068
 21
468.98869266124461
  0
LINE
  8
_0-0_
  6
CONTINUOUS
 62
    2
 10
978.11169605694988
 20
476.92008591124431
 11
980.00640455694986
 21
473.06121441124537
  0
LINE
  8
_0-0_
  6
CONTINUOUS
 62
    2
 10
975.73144730694924
 20
480.4993724112453
 11
978.11169605694988
 21
476.92008591124431
  0
LINE
  8
_0-0_
  6
CONTINUOUS
 62
    2
 10
972.90552980694986
 20
483.73912416124404
 11
975.73144730694924
 21
480.4993724112453
  0
LINE
  8
_0-0_
  6
CONTINUOUS
 62
    2
 10
969.68216555694937
 20
486.58420791124377
 11
972.90552980694986
 21
483.73912416124404
  0
LINE
  8
_0-0_
  6
CONTINUOUS
 62
    2
 10
966.12136130695046
 20
488.98235466124311
 11
969.68216555694937
 21
486.58420791124377
  0
LINE
  8
_0-0_
  6
CONTINUOUS
 62
    2
 10
962.56085630694918
 20
486.58420791124377
 11
966.12164630695145
 21
488.98235466124311
  0
LINE
  8
_0-0_
  6
CONTINUOUS
 62
    2
 10
959.33749205694869
 20
483.73912416124404
 11
962.56085630694918
 21
486.58420791124377
  0
LINE
  8
_0-0_
  6
CONTINUOUS
 62
    2
 10
956.51157455694931
 20
480.4993724112453
 11
959.33749205694869
 21
483.73912416124404
  0
LINE
  8
_0-0_
  6
CONTINUOUS
 62
    2
 10
954.13132580694867
 20
476.92008591124431
 11
956.51157455694931
 21
480.4993724112453
  0
LINE
  8
_0-0_
  6
CONTINUOUS
 62
    2
 10
952.23661730695142
 20
473.06121441124537
 11
954.13132580694867
 21
476.92008591124431
  0
LINE
  8
_0-0_
  6
CONTINUOUS
 62
    2
 10
950.85988205694969
 20
468.98869266124461
 11
952.23661730695142
 21
473.06121441124537
  0
LINE
  8
_0-0_
  6
CONTINUOUS
 62
    2
 10
950.02450430695183
 20
464.77218891124426
 11
950.85988205694969
 21
468.98869266124461
  0
LINE
  8
_0-0_
  6
CONTINUOUS
 62
    2
 10
949.74440630695074
 20
460.48235466124584
 11
950.02450430695183
 21
464.77218891124426
  0
LINE
  8
_0-0_
  6
CONTINUOUS
 62
    2
 10
950.02450430695183
 20
456.19250616124373
 11
949.74440630695074
 21
460.48235466124584
  0
LINE
  8
_0-0_
  6
CONTINUOUS
 62
    2
 10
950.85988205694969
 20
451.97600241124337
 11
950.02450430695183
 21
456.19250616124373
  0
LINE
  8
_0-0_
  6
CONTINUOUS
 62
    2
 10
952.23661730695142
 20
447.90348066124511
 11
950.85988205694969
 21
451.97600241124337
  0
LINE
  8
_0-0_
  6
CONTINUOUS
 62
    2
 10
954.13132580694867
 20
444.04460916124367
 11
952.23661730695142
 21
447.90348066124511
  0
LINE
  8
_0-0_
  6
CONTINUOUS
 62
    2
 10
956.51157455694931
 20
440.46532266124518
 11
954.13132580694867
 21
444.04460916124367
  0
LINE
  8
_0-0_
  6
CONTINUOUS
 62
    2
 10
959.33749205694869
 20
437.22557091124395
 11
956.51157455694931
 21
440.46532266124518
  0
LINE
  8
_0-0_
  6
CONTINUOUS
 62
    2
 10
962.56085630694918
 20
434.38048716124422
 11
959.33749205694869
 21
437.22557091124395
  0
LINE
  8
_0-0_
  6
CONTINUOUS
 62
    2
 10
966.12164630695145
 20
431.98235466124447
 11
962.56085630694918
 21
434.38048716124422
  0
LINE
  8
_0-0_
  6
CONTINUOUS
 62
    2
 10
962.56085630694918
 20
543.58420791124377
 11
966.12164630695145
 21
545.98235466124584
  0
LINE
  8
_0-0_
  6
CONTINUOUS
 62
    2
 10
959.33749205694869
 20
540.73912416124404
 11
962.56085630694918
 21
543.58420791124377
  0
LINE
  8
_0-0_
  6
CONTINUOUS
 62
    2
 10
956.51157455694931
 20
537.4993724112453
 11
959.33749205694869
 21
540.73912416124404
  0
LINE
  8
_0-0_
  6
CONTINUOUS
 62
    2
 10
954.13132580694867
 20
533.92008591124431
 11
956.51157455694931
 21
537.4993724112453
  0
LINE
  8
_0-0_
  6
CONTINUOUS
 62
    2
 10
952.23661730695142
 20
530.06121441124537
 11
954.13132580694867
 21
533.92008591124431
  0
LINE
  8
_0-0_
  6
CONTINUOUS
 62
    2
 10
950.85988205694969
 20
525.98869266124461
 11
952.23661730695142
 21
530.06121441124537
  0
LINE
  8
_0-0_
  6
CONTINUOUS
 62
    2
 10
950.02450430695183
 20
521.77218891124426
 11
950.85988205694969
 21
525.98869266124461
  0
LINE
  8
_0-0_
  6
CONTINUOUS
 62
    2
 10
949.74440630695074
 20
517.48235466124584
 11
950.02450430695183
 21
521.77218891124426
  0
LINE
  8
_0-0_
  6
CONTINUOUS
 62
    2
 10
950.02450430695183
 20
513.19250616124509
 11
949.74440630695074
 21
517.48235466124584
  0
LINE
  8
_0-0_
  6
CONTINUOUS
 62
    2
 10
950.85988205694969
 20
508.97600241124474
 11
950.02450430695183
 21
513.19250616124509
  0
LINE
  8
_0-0_
  6
CONTINUOUS
 62
    2
 10
952.23661730695142
 20
504.90348066124375
 11
950.85988205694969
 21
508.97600241124474
  0
LINE
  8
_0-0_
  6
CONTINUOUS
 62
    2
 10
954.13132580694867
 20
501.04460916124503
 11
952.23661730695142
 21
504.90348066124375
  0
LINE
  8
_0-0_
  6
CONTINUOUS
 62
    2
 10
956.51157455694931
 20
497.46532266124382
 11
954.13132580694867
 21
501.04460916124503
  0
LINE
  8
_0-0_
  6
CONTINUOUS
 62
    2
 10
959.33749205694869
 20
494.22557091124531
 11
956.51157455694931
 21
497.46532266124382
  0
LINE
  8
_0-0_
  6
CONTINUOUS
 62
    2
 10
966.12164630695145
 20
488.98235466124311
 11
962.56085630694918
 21
491.38048716124536
  0
LINE
  8
_0-0_
  6
CONTINUOUS
 62
    2
 10
1088.6679936625242
 20
545.98235466124356
 11
966.12164630694781
 21
545.98235466124356
  0
LINE
  8
_0-0_
  6
CONTINUOUS
 62
    2
 10
1132.7679936625018
 20
438.58235466124484
 11
974.08900287486006
 21
438.58235466124484
  0
LINE
  8
_0-0_
  6
CONTINUOUS
 62
    2
 10
1132.7679936625018
 20
539.38235466124411
 11
958.15403141879426
 21
539.38235466124411
  0
LINE
  8
_0-0_
  6
CONTINUOUS
 62
    7
 10
1375.7702692144894
 20
475.04989922007508
 11
1413.4182346762591
 21
540.25808820145835
  0
POINT
  8
_0-0_
 62
    7
 10
1375.7702692144894
 20
475.04989922007508
  0
TEXT
  8
_0-0_
 62
    7
 10
1414.9753024272604
 20
526.93891376638976
 40
30
 41
1
 50
0
  1
防水層
  0
ARC
  8
_0-0_
  6
CONTINUOUS
 62
    7
 10
1095.2639348197963
 20
1140.1206578885569
 40
21.113053807878593
 50
72.412046226006396
 51
107.5879537739936
  0
LINE
  8
_0-0_
  6
CONTINUOUS
 62
    7
 10
1119.2944348197962
 20
1056.5730111400337
 11
1120.1484310980795
 21
1083.9008920451363
  0
LINE
  8
_0-0_
  6
CONTINUOUS
 62
    7
 10
1108.2639348197963
 20
1124.8230111400337
 11
1109.5639348197965
 21
1105.3230111400337
  0
LINE
  8
_0-0_
  6
CONTINUOUS
 62
    7
 10
1087.4639348197943
 20
1124.8230111400337
 11
1088.7639348197963
 21
1124.8230111400337
  0
LINE
  8
_0-0_
  6
CONTINUOUS
 62
    7
 10
1101.7639348197963
 20
1124.8230111400337
 11
1108.2639348197963
 21
1124.8230111400337
  0
LINE
  8
_0-0_
  6
CONTINUOUS
 62
    7
 10
1087.4639348197961
 20
1119.6230111400339
 11
1088.7639348197963
 21
1119.6230111400339
  0
LINE
  8
_0-0_
  6
CONTINUOUS
 62
    7
 10
1101.7639348197963
 20
1119.6230111400339
 11
1108.6106014864627
 21
1119.6230111400339
  0
LINE
  8
_0-0_
  6
CONTINUOUS
 62
    7
 10
1109.6553913359885
 20
1105.3230111400337
 11
1109.6553913359885
 21
1109.2230111400343
  0
LINE
  8
_0-0_
  6
CONTINUOUS
 62
    7
 10
1109.6553913359885
 20
1109.2230111400343
 11
1102.808936670277
 21
1109.2230111400343
  0
LINE
  8
_0-0_
  6
CONTINUOUS
 62
    7
 10
1107.3122687699552
 20
1109.2230111400343
 11
1107.3122687699552
 21
1105.3230111400337
  0
LINE
  8
_0-0_
  6
CONTINUOUS
 62
    7
 10
1088.8842143452503
 20
1118.3230111400337
 11
1088.8842143452503
 21
1110.7559573321553
  0
LINE
  8
_0-0_
  6
CONTINUOUS
 62
    7
 10
1101.6436552943424
 20
1110.7559573321553
 11
1101.6436552943424
 21
1118.3230111400337
  0
LINE
  8
_0-0_
  6
CONTINUOUS
 62
    7
 10
1102.808936670277
 20
1109.2230111400343
 11
1102.808936670277
 21
1107.9230111400341
  0
ARC
  8
_0-0_
  6
CONTINUOUS
 62
    7
 10
1100.2089366702767
 20
1107.9230111400341
 40
2.6000000000000001
 50
270
 51
0
  0
LINE
  8
_0-0_
  6
CONTINUOUS
 62
    7
 10
1266.2334348197955
 20
1056.5730111400337
 11
1265.3794385415104
 21
1083.9008920451363
  0
LINE
  8
_0-0_
  6
CONTINUOUS
 62
    7
 10
1265.0723723197962
 20
1093.7270111400078
 11
1258.2839348197958
 21
1093.7270111400078
  0
LINE
  8
_0-0_
  6
CONTINUOUS
 62
    7
 10
1120.4554973197955
 20
1093.7270111400078
 11
1127.2439348197968
 21
1093.7270111400078
  0
LINE
  8
_0-0_
  6
CONTINUOUS
 62
    7
 10
1325.1939652390156
 20
1125.6884292189982
 11
1324.1711827385043
 21
1101.9610406472577
  0
ARC
  8
_0-0_
  6
CONTINUOUS
 62
    7
 10
1321.5735948942238
 20
1102.0730111400337
 40
2.60000000000035
 50
270
 51
357.53176100726529
  0
LINE
  8
_0-0_
  6
CONTINUOUS
 62
    7
 10
1321.5735948942238
 20
1099.4730111400343
 11
1285.0639348197965
 21
1099.4730111400343
  0
LINE
  8
_0-0_
  6
CONTINUOUS
 62
    7
 10
1285.0639348197965
 20
1099.4730111400343
 11
1283.7639348197936
 21
1095.5730111400337
  0
LINE
  8
_0-0_
  6
CONTINUOUS
 62
    7
 10
1283.7639348197936
 20
1095.5730111400337
 11
1277.2639348197963
 21
1095.5730111400337
  0
LINE
  8
_0-0_
  6
CONTINUOUS
 62
    7
 10
1277.2639348197963
 20
1095.5730111400337
 11
1274.8257381913027
 21
1059.0000617126718
  0
ARC
  8
_0-0_
  6
CONTINUOUS
 62
    7
 10
1272.231496780877
 20
1059.1730111400341
 40
2.6000000000002306
 50
270
 51
356.18592516570902
  0
LINE
  8
_0-0_
  6
CONTINUOUS
 62
    7
 10
1272.231496780877
 20
1056.5730111400337
 11
1266.2334348197955
 21
1056.5730111400337
  0
LINE
  8
_0-0_
  6
CONTINUOUS
 62
    7
 10
1266.2334348197955
 20
1056.5730111400337
 11
1264.2215454037023
 21
1058.5230111400335
  0
LINE
  8
_0-0_
  6
CONTINUOUS
 62
    7
 10
1264.2215454037023
 20
1058.5230111400335
 11
1263.429357903703
 21
1083.8730111400339
  0
LINE
  8
_0-0_
  6
CONTINUOUS
 62
    7
 10
1263.429357903703
 20
1083.8730111400339
 11
1264.9139348197941
 21
1083.8730111400339
  0
ARC
  8
_0-0_
  6
CONTINUOUS
 62
    7
 10
1264.9139348197941
 20
1087.7730111400335
 40
3.9000000000000004
 50
270
 51
0
  0
LINE
  8
_0-0_
  6
CONTINUOUS
 62
    7
 10
1268.8139348197965
 20
1087.7730111400335
 11
1268.8139348197965
 21
1095.5730111400337
  0
ARC
  8
_0-0_
  6
CONTINUOUS
 62
    7
 10
1264.9139348197941
 20
1095.5730111400337
 40
3.9000000000000004
 50
0
 51
90
  0
LINE
  8
_0-0_
  6
CONTINUOUS
 62
    7
 10
1264.9139348197941
 20
1099.4730111400343
 11
1261.6639348197941
 21
1099.4730111400343
  0
LINE
  8
_0-0_
  6
CONTINUOUS
 62
    7
 10
1261.6639348197941
 20
1099.4730111400343
 11
1261.6639348197941
 21
1105.3230111400337
  0
LINE
  8
_0-0_
  6
CONTINUOUS
 62
    7
 10
1261.6639348197941
 20
1105.3230111400337
 11
1301.3139348197965
 21
1105.3230111400337
  0
ARC
  8
_0-0_
  6
CONTINUOUS
 62
    7
 10
1301.3139348197965
 20
1107.9230111400341
 40
2.5999999999998522
 50
270
 51
0.0000000000032314
  0
LINE
  8
_0-0_
  6
CONTINUOUS
 62
    7
 10
1303.9139348197941
 20
1107.9230111400341
 11
1303.9139348197959
 21
1117.0230111400335
  0
ARC
  8
_0-0_
  6
CONTINUOUS
 62
    7
 10
1301.3139348197965
 20
1117.0230111400335
 40
2.6000000000000001
 50
0
 51
90
  0
LINE
  8
_0-0_
  6
CONTINUOUS
 62
    7
 10
1301.3139348197965
 20
1119.6230111400339
 11
1298.0639348197965
 21
1119.6230111400339
  0
LINE
  8
_0-0_
  6
CONTINUOUS
 62
    7
 10
1298.0639348197965
 20
1119.6230111400339
 11
1298.0639348197965
 21
1124.8230111400337
  0
LINE
  8
_0-0_
  6
CONTINUOUS
 62
    7
 10
1298.0639348197965
 20
1124.8230111400337
 11
1298.7139348197943
 21
1124.8230111400337
  0
LINE
  8
_0-0_
  6
CONTINUOUS
 62
    7
 10
1298.7139348197943
 20
1124.8230111400337
 11
1302.6139348197939
 21
1126.6416110068378
  0
ARC
  8
_0-0_
  6
CONTINUOUS
 62
    7
 10
1303.7983045783667
 20
1127.1775851433251
 40
1.2999999999999889
 50
204.34863189823588
 51
295.00000000000523
  0
LINE
  8
_0-0_
  6
CONTINUOUS
 62
    7
 10
1304.347708318629
 20
1125.9993850201784
 11
1357.9986139592847
 21
1151.0172131873671
  0
ARC
  8
_0-0_
  6
CONTINUOUS
 62
    7
 10
1368.9866887645421
 20
1127.4532107244161
 40
25.999999999998103
 50
96.842773412628745
 51
114.99999999999869
  0
LINE
  8
_0-0_
  6
CONTINUOUS
 62
    7
 10
1427.4139348197941
 20
1148.8730111400339
 11
1419.6139348197939
 21
1148.8730111400339
  0
ARC
  8
_0-0_
  6
CONTINUOUS
 62
    7
 10
1412.6340956859858
 20
1145.3913670361474
 40
7.7999999999995007
 50
26.510680418713015
 51
96.842773412632056
  0
LINE
  8
_0-0_
  6
CONTINUOUS
 62
    7
 10
1411.7047629651606
 20
1153.1358063763448
 11
1366.5549348117229
 21
1147.7178269979324
  0
ARC
  8
_0-0_
  6
CONTINUOUS
 62
    7
 10
1368.9866887645458
 20
1127.4532107244152
 40
20.409999999999183
 50
96.842773412632894
 51
115.0000000000028
  0
LINE
  8
_0-0_
  6
CONTINUOUS
 62
    7
 10
1360.3610500424156
 20
1145.9509526578324
 11
1328.9409161483964
 21
1131.2995036027962
  0
ARC
  8
_0-0_
  6
CONTINUOUS
 62
    7
 10
1331.6879348497123
 20
1125.4085029870587
 40
6.4999999999994964
 50
114.9999999999974
 51
177.53176100726472
  0
LINE
  8
_0-0_
  6
CONTINUOUS
 62
    7
 10
1283.7639348197963
 20
1095.5730111400337
 11
1277.9139348197959
 21
1095.5730111400337
  0
LINE
  8
_0-0_
  6
CONTINUOUS
 62
    7
 10
1318.0839348197951
 20
1099.4730111400343
 11
1318.0839348197951
 21
1082.3130111400344
  0
ARC
  8
_0-0_
  6
CONTINUOUS
 62
    7
 10
1322.5039348197952
 20
1082.3130111400326
 40
4.4199999999998223
 50
179.99999999999611
 51
269.99999999999608
  0
LINE
  8
_0-0_
  6
CONTINUOUS
 62
    7
 10
1322.5039348197952
 20
1077.8930111400334
 11
1337.0639348197938
 21
1077.8930111400334
  0
LINE
  8
_0-0_
  6
CONTINUOUS
 62
    7
 10
1337.0639348197938
 20
1077.8930111400334
 11
1337.0639348197938
 21
1069.0530111400333
  0
LINE
  8
_0-0_
  6
CONTINUOUS
 62
    7
 10
1337.0639348197938
 20
1069.0530111400333
 11
1322.5039348197952
 21
1069.0530111400333
  0
ARC
  8
_0-0_
  6
CONTINUOUS
 62
    7
 10
1322.5039348197952
 20
1082.3130111400326
 40
13.260000000000053
 50
179.99999999999869
 51
269.99999999999881
  0
LINE
  8
_0-0_
  6
CONTINUOUS
 62
    7
 10
1309.243934819794
 20
1082.3130111400344
 11
1309.243934819794
 21
1099.4730111400343
  0
ARC
  8
_0-0_
  6
CONTINUOUS
 62
    7
 10
1088.3640285127876
 20
1105.9730111400343
 40
6.5000000000001066
 50
183.63572767233612
 51
269.99999999999739
  0
LINE
  8
_0-0_
  6
CONTINUOUS
 62
    7
 10
1084.2139348197961
 20
1109.7690111400336
 11
1088.8842143452503
 21
1110.7559573321553
  0
ARC
  8
_0-0_
  6
CONTINUOUS
 62
    7
 10
1095.2639348197963
 20
1130.8820649479123
 40
21.113053807878593
 50
252.41204622600637
 51
287.5879537739936
  0
LINE
  8
_0-0_
  6
CONTINUOUS
 62
    7
 10
1101.6436552943424
 20
1110.7559573321553
 11
1106.3139348197965
 21
1109.7690111400336
  0
LINE
  8
_0-0_
  6
CONTINUOUS
 62
    7
 10
1082.5044938707042
 20
1118.3230111400337
 11
1082.5044938707042
 21
1110.7559573321553
  0
LINE
  8
_0-0_
  6
CONTINUOUS
 62
    7
 10
1082.5044938707042
 20
1110.7559573321553
 11
1084.2139348197961
 21
1109.7690111400336
  0
LINE
  8
_0-0_
  6
CONTINUOUS
 62
    7
 10
1084.2139348197961
 20
1109.7690111400336
 11
1106.3139348197965
 21
1109.7690111400336
  0
LINE
  8
_0-0_
  6
CONTINUOUS
 62
    7
 10
1106.3139348197965
 20
1109.7690111400336
 11
1108.0233757688857
 21
1110.7559573321553
  0
LINE
  8
_0-0_
  6
CONTINUOUS
 62
    7
 10
1108.0233757688857
 20
1110.7559573321553
 11
1108.0233757688857
 21
1118.3230111400337
  0
LINE
  8
_0-0_
  6
CONTINUOUS
 62
    7
 10
1108.0233757688857
 20
1118.3230111400337
 11
1082.5044938707042
 21
1118.3230111400337
  0
ARC
  8
_0-0_
  6
CONTINUOUS
 62
    7
 10
1084.2139348197961
 20
1117.0230111400335
 40
2.6000000000000001
 50
90
 51
180
  0
LINE
  8
_0-0_
  6
CONTINUOUS
 62
    7
 10
1084.2139348197961
 20
1119.6230111400339
 11
1087.4639348197961
 21
1119.6230111400339
  0
LINE
  8
_0-0_
  6
CONTINUOUS
 62
    7
 10
1087.4639348197961
 20
1119.6230111400339
 11
1087.4639348197943
 21
1124.8230111400337
  0
LINE
  8
_0-0_
  6
CONTINUOUS
 62
    7
 10
1087.4639348197943
 20
1124.8230111400337
 11
1086.8139348197965
 21
1124.8230111400337
  0
LINE
  8
_0-0_
  6
CONTINUOUS
 62
    7
 10
1086.8139348197965
 20
1124.8230111400337
 11
1082.9139348197959
 21
1126.6416110068378
  0
ARC
  8
_0-0_
  6
CONTINUOUS
 62
    7
 10
1081.7295650612259
 20
1127.1775851433251
 40
1.2999999999999889
 50
244.99999999999474
 51
335.65136810176409
  0
LINE
  8
_0-0_
  6
CONTINUOUS
 62
    7
 10
1081.1801613209636
 20
1125.9993850201784
 11
1027.5292556803061
 21
1151.0172131873671
  0
ARC
  8
_0-0_
  6
CONTINUOUS
 62
    7
 10
1016.5411808750488
 20
1127.4532107244161
 40
25.999999999998103
 50
65.000000000001222
 51
83.157226587371255
  0
LINE
  8
_0-0_
  6
CONTINUOUS
 62
    7
 10
958.11393481979678
 20
1148.8730111400339
 11
965.91393481979605
 21
1148.8730111400339
  0
ARC
  8
_0-0_
  6
CONTINUOUS
 62
    7
 10
972.89377395360691
 20
1145.3913670361474
 40
7.7999999999995007
 50
83.157226587367944
 51
153.48931958128696
  0
LINE
  8
_0-0_
  6
CONTINUOUS
 62
    7
 10
973.82310667442937
 20
1153.1358063763448
 11
1018.9729348278698
 21
1147.7178269979324
  0
ARC
  8
_0-0_
  6
CONTINUOUS
 62
    7
 10
1016.541180875047
 20
1127.4532107244152
 40
20.409999999999183
 50
64.999999999997172
 51
83.15722658736712
  0
LINE
  8
_0-0_
  6
CONTINUOUS
 62
    7
 10
1025.1668195971743
 20
1145.9509526578324
 11
1070.9359830574667
 21
1124.6084412289504
  0
ARC
  8
_0-0_
  6
CONTINUOUS
 62
    7
 10
1068.1889643561544
 20
1118.717440613211
 40
6.4999999999995151
 50
3.1676287693983731
 51
65.000000000008328
  0
LINE
  8
_0-0_
  6
CONTINUOUS
 62
    7
 10
1074.679033286392
 20
1119.0766136644691
 11
1075.4240894997965
 21
1105.613838088778
  0
ARC
  8
_0-0_
  6
CONTINUOUS
 62
    7
 10
1081.914158430036
 20
1105.9730111400343
 40
6.5000000000003331
 50
183.16762876939401
 51
270.00000000000261
  0
LINE
  8
_0-0_
  6
CONTINUOUS
 62
    7
 10
1081.914158430036
 20
1099.4730111400343
 11
1100.4639348197961
 21
1099.4730111400343
  0
LINE
  8
_0-0_
  6
CONTINUOUS
 62
    7
 10
1100.4639348197961
 20
1099.4730111400343
 11
1101.7639348197963
 21
1095.5730111400337
  0
LINE
  8
_0-0_
  6
CONTINUOUS
 62
    7
 10
1101.7639348197963
 20
1095.5730111400337
 11
1108.2639348197963
 21
1095.5730111400337
  0
LINE
  8
_0-0_
  6
CONTINUOUS
 62
    7
 10
1108.2639348197963
 20
1095.5730111400337
 11
1110.7021314482872
 21
1059.0000617126718
  0
ARC
  8
_0-0_
  6
CONTINUOUS
 62
    7
 10
1113.2963728587156
 20
1059.1730111400341
 40
2.5999999999999157
 50
183.8140748342849
 51
269.99999999999352
  0
LINE
  8
_0-0_
  6
CONTINUOUS
 62
    7
 10
1113.2963728587129
 20
1056.5730111400337
 11
1119.2944348197962
 21
1056.5730111400337
  0
LINE
  8
_0-0_
  6
CONTINUOUS
 62
    7
 10
1119.2944348197962
 20
1056.5730111400337
 11
1121.3063242358876
 21
1058.5230111400335
  0
LINE
  8
_0-0_
  6
CONTINUOUS
 62
    7
 10
1121.3063242358876
 20
1058.5230111400335
 11
1122.0985117358878
 21
1083.8730111400339
  0
LINE
  8
_0-0_
  6
CONTINUOUS
 62
    7
 10
1122.0985117358878
 20
1083.8730111400339
 11
1120.6139348197967
 21
1083.8730111400339
  0
ARC
  8
_0-0_
  6
CONTINUOUS
 62
    7
 10
1120.6139348197967
 20
1087.7730111400335
 40
3.9000000000000004
 50
180
 51
270
  0
LINE
  8
_0-0_
  6
CONTINUOUS
 62
    7
 10
1116.7139348197961
 20
1087.7730111400335
 11
1116.7139348197961
 21
1095.5730111400337
  0
ARC
  8
_0-0_
  6
CONTINUOUS
 62
    7
 10
1120.6139348197967
 20
1095.5730111400337
 40
3.9000000000000004
 50
90
 51
180
  0
LINE
  8
_0-0_
  6
CONTINUOUS
 62
    7
 10
1120.6139348197967
 20
1099.4730111400343
 11
1123.8639348197967
 21
1099.4730111400343
  0
LINE
  8
_0-0_
  6
CONTINUOUS
 62
    7
 10
1123.8639348197967
 20
1099.4730111400343
 11
1123.8639348197967
 21
1105.3230111400337
  0
LINE
  8
_0-0_
  6
CONTINUOUS
 62
    7
 10
1123.8639348197967
 20
1105.3230111400337
 11
1084.2139348197961
 21
1105.3230111400337
  0
ARC
  8
_0-0_
  6
CONTINUOUS
 62
    7
 10
1084.2139348197961
 20
1107.9230111400341
 40
2.5999999999998522
 50
179.9999999999967
 51
270
  0
LINE
  8
_0-0_
  6
CONTINUOUS
 62
    7
 10
1081.6139348197967
 20
1107.9230111400341
 11
1081.6139348197967
 21
1117.0230111400335
  0
LINE
  8
_0-0_
  6
CONTINUOUS
 62
    7
 10
1101.7639348197963
 20
1095.5730111400337
 11
1107.6139348197967
 21
1095.5730111400337
  0
LINE
  8
_0-0_
  6
CONTINUOUS
 62
    7
 10
1426.7914442751271
 20
1160.0778409440647
 11
1427.4139348197941
 21
1148.8730111400339
  0
LINE
  8
_0-0_
  6
CONTINUOUS
 62
    7
 10
1365.8889130284642
 20
1153.2680085250743
 11
1422.6375165200643
 21
1160.0778409440647
  0
LINE
  8
_0-0_
  6
CONTINUOUS
 62
    7
 10
1422.6375165200643
 20
1160.0778409440647
 11
1426.7914442751271
 21
1160.0778409440647
  0
LINE
  8
_0-0_
  6
CONTINUOUS
 62
    7
 10
958.7364253644638
 20
1160.0778409440647
 11
958.11393481979678
 21
1148.8730111400339
  0
LINE
  8
_0-0_
  6
CONTINUOUS
 62
    7
 10
1019.6389566111285
 20
1153.2680085250743
 11
962.89035311952841
 21
1160.0778409440647
  0
LINE
  8
_0-0_
  6
CONTINUOUS
 62
    7
 10
958.7364253644638
 20
1160.0778409440647
 11
962.89035311952841
 21
1160.0778409440647
  0
LINE
  8
_0-0_
  6
CONTINUOUS
 62
    7
 10
1283.7639348197963
 20
1049.2135100193266
 11
1310.7416502036258
 21
1076.191225403157
  0
LINE
  8
_0-0_
  6
CONTINUOUS
 62
    7
 10
1283.7639348197963
 20
1040.0211218639017
 11
1315.073369769465
 21
1071.3305568135713
  0
LINE
  8
_0-0_
  6
CONTINUOUS
 62
    7
 10
1283.7639348197963
 20
1030.8287337084778
 11
1321.9978725944202
 21
1069.0626714831026
  0
LINE
  8
_0-0_
  6
CONTINUOUS
 62
    7
 10
1330.828212251351
 20
1077.8930111400334
 11
1405.3027681043668
 21
1152.3675669930492
  0
LINE
  8
_0-0_
  6
CONTINUOUS
 62
    7
 10
1322.0698794578611
 20
1078.3270665019675
 11
1394.8568724732031
 21
1151.1140595173104
  0
LINE
  8
_0-0_
  6
CONTINUOUS
 62
    7
 10
1318.0839348197951
 20
1083.5335100193254
 11
1384.4109768420394
 21
1149.8605520415706
  0
LINE
  8
_0-0_
  6
CONTINUOUS
 62
    7
 10
958.7364253644638
 20
1160.0778409440647
 11
887.2364253644638
 21
1160.0778409440647
  0
LINE
  8
_0-0_
  6
CONTINUOUS
 62
    7
 10
887.2364253644638
 20
946.84242153759919
 11
1066.8893984483966
 21
1126.4953946215312
  0
LINE
  8
_0-0_
  6
CONTINUOUS
 62
    7
 10
887.2364253644638
 20
937.65003338217525
 11
1072.8422336906597
 21
1123.2558417083703
  0
LINE
  8
_0-0_
  6
CONTINUOUS
 62
    7
 10
887.2364253644638
 20
928.4576452267504
 11
1074.8456010761465
 21
1116.0668209384314
  0
LINE
  8
_0-0_
  6
CONTINUOUS
 62
    7
 10
1118.6639348197959
 20
926.57301114003371
 11
887.2364253644638
 21
926.57301114003371
  0
LINE
  8
_0-0_
  6
CONTINUOUS
 62
    7
 10
1426.7914442751271
 20
1160.0778409440647
 11
1498.2914442751271
 21
1160.0778409440647
  0
LINE
  8
_0-0_
  6
CONTINUOUS
 62
    7
 10
1455.2798569141069
 20
926.57301114003371
 11
1498.2914442751271
 21
969.58459850105487
  0
LINE
  8
_0-0_
  6
CONTINUOUS
 62
    7
 10
1464.4722450695308
 20
926.57301114003371
 11
1498.2914442751271
 21
960.39221034563002
  0
LINE
  8
_0-0_
  6
CONTINUOUS
 62
    7
 10
1473.6646332249547
 20
926.57301114003371
 11
1498.2914442751271
 21
951.19982219020608
  0
LINE
  8
_0-0_
  6
CONTINUOUS
 62
    7
 10
1266.8639348197967
 20
926.57301114003371
 11
1498.2914442751271
 21
926.57301114003371
  0
LINE
  8
_0-0_
  6
CONTINUOUS
 62
    2
 10
1120.4554973197955
 20
1093.7270111400078
 11
1118.6834099203434
 21
1037.0202143575673
  0
LINE
  8
_0-0_
  6
CONTINUOUS
 62
    2
 10
1118.6834099203434
 20
1037.0202143575673
 11
1120.6414370290422
 21
1038.1506818358532
  0
LINE
  8
_0-0_
  6
CONTINUOUS
 62
    2
 10
1122.3781973197965
 20
1093.7270111400078
 11
1120.6414370290422
 21
1038.1506818358532
  0
LINE
  8
_0-0_
  6
CONTINUOUS
 62
    2
 10
1101.7639348197963
 20
1095.5730111400337
 11
1101.7639348197963
 21
926.57301114003371
  0
LINE
  8
_0-0_
  6
CONTINUOUS
 62
    2
 10
1107.6139348197967
 20
1095.5730111400337
 11
1107.6139348197967
 21
926.57301114003371
  0
LINE
  8
_0-0_
  6
CONTINUOUS
 62
    2
 10
1264.8864326105504
 20
1038.1506818358532
 11
1266.8444597192474
 21
1037.0202143575655
  0
LINE
  8
_0-0_
  6
CONTINUOUS
 62
    2
 10
1266.8444597192474
 20
1037.0202143575655
 11
1265.0723723197962
 21
1093.7270111400078
  0
LINE
  8
_0-0_
  6
CONTINUOUS
 62
    2
 10
1263.1496723197961
 20
1093.7270111400078
 11
1264.8864326105504
 21
1038.1506818358532
  0
LINE
  8
_0-0_
  6
CONTINUOUS
 62
    2
 10
1266.8639348197967
 20
1036.3970111400379
 11
1266.8639348197967
 21
891.13620736748112
  0
LINE
  8
_0-0_
  6
CONTINUOUS
 62
    2
 10
1277.2639348197963
 20
1095.5730111400337
 11
1277.2639348197963
 21
926.57301114003371
  0
LINE
  8
_0-0_
  6
CONTINUOUS
 62
    2
 10
1283.7639348197963
 20
1095.5730111400337
 11
1283.7639348197963
 21
926.57301114003371
  0
LINE
  8
_0-0_
  6
CONTINUOUS
 62
    3
 10
1465.7914442751271
 20
1160.0778409440647
 11
1465.7914442751271
 21
1167.8778409440649
  0
LINE
  8
_0-0_
  6
CONTINUOUS
 62
    3
 10
1465.7914442751271
 20
1167.8778409440649
 11
1498.2914442751271
 21
1167.8778409440649
  0
LINE
  8
_0-0_
  6
CONTINUOUS
 62
    3
 10
919.7364253644638
 20
1167.8778409440649
 11
919.7364253644638
 21
1160.0778409440647
  0
LINE
  8
_0-0_
  6
CONTINUOUS
 62
    3
 10
919.7364253644638
 20
1167.8778409440649
 11
887.2364253644638
 21
1167.8778409440649
  0
LINE
  8
_0-0_
  6
DASHED2
 62
    5
 10
919.7364253644638
 20
1171.7778409440655
 11
887.2364253644638
 21
1171.7778409440655
  0
LINE
  8
_0-0_
  6
DASHED2
 62
    5
 10
984.7364253644638
 20
1161.3842919080219
 11
963.12351673077058
 21
1163.9778409440653
  0
LINE
  8
_0-0_
  6
DASHED2
 62
    5
 10
919.7364253644638
 20
1171.7778409440655
 11
927.53642536446398
 21
1163.9778409440653
  0
LINE
  8
_0-0_
  6
DASHED2
 62
    5
 10
927.53642536446398
 20
1163.9778409440653
 11
963.12351673077058
 21
1163.9778409440653
  0
LINE
  8
_0-0_
  6
DASHED2
 62
    5
 10
1422.4043529088221
 20
1163.9778409440653
 11
1457.9914442751269
 21
1163.9778409440653
  0
LINE
  8
_0-0_
  6
DASHED2
 62
    5
 10
1465.7914442751271
 20
1171.7778409440655
 11
1457.9914442751269
 21
1163.9778409440653
  0
LINE
  8
_0-0_
  6
DASHED2
 62
    5
 10
1465.7914442751271
 20
1171.7778409440655
 11
1498.2914442751271
 21
1171.7778409440655
  0
LINE
  8
_0-0_
  6
DASHED2
 62
    5
 10
1400.7914442751271
 20
1161.3842919080219
 11
1422.4043529088221
 21
1163.9778409440653
  0
ARC
  8
_0-0_
  6
CONTINUOUS
 62
    4
 10
1016.5411808750488
 20
1127.4532107244161
 40
37.699999999998106
 50
65.000000000000753
 51
83.157226587368996
  0
ARC
  8
_0-0_
  6
CONTINUOUS
 62
    4
 10
1368.9866887645421
 20
1127.4532107244161
 40
37.699999999998106
 50
96.84277341263099
 51
114.99999999999869
  0
LINE
  8
_0-0_
  6
CONTINUOUS
 62
    4
 10
1080.9741005813794
 20
1133.8811709428803
 11
1082.9139348197978
 21
1126.6416110068378
  0
ARC
  8
_0-0_
  6
CONTINUOUS
 62
    4
 10
1068.4170648396212
 20
1130.5165233565479
 40
13
 50
14.999999999997591
 51
64.999999999999645
  0
LINE
  8
_0-0_
  6
CONTINUOUS
 62
    4
 10
1073.9111022422503
 20
1142.2985245880238
 11
1032.473889342672
 21
1161.6210142956963
  0
LINE
  8
_0-0_
  6
CONTINUOUS
 62
    4
 10
1304.5537690582132
 20
1133.881170942883
 11
1302.6139348197939
 21
1126.6416110068378
  0
ARC
  8
_0-0_
  6
CONTINUOUS
 62
    4
 10
1317.1108047999714
 20
1130.5165233565497
 40
13
 50
114.9999999999991
 51
164.99999999999758
  0
LINE
  8
_0-0_
  6
CONTINUOUS
 62
    4
 10
1311.6167673973423
 20
1142.2985245880257
 11
1353.0539802969197
 21
1161.6210142956963
  0
LINE
  8
_0-0_
  6
CONTINUOUS
 62
    7
 10
1149.0711742852582
 20
1332.6639348183976
 11
1137.5306832402912
 21
1222.8537116964367
  0
LINE
  8
_0-0_
  6
CONTINUOUS
 62
    7
 10
1150.5129571376474
 20
1332.6639348183976
 11
1139.381895213427
 21
1222.8537116964367
  0
LINE
  8
_0-0_
  6
CONTINUOUS
 62
    7
 10
1154.2812186261208
 20
1332.6639348183976
 11
1143.6613645988928
 21
1222.8537116964367
  0
LINE
  8
_0-0_
  6
CONTINUOUS
 62
    7
 10
1158.3870686854771
 20
1332.6639348183976
 11
1149.6318598408161
 21
1222.8537116964367
  0
LINE
  8
_0-0_
  6
CONTINUOUS
 62
    7
 10
1165.3499078325713
 20
1332.6639348183976
 11
1157.5359636702769
 21
1222.8537116964367
  0
LINE
  8
_0-0_
  6
CONTINUOUS
 62
    7
 10
1171.49474633717
 20
1332.6639348183976
 11
1166.4692400052018
 21
1222.8537116964367
  0
LINE
  8
_0-0_
  6
CONTINUOUS
 62
    7
 10
1168.9487182066532
 20
1330.146479746541
 11
1164.2573457539083
 21
1222.8537116964367
  0
LINE
  8
_0-0_
  6
CONTINUOUS
 62
    7
 10
1187.8404644738312
 20
1332.6639348183967
 11
1187.176551663295
 21
1222.8537116964367
  0
LINE
  8
_0-0_
  6
CONTINUOUS
 62
    7
 10
1180.5921343850168
 20
1332.6639348183976
 11
1176.6411280310194
 21
1222.8537116964367
  0
LINE
  8
_0-0_
  6
CONTINUOUS
 62
    7
 10
1123.4073140410101
 20
1222.8537116964367
 11
1137.3286203733405
 21
1330.146479746541
  0
LINE
  8
_0-0_
  6
CONTINUOUS
 62
    7
 10
1137.5306832402912
 20
1222.8537116964367
 11
1148.7946513665702
 21
1332.6639348183976
  0
ARC
  8
_0-0_
  6
CONTINUOUS
 62
    7
 10
1188.464131877663
 20
1328.7398599686016
 40
39.587920775204189
 50
124.68969967770408
 51
174.31132682798057
  0
ARC
  8
_0-0_
  6
CONTINUOUS
 62
    7
 10
1195.2616958768649
 20
1327.0259273529559
 40
45.102513754016279
 50
130.5611149858679
 51
172.81899678837351
  0
ARC
  8
_0-0_
  6
CONTINUOUS
 62
    7
 10
1239.5689648300058
 20
1315.8072659379318
 40
82.91349436229693
 50
146.73123202862931
 51
168.26974837793162
  0
ARC
  8
_0-0_
  6
CONTINUOUS
 62
    7
 10
1237.7315995455565
 20
1326.2341991103972
 40
68.894054206858144
 50
149.4127934948398
 51
176.7445983295145
  0
LINE
  8
_0-0_
  6
CONTINUOUS
 62
    7
 10
1170.0139348197963
 20
1374.0149249605179
 11
1163.5139348197963
 21
1361.2909641474166
  0
ARC
  8
_0-0_
  6
CONTINUOUS
 62
    7
 10
1192.7639348197963
 20
1328.1537116964359
 40
44.200000000000003
 50
90
 51
174.1432732788721
  0
ARC
  8
_0-0_
  6
CONTINUOUS
 62
    7
 10
1192.7639348197963
 20
1322.9537116964361
 40
55.899999999999999
 50
114.01505955209538
 51
172.60713762184369
  0
ARC
  8
_0-0_
  6
CONTINUOUS
 62
    7
 10
1192.7639348197963
 20
1322.9537116964361
 40
55.899999999999999
 50
90
 51
114.01505955209539
  0
ARC
  8
_0-0_
  6
CONTINUOUS
 62
    7
 10
1228.7237548474714
 20
1313.2728829614366
 40
76.926614972885872
 50
142.6419447561469
 51
165.39983884082369
  0
ARC
  8
_0-0_
  6
CONTINUOUS
 62
    7
 10
1229.5665233736499
 20
1324.930706407486
 40
64.680573074195664
 50
147.21812883023429
 51
173.13327334519269
  0
ARC
  8
_0-0_
  6
CONTINUOUS
 62
    7
 10
1256.994998002905
 20
1327.7092583254648
 40
85.643691268262529
 50
157.8848313247052
 51
176.68346097942035
  0
LINE
  8
_0-0_
  6
CONTINUOUS
 62
    7
 10
1188.6604921029011
 20
1359.9514995716286
 11
1187.8404644738312
 21
1332.6639348183976
  0
ARC
  8
_0-0_
  6
CONTINUOUS
 62
    7
 10
1251.7880178996684
 20
1334.0115421393562
 40
71.208636238336283
 50
158.63665544024138
 51
181.08437439111992
  0
ARC
  8
_0-0_
  6
CONTINUOUS
 62
    7
 10
1170.6676553501247
 20
1357.065544015843
 40
4.2278941523737537
 50
95.923695623685006
 51
136.95294075373349
  0
ARC
  8
_0-0_
  6
CONTINUOUS
 62
    7
 10
1178.2768269128819
 20
1357.065544015843
 40
4.2278941523732207
 50
88.008350953769693
 51
136.95294075373349
  0
ARC
  8
_0-0_
  6
CONTINUOUS
 62
    7
 10
1187.0663431123576
 20
1359.6726024407267
 40
1.6183617066894889
 50
9.923492499975378
 51
170.0765075000246
  0
LINE
  8
_0-0_
  6
CONTINUOUS
 62
    7
 10
1123.4073140410101
 20
1222.8537116964367
 11
1137.5306832402912
 21
1222.8537116964367
  0
LINE
  8
_0-0_
  6
CONTINUOUS
 62
    7
 10
1187.4782965233699
 20
1205.9537116964361
 11
1173.6720016679046
 21
1205.9537116964361
  0
LINE
  8
_0-0_
  6
CONTINUOUS
 62
    7
 10
1134.1698581279497
 20
1205.9537116950573
 11
1127.2695218552062
 21
1150.4258042888807
  0
LINE
  8
_0-0_
  6
CONTINUOUS
 62
    7
 10
1121.1585294144015
 20
1205.9537116964361
 11
1113.5746826138602
 21
1149.8332453724272
  0
LINE
  8
_0-0_
  6
CONTINUOUS
 62
    7
 10
1127.0617026580076
 20
1205.9537116950573
 11
1119.3719883317581
 21
1149.0498256808189
  0
LINE
  8
_0-0_
  6
CONTINUOUS
 62
    7
 10
1039.6269374093463
 20
1173.7484254526919
 11
1040.6245932835363
 21
1165.0037116964361
  0
LINE
  8
_0-0_
  6
CONTINUOUS
 62
    7
 10
1045.4190143569294
 20
1176.0537116964363
 11
1052.0154781225729
 21
1176.0537116964363
  0
LINE
  8
_0-0_
  6
CONTINUOUS
 62
    7
 10
1036.4759837138445
 20
1176.0537116964363
 11
1037.0436945245447
 21
1176.0537116964363
  0
LINE
  8
_0-0_
  6
CONTINUOUS
 62
    7
 10
1127.4674901019825
 20
1205.9537116950573
 11
1123.4862374019176
 21
1205.9537116950573
  0
LINE
  8
_0-0_
  6
CONTINUOUS
 62
    7
 10
1077.44478663881
 20
1165.0037116964361
 11
1048.1374485598162
 21
1165.0037116964361
  0
LINE
  8
_0-0_
  6
CONTINUOUS
 62
    7
 10
1030.2639348197963
 20
1163.7990839015804
 11
1030.2639348197963
 21
1163.938348174411
  0
LINE
  8
_0-0_
  6
CONTINUOUS
 62
    7
 10
1111.1565184832252
 20
1148.7537116964361
 11
1075.4728307418181
 21
1148.7537116964361
  0
LINE
  8
_0-0_
  6
CONTINUOUS
 62
    7
 10
1083.9676961547493
 20
1165.0037116964361
 11
1088.7639348197963
 21
1165.0037116964361
  0
LINE
  8
_0-0_
  6
CONTINUOUS
 62
    7
 10
1083.9676961547493
 20
1165.0037116964361
 11
1081.9043480371183
 21
1165.0037116964361
  0
LINE
  8
_0-0_
  6
CONTINUOUS
 62
    7
 10
1101.7639348197963
 20
1138.3537116964364
 11
1192.7639348197963
 21
1138.3537116964364
  0
LINE
  8
_0-0_
  6
CONTINUOUS
 62
    7
 10
1104.363934819874
 20
1148.7537116964361
 11
1103.0639348198747
 21
1138.3537116964364
  0
LINE
  8
_0-0_
  6
CONTINUOUS
 62
    7
 10
1101.7639348197963
 20
1165.0037116964361
 11
1115.6247456306173
 21
1165.0037116964361
  0
ARC
  8
_0-0_
  6
CONTINUOUS
 62
    7
 10
1111.1565184832252
 20
1151.3537116964364
 40
2.6000000000000001
 50
270
 51
352.30394827797369
  0
LINE
  8
_0-0_
  6
CONTINUOUS
 62
    7
 10
1151.9207892652003
 20
1205.9537116950573
 11
1147.1108928600061
 21
1150.4258042888807
  0
LINE
  8
_0-0_
  6
CONTINUOUS
 62
    7
 10
1136.0749754747303
 20
1150.4258042888807
 11
1141.6521656954219
 21
1205.9537116950573
  0
LINE
  8
_0-0_
  6
CONTINUOUS
 62
    7
 10
1157.5359636702769
 20
1222.8537116964367
 11
1166.4692400052018
 21
1222.8537116964367
  0
LINE
  8
_0-0_
  6
CONTINUOUS
 62
    7
 10
1143.6613645988928
 20
1222.8537116964367
 11
1149.6318598408161
 21
1222.8537116964367
  0
LINE
  8
_0-0_
  6
CONTINUOUS
 62
    7
 10
1137.5306832402912
 20
1222.8537116964367
 11
1139.381895213427
 21
1222.8537116964367
  0
LINE
  8
_0-0_
  6
CONTINUOUS
 62
    7
 10
1141.6521656954219
 20
1205.9537116950573
 11
1134.1698581279497
 21
1205.9537116950573
  0
LINE
  8
_0-0_
  6
CONTINUOUS
 62
    7
 10
1162.0016749803426
 20
1205.9537116950573
 11
1151.9207892652003
 21
1205.9537116950573
  0
LINE
  8
_0-0_
  6
CONTINUOUS
 62
    7
 10
1174.5980065262393
 20
1205.9537116950573
 11
1186.0615667937791
 21
1205.9537116950573
  0
LINE
  8
_0-0_
  6
CONTINUOUS
 62
    7
 10
1176.6411280310194
 20
1222.8537116964367
 11
1187.176551663295
 21
1222.8537116964367
  0
LINE
  8
_0-0_
  6
CONTINUOUS
 62
    7
 10
1186.5162954115567
 20
1176.0537116964363
 11
1172.4741670128533
 21
1176.0537116964363
  0
LINE
  8
_0-0_
  6
CONTINUOUS
 62
    7
 10
1156.0140552613229
 20
1165.0037116964361
 11
1148.3736493316637
 21
1165.0037116964361
  0
LINE
  8
_0-0_
  6
CONTINUOUS
 62
    7
 10
1156.0140552613229
 20
1165.0037116964361
 11
1148.3736493316637
 21
1165.0037116964361
  0
LINE
  8
_0-0_
  6
CONTINUOUS
 62
    7
 10
1156.0140552613229
 20
1165.0037116964361
 11
1148.3736493316637
 21
1165.0037116964361
  0
LINE
  8
_0-0_
  6
CONTINUOUS
 62
    7
 10
1148.3736493316637
 20
1165.0037116964361
 11
1158.4845226612006
 21
1165.0037116964361
  0
LINE
  8
_0-0_
  6
CONTINUOUS
 62
    7
 10
1172.0314889881583
 20
1165.0037116964361
 11
1186.3529681655964
 21
1165.0037116964361
  0
LINE
  8
_0-0_
  6
CONTINUOUS
 62
    7
 10
1169.6016767886258
 20
1144.2037116964359
 11
1178.8610022639632
 21
1144.2037116964359
  0
LINE
  8
_0-0_
  6
CONTINUOUS
 62
    7
 10
1122.5639348198056
 20
1216.3537116964367
 11
1121.1585294137731
 21
1205.9537116917804
  0
LINE
  8
_0-0_
  6
CONTINUOUS
 62
    7
 10
1122.5639348198056
 20
1216.3537116964367
 11
1131.6639348197959
 21
1216.3537116964367
  0
LINE
  8
_0-0_
  6
CONTINUOUS
 62
    7
 10
1127.7644053608974
 20
1211.1537116964359
 11
1127.0617026578175
 21
1205.9537116936576
  0
LINE
  8
_0-0_
  6
CONTINUOUS
 62
    7
 10
1127.7639348197963
 20
1216.3537116964367
 11
1122.5639348197965
 21
1216.3537116964367
  0
LINE
  8
_0-0_
  6
CONTINUOUS
 62
    7
 10
1123.4073140410101
 20
1222.8537116964367
 11
1137.5306832402912
 21
1222.8537116964367
  0
LINE
  8
_0-0_
  6
CONTINUOUS
 62
    7
 10
1122.5639348197965
 20
1216.3537116964367
 11
1123.4073140410101
 21
1222.8537116964367
  0
LINE
  8
_0-0_
  6
CONTINUOUS
 62
    7
 10
1135.7971373470036
 20
1205.9537116964361
 11
1137.5306832402912
 21
1222.8537116964367
  0
LINE
  8
_0-0_
  6
CONTINUOUS
 62
    7
 10
1130.3639348197967
 20
1216.3537116945004
 11
1131.6639348197959
 21
1211.1537116964359
  0
LINE
  8
_0-0_
  6
CONTINUOUS
 62
    7
 10
1131.6639348197959
 20
1216.3537116964367
 11
1131.6639348197959
 21
1209.8537116964367
  0
LINE
  8
_0-0_
  6
CONTINUOUS
 62
    7
 10
1131.6639348197959
 20
1209.8537116964367
 11
1128.9826848197963
 21
1209.8537116964367
  0
LINE
  8
_0-0_
  6
CONTINUOUS
 62
    7
 10
1129.7139348197961
 20
1205.9537116945007
 11
1135.7971373470036
 21
1205.9537116964361
  0
LINE
  8
_0-0_
  6
CONTINUOUS
 62
    7
 10
1131.6639348197959
 20
1211.1537116964359
 11
1127.7639348197963
 21
1211.1537116964359
  0
LINE
  8
_0-0_
  6
CONTINUOUS
 62
    7
 10
1187.4782965233699
 20
1205.9537116964361
 11
1186.6575526147035
 21
1150.4258042888807
  0
LINE
  8
_0-0_
  6
CONTINUOUS
 62
    7
 10
1173.6720016679046
 20
1205.9537116964361
 11
1171.4474781958215
 21
1150.4258042888807
  0
LINE
  8
_0-0_
  6
CONTINUOUS
 62
    7
 10
1163.738251061407
 20
1205.9537116964361
 11
1159.9712336002376
 21
1150.4258042888807
  0
LINE
  8
_0-0_
  6
CONTINUOUS
 62
    7
 10
1145.2650914528112
 20
1144.2037116964359
 11
1151.9182243419273
 21
1144.2037116964359
  0
ARC
  8
_0-0_
  6
CONTINUOUS
 62
    7
 10
1107.1332318161913
 20
1150.7037116964359
 40
12.350000000000149
 50
270
 51
352.30394827797369
  0
ARC
  8
_0-0_
  6
CONTINUOUS
 62
    7
 10
1174.3106798335984
 20
1150.7037116964359
 40
12.35
 50
270
 51
358.71058577614161
  0
ARC
  8
_0-0_
  6
CONTINUOUS
 62
    7
 10
1159.1006054147128
 20
1150.7037116964359
 40
12.35
 50
270
 51
358.71058577614161
  0
ARC
  8
_0-0_
  6
CONTINUOUS
 62
    7
 10
1147.6243608191307
 20
1150.7037116964359
 40
12.35
 50
270
 51
358.71058577614161
  0
ARC
  8
_0-0_
  6
CONTINUOUS
 62
    7
 10
1134.7640200788983
 20
1150.7037116964359
 40
12.35
 50
270
 51
358.71058577614161
  0
ARC
  8
_0-0_
  6
CONTINUOUS
 62
    7
 10
1123.7281026936253
 20
1150.7037116964377
 40
12.35
 50
270
 51
358.71058577614161
  0
ARC
  8
_0-0_
  6
CONTINUOUS
 62
    7
 10
1114.9226490741012
 20
1150.7037116964377
 40
12.35
 50
270
 51
358.71058577614161
  0
ARC
  8
_0-0_
  6
CONTINUOUS
 62
    7
 10
1178.1882580580859
 20
1152.3540612785021
 40
8.1780671968643137
 50
274.7185977701306
 51
346.41755953320228
  0
ARC
  8
_0-0_
  6
CONTINUOUS
 62
    7
 10
1150.6232660298156
 20
1150.9752394952914
 40
6.8942371413215797
 50
280.82628882966117
 51
356.82157643817345
  0
ARC
  8
_0-0_
  6
CONTINUOUS
 62
    7
 10
1125.4374471382334
 20
1150.9878075613481
 40
6.5
 50
271.39298688023382
 51
358.71058577614156
  0
LINE
  8
_0-0_
  6
CONTINUOUS
 62
    7
 10
1131.9358012335542
 20
1150.8415405047401
 11
1137.4712351544295
 21
1205.9537116964361
  0
LINE
  8
_0-0_
  6
CONTINUOUS
 62
    7
 10
1161.262573775165
 20
1205.9537116950573
 11
1157.5068978670861
 21
1150.5929850124196
  0
LINE
  8
_0-0_
  6
CONTINUOUS
 62
    7
 10
1186.9583533163832
 20
1205.961396845039
 11
1186.1376094077186
 21
1150.4334894374836
  0
LINE
  8
_0-0_
  6
CONTINUOUS
 62
    7
 10
1129.2020741665092
 20
1205.9537116964361
 11
1121.2251011056778
 21
1150.5574446398289
  0
ARC
  8
_0-0_
  6
CONTINUOUS
 62
    7
 10
1108.8618696550111
 20
1150.7037116964377
 40
12.35
 50
270
 51
358.71058577614161
  0
ARC
  8
_0-0_
  6
CONTINUOUS
 62
    7
 10
1156.0140552613229
 20
1171.5037116964361
 40
6.5
 50
270
 51
292.66298872746898
  0
LINE
  8
_0-0_
  6
CONTINUOUS
 62
    7
 10
1163.738251061407
 20
1205.9537116964361
 11
1151.9207892653194
 21
1205.9537116964361
  0
LINE
  8
_0-0_
  6
CONTINUOUS
 62
    7
 10
1141.652165695562
 20
1205.9537116964361
 11
1121.1585294144015
 21
1205.9537116964361
  0
LINE
  8
_0-0_
  6
CONTINUOUS
 62
    7
 10
1136.8639348197967
 20
1216.3537116964367
 11
1192.7639348197963
 21
1216.3537116964367
  0
LINE
  8
_0-0_
  6
CONTINUOUS
 62
    7
 10
1129.7139348197961
 20
1205.9537116964361
 11
1128.9826848197963
 21
1209.8537116964367
  0
LINE
  8
_0-0_
  6
CONTINUOUS
 62
    7
 10
1033.8937921426059
 20
1173.7574989401112
 11
1033.2244001317813
 21
1168.0676668480967
  0
ARC
  8
_0-0_
  6
CONTINUOUS
 62
    7
 10
1036.4759837138445
 20
1173.4537116964359
 40
2.6000000000000001
 50
90
 51
173.29016319222927
  0
ARC
  8
_0-0_
  6
CONTINUOUS
 62
    7
 10
1037.0436945245447
 20
1173.4537116964359
 40
2.6000000000000001
 50
6.5085480277622443
 51
90
  0
LINE
  8
_0-0_
  6
CONTINUOUS
 62
    7
 10
1044.1431659273157
 20
1175.0031325950306
 11
1042.6537417568052
 21
1167.3843664864764
  0
LINE
  8
_0-0_
  6
CONTINUOUS
 62
    7
 10
1041.5078909340682
 20
1174.8409109199731
 11
1042.6976634078064
 21
1167.0985494012368
  0
LINE
  8
_0-0_
  6
CONTINUOUS
 62
    7
 10
1040.0944821123558
 20
1176.0537116964363
 11
1037.0436945245447
 21
1176.0537116964363
  0
ARC
  8
_0-0_
  6
CONTINUOUS
 62
    7
 10
1040.0944821123558
 20
1174.623711696436
 40
1.4300000000000002
 50
8.7363298125760078
 51
90
  0
LINE
  8
_0-0_
  6
CONTINUOUS
 62
    7
 10
1048.1374485598162
 20
1165.0037116964361
 11
1045.1390059180358
 21
1165.0037116964361
  0
LINE
  8
_0-0_
  6
CONTINUOUS
 62
    7
 10
1049.6766658284732
 20
1173.7882573399258
 11
1049.4367887232074
 21
1166.262297450053
  0
ARC
  8
_0-0_
  6
CONTINUOUS
 62
    7
 10
1048.1374485598162
 20
1166.3037116964363
 40
1.3
 50
270
 51
358.17441302096131
  0
ARC
  8
_0-0_
  6
CONTINUOUS
 62
    7
 10
1045.1390059180358
 20
1167.4737116964354
 40
2.4699999999999998
 50
188.736329812576
 51
270
  0
LINE
  8
_0-0_
  6
CONTINUOUS
 62
    7
 10
1045.1390059180358
 20
1165.0037116964361
 11
1040.6245932835363
 21
1165.0037116964361
  0
LINE
  8
_0-0_
  6
CONTINUOUS
 62
    7
 10
1052.0154781225729
 20
1176.0537116964363
 11
1072.7946137644221
 21
1176.0537116964363
  0
ARC
  8
_0-0_
  6
CONTINUOUS
 62
    7
 10
1045.4190143569294
 20
1174.7537116964361
 40
1.3
 50
90
 51
168.93851821991191
  0
ARC
  8
_0-0_
  6
CONTINUOUS
 62
    7
 10
1052.0154781225729
 20
1173.7137116964361
 40
2.3399999999999999
 50
90
 51
178.17441302096131
  0
LINE
  8
_0-0_
  6
CONTINUOUS
 62
    7
 10
1074.0603383599137
 20
1175.0502605935246
 11
1076.1790620433167
 21
1166.0071627993459
  0
ARC
  8
_0-0_
  6
CONTINUOUS
 62
    7
 10
1072.7946137644221
 20
1174.7537116964361
 40
1.3
 50
13.186091986000131
 51
89.999999999999972
  0
LINE
  8
_0-0_
  6
CONTINUOUS
 62
    7
 10
1081.9043480371183
 20
1165.0037116964361
 11
1077.44478663881
 21
1165.0037116964361
  0
ARC
  8
_0-0_
  6
CONTINUOUS
 62
    7
 10
1077.44478663881
 20
1166.3037116964363
 40
1.3
 50
193.18609198600009
 51
270
  0
LINE
  8
_0-0_
  6
CONTINUOUS
 62
    7
 10
1040.6245932835363
 20
1165.0037116964361
 11
1075.4728307418181
 21
1148.7537116964361
  0
ARC
  8
_0-0_
  6
CONTINUOUS
 62
    7
 10
1031.2389348197967
 20
1164.0287116964357
 40
0.9749999999999999
 50
112.7832175410836
 51
238.51591052334047
  0
ARC
  8
_0-0_
  6
CONTINUOUS
 62
    7
 10
1029.3511127749216
 20
1168.5233477136101
 40
3.9000000000000004
 50
292.78321754108367
 51
353.29016319222939
  0
LINE
  8
_0-0_
  6
CONTINUOUS
 62
    7
 10
1094.3271762487466
 20
1176.0195260364437
 11
1117.1133691900777
 21
1176.0195260364437
  0
LINE
  8
_0-0_
  6
CONTINUOUS
 62
    7
 10
1102.0889348197961
 20
1148.7537116964361
 11
1102.0889348197961
 21
1150.8337116964369
  0
LINE
  8
_0-0_
  6
CONTINUOUS
 62
    7
 10
1101.6436552943424
 20
1150.8337116964369
 11
1101.6436552943424
 21
1160.246765504314
  0
LINE
  8
_0-0_
  6
CONTINUOUS
 62
    7
 10
1094.1413004867154
 20
1174.3301695391003
 11
1093.2401422489629
 21
1169.6172920871725
  0
LINE
  8
_0-0_
  6
CONTINUOUS
 62
    7
 10
1092.8145168243909
 20
1174.840920144826
 11
1091.49745831572
 21
1169.6172920871725
  0
ARC
  8
_0-0_
  6
CONTINUOUS
 62
    7
 10
1094.3271762487466
 20
1174.4595260364433
 40
1.5599999999999989
 50
90
 51
165.8486934949145
  0
ARC
  8
_0-0_
  6
CONTINUOUS
 62
    7
 10
1096.1842879203132
 20
1173.9395260364429
 40
2.0800000000000001
 50
90
 51
169.17503057422681
  0
LINE
  8
_0-0_
  6
CONTINUOUS
 62
    7
 10
1236.4566953543344
 20
1332.6639348183976
 11
1247.9971863993014
 21
1222.8537116964367
  0
LINE
  8
_0-0_
  6
CONTINUOUS
 62
    7
 10
1235.0149125019443
 20
1332.6639348183976
 11
1246.1459744261656
 21
1222.8537116964367
  0
LINE
  8
_0-0_
  6
CONTINUOUS
 62
    7
 10
1231.2466510134691
 20
1332.6639348183976
 11
1241.8665050406998
 21
1222.8537116964367
  0
LINE
  8
_0-0_
  6
CONTINUOUS
 62
    7
 10
1227.1408009541128
 20
1332.6639348183976
 11
1235.8960097987738
 21
1222.8537116964367
  0
LINE
  8
_0-0_
  6
CONTINUOUS
 62
    7
 10
1220.1779618070186
 20
1332.6639348183976
 11
1227.9919059693157
 21
1222.8537116964367
  0
LINE
  8
_0-0_
  6
CONTINUOUS
 62
    7
 10
1214.0331233024199
 20
1332.6639348183976
 11
1219.058629634389
 21
1222.8537116964367
  0
LINE
  8
_0-0_
  6
CONTINUOUS
 62
    7
 10
1216.5791514329394
 20
1330.146479746541
 11
1221.2705238856825
 21
1222.8537116964367
  0
LINE
  8
_0-0_
  6
CONTINUOUS
 62
    7
 10
1197.6874051657587
 20
1332.6639348183967
 11
1198.3513179762977
 21
1222.8537116964367
  0
LINE
  8
_0-0_
  6
CONTINUOUS
 62
    7
 10
1204.9357352545758
 20
1332.6639348183976
 11
1208.8867416085714
 21
1222.8537116964367
  0
LINE
  8
_0-0_
  6
CONTINUOUS
 62
    7
 10
1262.1205555985807
 20
1222.8537116964367
 11
1248.1992492662503
 21
1330.146479746541
  0
LINE
  8
_0-0_
  6
CONTINUOUS
 62
    7
 10
1247.9971863993014
 20
1222.8537116964367
 11
1236.7332182730224
 21
1332.6639348183976
  0
ARC
  8
_0-0_
  6
CONTINUOUS
 62
    7
 10
1197.0637377619269
 20
1328.7398599686016
 40
39.587920775204189
 50
5.6886731720193788
 51
55.310300322295873
  0
ARC
  8
_0-0_
  6
CONTINUOUS
 62
    7
 10
1190.266173762725
 20
1327.0259273529559
 40
45.102513754016279
 50
7.1810032116265194
 51
49.43888501413209
  0
ARC
  8
_0-0_
  6
CONTINUOUS
 62
    7
 10
1145.958904809585
 20
1315.8072659379318
 40
82.91349436229693
 50
11.730251622068332
 51
33.268767971370714
  0
ARC
  8
_0-0_
  6
CONTINUOUS
 62
    7
 10
1147.7962700940361
 20
1326.2341991103972
 40
68.894054206858144
 50
3.2554016704855222
 51
30.587206505160161
  0
LINE
  8
_0-0_
  6
CONTINUOUS
 62
    7
 10
1215.5139348197963
 20
1374.0149249605179
 11
1222.0139348197963
 21
1361.2909641474166
  0
ARC
  8
_0-0_
  6
CONTINUOUS
 62
    7
 10
1192.7639348197963
 20
1328.1537116964359
 40
44.200000000000003
 50
5.856726721127882
 51
90
  0
ARC
  8
_0-0_
  6
CONTINUOUS
 62
    7
 10
1192.7639348197963
 20
1322.9537116964361
 40
55.899999999999999
 50
7.3928623781562726
 51
65.984940447904606
  0
ARC
  8
_0-0_
  6
CONTINUOUS
 62
    7
 10
1192.7639348197963
 20
1322.9537116964361
 40
55.899999999999999
 50
65.984940447904606
 51
90
  0
ARC
  8
_0-0_
  6
CONTINUOUS
 62
    7
 10
1156.8041147921185
 20
1313.2728829614366
 40
76.926614972885872
 50
14.60016115917627
 51
37.358055243853009
  0
ARC
  8
_0-0_
  6
CONTINUOUS
 62
    7
 10
1155.9613462659399
 20
1324.930706407486
 40
64.680573074195664
 50
6.8667266548072714
 51
32.781871169765679
  0
ARC
  8
_0-0_
  6
CONTINUOUS
 62
    7
 10
1128.5328716366857
 20
1327.7092583254648
 40
85.643691268262529
 50
3.3165390205797234
 51
22.115168675294768
  0
LINE
  8
_0-0_
  6
CONTINUOUS
 62
    7
 10
1196.8673775366897
 20
1359.9514995716286
 11
1197.6874051657587
 21
1332.6639348183976
  0
ARC
  8
_0-0_
  6
CONTINUOUS
 62
    7
 10
1133.7398517399215
 20
1334.0115421393562
 40
71.208636238336283
 50
358.91562560888002
 51
21.363344559758634
  0
ARC
  8
_0-0_
  6
CONTINUOUS
 62
    7
 10
1214.8602142894679
 20
1357.065544015843
 40
4.2278941523737537
 50
43.047059246266528
 51
84.076304376315008
  0
ARC
  8
_0-0_
  6
CONTINUOUS
 62
    7
 10
1207.2510427267107
 20
1357.065544015843
 40
4.2278941523732207
 50
43.047059246266528
 51
91.991649046230307
  0
ARC
  8
_0-0_
  6
CONTINUOUS
 62
    7
 10
1198.461526527235
 20
1359.6726024407267
 40
1.6183617066894889
 50
9.923492499975378
 51
170.0765075000246
  0
LINE
  8
_0-0_
  6
CONTINUOUS
 62
    7
 10
1262.1205555985807
 20
1222.8537116964367
 11
1247.9971863993014
 21
1222.8537116964367
  0
LINE
  8
_0-0_
  6
CONTINUOUS
 62
    7
 10
1198.0495731162209
 20
1205.9537116964361
 11
1211.8558679716862
 21
1205.9537116964361
  0
LINE
  8
_0-0_
  6
CONTINUOUS
 62
    7
 10
1251.3580115116401
 20
1205.9537116950573
 11
1258.2583477843837
 21
1150.4258042888807
  0
LINE
  8
_0-0_
  6
CONTINUOUS
 62
    7
 10
1264.3693402251911
 20
1205.9537116964361
 11
1271.9531870257324
 21
1149.8332453724272
  0
LINE
  8
_0-0_
  6
CONTINUOUS
 62
    7
 10
1258.4661669815841
 20
1205.9537116950573
 11
1266.1558813078318
 21
1149.0498256808189
  0
LINE
  8
_0-0_
  6
CONTINUOUS
 62
    7
 10
1345.9009322302463
 20
1173.7484254526919
 11
1344.9032763560535
 21
1165.0037116964361
  0
LINE
  8
_0-0_
  6
CONTINUOUS
 62
    7
 10
1340.1088552826632
 20
1176.0537116964363
 11
1333.5123915170188
 21
1176.0537116964363
  0
LINE
  8
_0-0_
  6
CONTINUOUS
 62
    7
 10
1349.0518859257454
 20
1176.0537116964363
 11
1348.484175115047
 21
1176.0537116964363
  0
LINE
  8
_0-0_
  6
CONTINUOUS
 62
    7
 10
1258.0603795376082
 20
1205.9537116950573
 11
1262.041632237675
 21
1205.9537116950573
  0
LINE
  8
_0-0_
  6
CONTINUOUS
 62
    7
 10
1294.9535857445226
 20
1165.0037116964361
 11
1337.3904210797746
 21
1165.0037116964361
  0
LINE
  8
_0-0_
  6
CONTINUOUS
 62
    7
 10
1300.297532409455
 20
1144.2037116964359
 11
1278.3946378234014
 21
1144.2037116964359
  0
LINE
  8
_0-0_
  6
CONTINUOUS
 62
    7
 10
1301.5944461859144
 20
1138.3537116964364
 11
1192.7639348197936
 21
1138.3537116964364
  0
ARC
  8
_0-0_
  6
CONTINUOUS
 62
    7
 10
1278.3946378234014
 20
1150.7037116964359
 40
6.5
 50
187.69605172202634
 51
270
  0
LINE
  8
_0-0_
  6
CONTINUOUS
 62
    7
 10
1294.9535857445226
 20
1165.0037116964361
 11
1269.9031240089744
 21
1165.0037116964361
  0
LINE
  8
_0-0_
  6
CONTINUOUS
 62
    7
 10
1233.6070803743914
 20
1205.9537116950573
 11
1238.4169767795865
 21
1150.4258042888807
  0
LINE
  8
_0-0_
  6
CONTINUOUS
 62
    7
 10
1249.4528941648614
 20
1150.4258042888807
 11
1243.875703944168
 21
1205.9537116950573
  0
LINE
  8
_0-0_
  6
CONTINUOUS
 62
    7
 10
1227.9919059693157
 20
1222.8537116964367
 11
1219.058629634389
 21
1222.8537116964367
  0
LINE
  8
_0-0_
  6
CONTINUOUS
 62
    7
 10
1241.8665050406998
 20
1222.8537116964367
 11
1235.8960097987738
 21
1222.8537116964367
  0
LINE
  8
_0-0_
  6
CONTINUOUS
 62
    7
 10
1247.9971863993014
 20
1222.8537116964367
 11
1246.1459744261656
 21
1222.8537116964367
  0
LINE
  8
_0-0_
  6
CONTINUOUS
 62
    7
 10
1243.875703944168
 20
1205.9537116950573
 11
1251.3580115116401
 21
1205.9537116950573
  0
LINE
  8
_0-0_
  6
CONTINUOUS
 62
    7
 10
1223.5261946592491
 20
1205.9537116950573
 11
1233.6070803743914
 21
1205.9537116950573
  0
LINE
  8
_0-0_
  6
CONTINUOUS
 62
    7
 10
1210.9298631133515
 20
1205.9537116950573
 11
1199.4663028458126
 21
1205.9537116950573
  0
LINE
  8
_0-0_
  6
CONTINUOUS
 62
    7
 10
1208.8867416085714
 20
1222.8537116964367
 11
1198.3513179762977
 21
1222.8537116964367
  0
LINE
  8
_0-0_
  6
CONTINUOUS
 62
    7
 10
1199.0115742280341
 20
1176.0537116964363
 11
1213.0537026267393
 21
1176.0537116964363
  0
LINE
  8
_0-0_
  6
CONTINUOUS
 62
    7
 10
1229.5138143782679
 20
1165.0037116964361
 11
1237.1542203079262
 21
1165.0037116964361
  0
LINE
  8
_0-0_
  6
CONTINUOUS
 62
    7
 10
1229.5138143782679
 20
1165.0037116964361
 11
1237.1542203079262
 21
1165.0037116964361
  0
LINE
  8
_0-0_
  6
CONTINUOUS
 62
    7
 10
1229.5138143782679
 20
1165.0037116964361
 11
1237.1542203079262
 21
1165.0037116964361
  0
LINE
  8
_0-0_
  6
CONTINUOUS
 62
    7
 10
1237.1542203079262
 20
1165.0037116964361
 11
1227.043346978392
 21
1165.0037116964361
  0
LINE
  8
_0-0_
  6
CONTINUOUS
 62
    7
 10
1213.4963806514334
 20
1165.0037116964361
 11
1199.1749014739935
 21
1165.0037116964361
  0
LINE
  8
_0-0_
  6
CONTINUOUS
 62
    7
 10
1215.9261928509641
 20
1144.2037116964359
 11
1206.6668673756276
 21
1144.2037116964359
  0
LINE
  8
_0-0_
  6
CONTINUOUS
 62
    7
 10
1262.9639348197852
 20
1216.3537116964367
 11
1264.3693402258195
 21
1205.9537116917804
  0
LINE
  8
_0-0_
  6
CONTINUOUS
 62
    7
 10
1262.9639348197852
 20
1216.3537116964367
 11
1253.8639348197967
 21
1216.3537116964367
  0
LINE
  8
_0-0_
  6
CONTINUOUS
 62
    7
 10
1257.7634642786943
 20
1211.1537116964359
 11
1258.4661669817733
 21
1205.9537116936576
  0
LINE
  8
_0-0_
  6
CONTINUOUS
 62
    7
 10
1257.7639348197963
 20
1216.3537116964367
 11
1262.9639348197961
 21
1216.3537116964367
  0
LINE
  8
_0-0_
  6
CONTINUOUS
 62
    7
 10
1262.1205555985807
 20
1222.8537116964367
 11
1247.9971863993014
 21
1222.8537116964367
  0
LINE
  8
_0-0_
  6
CONTINUOUS
 62
    7
 10
1262.9639348197961
 20
1216.3537116964367
 11
1262.1205555985807
 21
1222.8537116964367
  0
LINE
  8
_0-0_
  6
CONTINUOUS
 62
    7
 10
1249.7307322925872
 20
1205.9537116964361
 11
1247.9971863993014
 21
1222.8537116964367
  0
LINE
  8
_0-0_
  6
CONTINUOUS
 62
    7
 10
1255.1639348197959
 20
1216.3537116945004
 11
1253.8639348197967
 21
1211.1537116964359
  0
LINE
  8
_0-0_
  6
CONTINUOUS
 62
    7
 10
1253.8639348197967
 20
1216.3537116964367
 11
1253.8639348197967
 21
1209.8537116964367
  0
LINE
  8
_0-0_
  6
CONTINUOUS
 62
    7
 10
1253.8639348197967
 20
1209.8537116964367
 11
1256.5451848197936
 21
1209.8537116964367
  0
LINE
  8
_0-0_
  6
CONTINUOUS
 62
    7
 10
1255.8139348197965
 20
1205.9537116945007
 11
1249.7307322925872
 21
1205.9537116964361
  0
LINE
  8
_0-0_
  6
CONTINUOUS
 62
    7
 10
1253.8639348197967
 20
1211.1537116964359
 11
1257.7639348197963
 21
1211.1537116964359
  0
LINE
  8
_0-0_
  6
CONTINUOUS
 62
    7
 10
1198.0495731162209
 20
1205.9537116964361
 11
1198.8703170248864
 21
1150.4258042888807
  0
LINE
  8
_0-0_
  6
CONTINUOUS
 62
    7
 10
1211.8558679716862
 20
1205.9537116964361
 11
1214.0803914437711
 21
1150.4258042888807
  0
LINE
  8
_0-0_
  6
CONTINUOUS
 62
    7
 10
1221.7896185781856
 20
1205.9537116964361
 11
1225.5566360393541
 21
1150.4258042888807
  0
LINE
  8
_0-0_
  6
CONTINUOUS
 62
    7
 10
1240.2627781867795
 20
1144.2037116964359
 11
1233.6096452976653
 21
1144.2037116964359
  0
ARC
  8
_0-0_
  6
CONTINUOUS
 62
    7
 10
1278.3946378234014
 20
1150.7037116964359
 40
12.350000000000149
 50
187.69605172202634
 51
270
  0
ARC
  8
_0-0_
  6
CONTINUOUS
 62
    7
 10
1211.2171898059933
 20
1150.7037116964359
 40
12.35
 50
181.2894142238583
 51
270
  0
ARC
  8
_0-0_
  6
CONTINUOUS
 62
    7
 10
1226.427264224877
 20
1150.7037116964359
 40
12.35
 50
181.2894142238583
 51
270
  0
ARC
  8
_0-0_
  6
CONTINUOUS
 62
    7
 10
1237.9035088204619
 20
1150.7037116964359
 40
12.35
 50
181.2894142238583
 51
270
  0
ARC
  8
_0-0_
  6
CONTINUOUS
 62
    7
 10
1250.7638495606916
 20
1150.7037116964359
 40
12.35
 50
181.2894142238583
 51
270
  0
ARC
  8
_0-0_
  6
CONTINUOUS
 62
    7
 10
1261.7997669459673
 20
1150.7037116964377
 40
12.35
 50
181.2894142238583
 51
270
  0
ARC
  8
_0-0_
  6
CONTINUOUS
 62
    7
 10
1270.6052205654914
 20
1150.7037116964377
 40
12.35
 50
181.2894142238583
 51
270
  0
ARC
  8
_0-0_
  6
CONTINUOUS
 62
    7
 10
1207.3396115815058
 20
1152.3540612785021
 40
8.1780671968643137
 50
193.58244046679769
 51
265.2814022298694
  0
ARC
  8
_0-0_
  6
CONTINUOUS
 62
    7
 10
1234.9046036097743
 20
1150.9752394952914
 40
6.8942371413215797
 50
183.17842356182661
 51
259.17371117033878
  0
ARC
  8
_0-0_
  6
CONTINUOUS
 62
    7
 10
1260.0904225013564
 20
1150.9878075613481
 40
6.5
 50
181.2894142238583
 51
268.60701311976612
  0
LINE
  8
_0-0_
  6
CONTINUOUS
 62
    7
 10
1253.5920684060384
 20
1150.8415405047401
 11
1248.0566344851604
 21
1205.9537116964361
  0
LINE
  8
_0-0_
  6
CONTINUOUS
 62
    7
 10
1224.2652958644258
 20
1205.9537116950573
 11
1228.0209717725038
 21
1150.5929850124196
  0
LINE
  8
_0-0_
  6
CONTINUOUS
 62
    7
 10
1198.5695163232085
 20
1205.961396845039
 11
1199.3902602318713
 21
1150.4334894374836
  0
LINE
  8
_0-0_
  6
CONTINUOUS
 62
    7
 10
1256.3257954730807
 20
1205.9537116964361
 11
1264.3027685339139
 21
1150.5574446398289
  0
ARC
  8
_0-0_
  6
CONTINUOUS
 62
    7
 10
1276.6659999845797
 20
1150.7037116964377
 40
12.35
 50
181.2894142238583
 51
270
  0
ARC
  8
_0-0_
  6
CONTINUOUS
 62
    7
 10
1229.5138143782679
 20
1171.5037116964361
 40
6.5
 50
247.33701127253099
 51
270
  0
LINE
  8
_0-0_
  6
CONTINUOUS
 62
    7
 10
1221.7896185781856
 20
1205.9537116964361
 11
1233.6070803742732
 21
1205.9537116964361
  0
LINE
  8
_0-0_
  6
CONTINUOUS
 62
    7
 10
1243.8757039440306
 20
1205.9537116964361
 11
1264.3693402251911
 21
1205.9537116964361
  0
LINE
  8
_0-0_
  6
CONTINUOUS
 62
    7
 10
1248.6639348197959
 20
1216.3537116964367
 11
1192.7639348197963
 21
1216.3537116964367
  0
LINE
  8
_0-0_
  6
CONTINUOUS
 62
    7
 10
1255.8139348197965
 20
1205.9537116964361
 11
1256.5451848197936
 21
1209.8537116964367
  0
LINE
  8
_0-0_
  6
CONTINUOUS
 62
    7
 10
1351.6340774969858
 20
1173.7574989401112
 11
1352.3034695078113
 21
1168.0676668480967
  0
ARC
  8
_0-0_
  6
CONTINUOUS
 62
    7
 10
1349.0518859257454
 20
1173.4537116964359
 40
2.6000000000000001
 50
6.7098368077706345
 51
90.000000000000014
  0
ARC
  8
_0-0_
  6
CONTINUOUS
 62
    7
 10
1348.484175115047
 20
1173.4537116964359
 40
2.6000000000000001
 50
90
 51
173.49145197223771
  0
LINE
  8
_0-0_
  6
CONTINUOUS
 62
    7
 10
1341.3847037122741
 20
1175.0031325950306
 11
1342.8741278827856
 21
1167.3843664864764
  0
LINE
  8
_0-0_
  6
CONTINUOUS
 62
    7
 10
1344.0199787055235
 20
1174.8409109199731
 11
1342.8302062317862
 21
1167.0985494012368
  0
LINE
  8
_0-0_
  6
CONTINUOUS
 62
    7
 10
1345.4333875272359
 20
1176.0537116964363
 11
1348.484175115047
 21
1176.0537116964363
  0
ARC
  8
_0-0_
  6
CONTINUOUS
 62
    7
 10
1345.4333875272359
 20
1174.623711696436
 40
1.4300000000000002
 50
90
 51
171.263670187424
  0
LINE
  8
_0-0_
  6
CONTINUOUS
 62
    7
 10
1337.3904210797746
 20
1165.0037116964361
 11
1340.388863721555
 21
1165.0037116964361
  0
LINE
  8
_0-0_
  6
CONTINUOUS
 62
    7
 10
1335.8512038111185
 20
1173.7882573399258
 11
1336.0910809163843
 21
1166.262297450053
  0
ARC
  8
_0-0_
  6
CONTINUOUS
 62
    7
 10
1337.3904210797746
 20
1166.3037116964363
 40
1.3
 50
181.82558697903869
 51
270
  0
ARC
  8
_0-0_
  6
CONTINUOUS
 62
    7
 10
1340.388863721555
 20
1167.4737116964354
 40
2.4699999999999998
 50
270
 51
351.263670187424
  0
LINE
  8
_0-0_
  6
CONTINUOUS
 62
    7
 10
1340.388863721555
 20
1165.0037116964361
 11
1344.9032763560535
 21
1165.0037116964361
  0
LINE
  8
_0-0_
  6
CONTINUOUS
 62
    7
 10
1333.5123915170188
 20
1176.0537116964363
 11
1312.7332558751705
 21
1176.0537116964363
  0
ARC
  8
_0-0_
  6
CONTINUOUS
 62
    7
 10
1340.1088552826632
 20
1174.7537116964361
 40
1.3
 50
11.061481780088121
 51
90.000000000000014
  0
ARC
  8
_0-0_
  6
CONTINUOUS
 62
    7
 10
1333.5123915170188
 20
1173.7137116964361
 40
2.3399999999999999
 50
1.8255869790387
 51
90
  0
LINE
  8
_0-0_
  6
CONTINUOUS
 62
    7
 10
1311.467531279678
 20
1175.0502605935246
 11
1309.3488075962732
 21
1166.0071627993459
  0
ARC
  8
_0-0_
  6
CONTINUOUS
 62
    7
 10
1312.7332558751705
 20
1174.7537116964361
 40
1.3
 50
90
 51
166.81390801399994
  0
ARC
  8
_0-0_
  6
CONTINUOUS
 62
    7
 10
1308.0830830007826
 20
1166.3037116964363
 40
1.3
 50
270
 51
346.81390801399988
  0
LINE
  8
_0-0_
  6
CONTINUOUS
 62
    7
 10
1344.9032763560535
 20
1165.0037116964361
 11
1300.297532409455
 21
1144.2037116964359
  0
ARC
  8
_0-0_
  6
CONTINUOUS
 62
    7
 10
1354.2889348197959
 20
1164.0287116964357
 40
0.9749999999999999
 50
301.48408947665951
 51
67.216782458916271
  0
ARC
  8
_0-0_
  6
CONTINUOUS
 62
    7
 10
1356.1767568646692
 20
1168.5233477136101
 40
3.9000000000000004
 50
186.70983680777061
 51
247.2167824589163
  0
LINE
  8
_0-0_
  6
CONTINUOUS
 62
    7
 10
1354.5637671225022
 20
1163.0537116964363
 11
1354.7981400495028
 21
1163.1972461024163
  0
LINE
  8
_0-0_
  6
CONTINUOUS
 62
    7
 10
1291.2006933908451
 20
1176.0195260364437
 11
1268.4145004495149
 21
1176.0195260364437
  0
LINE
  8
_0-0_
  6
CONTINUOUS
 62
    7
 10
1291.3865691528754
 20
1174.3301695391003
 11
1293.4409263201687
 21
1166.1823175880538
  0
LINE
  8
_0-0_
  6
CONTINUOUS
 62
    7
 10
1292.7133528152017
 20
1174.840920144826
 11
1294.7677099824932
 21
1166.6930681937795
  0
ARC
  8
_0-0_
  6
CONTINUOUS
 62
    7
 10
1291.2006933908451
 20
1174.4595260364433
 40
1.5599999999999989
 50
14.15130650508544
 51
90
  0
ARC
  8
_0-0_
  6
CONTINUOUS
 62
    7
 10
1289.3435817192794
 20
1173.9395260364429
 40
2.0800000000000001
 50
10.82496942577319
 51
90
  0
ARC
  8
_0-0_
  6
CONTINUOUS
 62
    7
 10
1294.9535857445226
 20
1166.5637116964356
 40
1.5599999999999989
 50
194.15130650508539
 51
270
  0
ARC
  8
_0-0_
  6
CONTINUOUS
 62
    7
 10
1296.8106974160892
 20
1167.0837116964369
 40
2.0800000000000001
 50
190.82496942577319
 51
270
  0
LINE
  8
_0-0_
  6
CONTINUOUS
 62
    7
 10
1088.7639348197963
 20
1167.6672920871717
 11
1101.7639348197963
 21
1167.6672920871717
  0
LINE
  8
_0-0_
  6
CONTINUOUS
 62
    7
 10
1100.7239348197963
 20
1168.7072920871726
 11
1100.7239348197963
 21
1161.2337116964356
  0
LINE
  8
_0-0_
  6
CONTINUOUS
 62
    7
 10
1106.3139348197965
 20
1161.2337116964356
 11
1101.6436552943424
 21
1160.246765504314
  0
LINE
  8
_0-0_
  6
CONTINUOUS
 62
    7
 10
1106.3139348197965
 20
1161.2337116964356
 11
1084.2139348197961
 21
1161.2337116964356
  0
LINE
  8
_0-0_
  6
CONTINUOUS
 62
    7
 10
1082.5044938707042
 20
1150.8337116964369
 11
1108.0233757688857
 21
1150.8337116964369
  0
LINE
  8
_0-0_
  6
CONTINUOUS
 62
    7
 10
1108.0233757688857
 20
1150.8337116964369
 11
1108.0233757688857
 21
1160.246765504314
  0
LINE
  8
_0-0_
  6
CONTINUOUS
 62
    7
 10
1108.0233757688857
 20
1160.246765504314
 11
1106.3139348197965
 21
1161.2337116964356
  0
LINE
  8
_0-0_
  6
CONTINUOUS
 62
    7
 10
1101.7639348197963
 20
1161.2337116964356
 11
1101.7639348197963
 21
1167.6672920871717
  0
LINE
  8
_0-0_
  6
CONTINUOUS
 62
    7
 10
1101.7639348197963
 20
1167.6672920871717
 11
1099.8139348197965
 21
1169.6172920871725
  0
LINE
  8
_0-0_
  6
CONTINUOUS
 62
    7
 10
1099.8139348197965
 20
1169.6172920871725
 11
1090.7139348197961
 21
1169.6172920871725
  0
LINE
  8
_0-0_
  6
CONTINUOUS
 62
    7
 10
1090.7139348197961
 20
1169.6172920871725
 11
1088.7639348197963
 21
1167.6672920871717
  0
LINE
  8
_0-0_
  6
CONTINUOUS
 62
    7
 10
1088.7639348197963
 20
1167.6672920871717
 11
1088.7639348197963
 21
1161.2337116964356
  0
LINE
  8
_0-0_
  6
CONTINUOUS
 62
    7
 10
1089.8039348197954
 20
1168.7072920871726
 11
1089.8039348197954
 21
1161.2337116964356
  0
LINE
  8
_0-0_
  6
CONTINUOUS
 62
    7
 10
1109.5639348197965
 20
1150.8337116964369
 11
1109.5639348197965
 21
1148.7537116964361
  0
LINE
  8
_0-0_
  6
CONTINUOUS
 62
    7
 10
1109.5639348197965
 20
1148.7537116964361
 11
1080.9639348197961
 21
1148.7537116964361
  0
LINE
  8
_0-0_
  6
CONTINUOUS
 62
    7
 10
1080.9639348197961
 20
1150.8337116964369
 11
1109.5639348197965
 21
1150.8337116964369
  0
LINE
  8
_0-0_
  6
CONTINUOUS
 62
    7
 10
1301.5944461859144
 20
1138.3537116964364
 11
1354.5637671225022
 21
1163.0537116964363
  0
LINE
  8
_0-0_
  6
CONTINUOUS
 62
    7
 10
1101.7639348197963
 20
1118.3230111400337
 11
1101.7639348197963
 21
1148.7537116964361
  0
LINE
  8
_0-0_
  6
CONTINUOUS
 62
    7
 10
1100.7239348197963
 20
1148.7537116964361
 11
1100.7239348197963
 21
1118.3230111400337
  0
LINE
  8
_0-0_
  6
CONTINUOUS
 62
    7
 10
1085.4789652998406
 20
1148.7537116964361
 11
1086.7789652998408
 21
1138.3537116964364
  0
LINE
  8
_0-0_
  6
CONTINUOUS
 62
    7
 10
1083.9334234536764
 20
1138.3537116964364
 11
1088.7639348197963
 21
1138.3537116964364
  0
LINE
  8
_0-0_
  6
CONTINUOUS
 62
    7
 10
1083.9334234536764
 20
1138.3537116964364
 11
1088.7639348197963
 21
1138.3537116964364
  0
LINE
  8
_0-0_
  6
CONTINUOUS
 62
    7
 10
1030.7297295900898
 20
1163.1972461024163
 11
1083.9334234536764
 21
1138.3537116964364
  0
LINE
  8
_0-0_
  6
CONTINUOUS
 62
    7
 10
1088.4389348197965
 20
1148.7537116964361
 11
1088.4389348197965
 21
1150.8337116964369
  0
LINE
  8
_0-0_
  6
CONTINUOUS
 62
    7
 10
1080.9639348197961
 20
1150.8337116964369
 11
1080.9639348197961
 21
1148.7537116964361
  0
LINE
  8
_0-0_
  6
CONTINUOUS
 62
    7
 10
1082.504493870706
 20
1160.246765504314
 11
1082.504493870706
 21
1150.8337116964369
  0
LINE
  8
_0-0_
  6
CONTINUOUS
 62
    7
 10
1088.8842143452512
 20
1160.246765504314
 11
1088.8842143452512
 21
1150.8337116964369
  0
LINE
  8
_0-0_
  6
CONTINUOUS
 62
    7
 10
1084.2139348197961
 20
1161.2337116964356
 11
1082.504493870706
 21
1160.246765504314
  0
LINE
  8
_0-0_
  6
CONTINUOUS
 62
    7
 10
1108.0233757688857
 20
1160.246765504314
 11
1082.504493870706
 21
1160.246765504314
  0
LINE
  8
_0-0_
  6
CONTINUOUS
 62
    7
 10
1089.8039348197954
 20
1148.7537116964361
 11
1089.8039348197954
 21
1118.3230111400337
  0
LINE
  8
_0-0_
  6
CONTINUOUS
 62
    7
 10
1088.7639348197963
 20
1148.7537116964361
 11
1088.7639348197963
 21
1118.3230111400337
  0
LINE
  8
_0-0_
  6
CONTINUOUS
 62
    7
 10
1088.8842143452512
 20
1160.246765504314
 11
1084.2139348197961
 21
1161.2337116964356
  0
LINE
  8
_0-0_
  6
CONTINUOUS
 62
    4
 10
916.31346042719281
 20
1179.5778409440647
 11
887.2364253644638
 21
1179.5778409440647
  0
ARC
  8
_0-0_
  6
CONTINUOUS
 62
    4
 10
916.31346042719281
 20
1153.5778409440647
 40
26
 50
74.999999999997556
 51
89.999999999999986
  0
LINE
  8
_0-0_
  6
CONTINUOUS
 62
    4
 10
945.54009142810366
 20
1172.6637694605499
 11
923.04275559985956
 21
1178.6919124275803
  0
ARC
  8
_0-0_
  6
CONTINUOUS
 62
    4
 10
952.26938660077042
 20
1197.7778409440657
 40
26
 50
254.99999999999793
 51
270
  0
LINE
  8
_0-0_
  6
CONTINUOUS
 62
    4
 10
962.03541987832625
 20
1171.7778409440655
 11
952.26938660077042
 21
1171.7778409440655
  0
LINE
  8
_0-0_
  6
CONTINUOUS
 62
    4
 10
965.13319561440414
 20
1171.5926387447255
 11
1021.0329556923635
 21
1164.8846675353718
  0
ARC
  8
_0-0_
  6
CONTINUOUS
 62
    4
 10
962.03541987832625
 20
1145.7778409440655
 40
26
 50
83.157226587370374
 51
90.000000000000057
  0
LINE
  8
_0-0_
  6
CONTINUOUS
 62
    4
 10
1469.2144092123999
 20
1179.5778409440647
 11
1498.2914442751271
 21
1179.5778409440647
  0
ARC
  8
_0-0_
  6
CONTINUOUS
 62
    4
 10
1469.2144092123999
 20
1153.5778409440647
 40
26
 50
90
 51
104.99999999999986
  0
LINE
  8
_0-0_
  6
CONTINUOUS
 62
    4
 10
1439.9877782114827
 20
1172.663769460549
 11
1462.4851140397341
 21
1178.6919124275803
  0
ARC
  8
_0-0_
  6
CONTINUOUS
 62
    4
 10
1433.2584830388178
 20
1197.7778409440657
 40
26
 50
270
 51
284.99999999999864
  0
LINE
  8
_0-0_
  6
CONTINUOUS
 62
    4
 10
1423.492449761261
 20
1171.7778409440655
 11
1433.2584830388178
 21
1171.7778409440655
  0
LINE
  8
_0-0_
  6
CONTINUOUS
 62
    4
 10
1420.3946740251831
 20
1171.5926387447255
 11
1364.4949139472283
 21
1164.8846675353718
  0
ARC
  8
_0-0_
  6
CONTINUOUS
 62
    4
 10
1423.492449761261
 20
1145.7778409440655
 40
26
 50
90
 51
96.842773412630109
  0
LINE
  8
_0-0_
  6
CONTINUOUS
 62
    2
 10
1189.6562622585452
 20
886.50814428497961
 11
1185.9581275641704
 21
882.31830798735382
  0
LINE
  8
_0-0_
  6
CONTINUOUS
 62
    2
 10
1263.7467622585473
 20
895.76465942510458
 11
1266.8639348197967
 21
891.13620736748112
  0
LINE
  8
_0-0_
  6
CONTINUOUS
 62
    2
 10
1260.0486275641724
 20
899.95449572273014
 11
1263.7467622585473
 21
895.76465942510458
  0
LINE
  8
_0-0_
  6
CONTINUOUS
 62
    2
 10
1255.8374902477954
 20
903.62771748647924
 11
1260.0486275641724
 21
899.95449572273014
  0
LINE
  8
_0-0_
  6
CONTINUOUS
 62
    2
 10
1251.1850143455476
 20
906.72164415335487
 11
1255.8374902477954
 21
903.62771748647924
  0
LINE
  8
_0-0_
  6
CONTINUOUS
 62
    2
 10
1246.1691245407956
 20
909.18444941860571
 11
1251.1850143455476
 21
906.72164415335487
  0
LINE
  8
_0-0_
  6
CONTINUOUS
 62
    2
 10
1240.8755250194226
 20
910.97397578773189
 11
1246.1691245407956
 21
909.18444941860571
  0
LINE
  8
_0-0_
  6
CONTINUOUS
 62
    2
 10
1235.3947728950479
 20
912.05982763310499
 11
1240.8755250194226
 21
910.97397578773189
  0
LINE
  8
_0-0_
  6
CONTINUOUS
 62
    2
 10
1229.8186848197947
 20
912.42388982748116
 11
1235.3947728950479
 21
912.05982763310499
  0
LINE
  8
_0-0_
  6
CONTINUOUS
 62
    2
 10
1224.2426152671724
 20
912.05982763310499
 11
1229.8186848197947
 21
912.42388982748116
  0
LINE
  8
_0-0_
  6
CONTINUOUS
 62
    2
 10
1218.7618631427968
 20
910.97397578773189
 11
1224.2426152671724
 21
912.05982763310499
  0
LINE
  8
_0-0_
  6
CONTINUOUS
 62
    2
 10
1213.4682636214202
 20
909.18444941860571
 11
1218.7618631427968
 21
910.97397578773189
  0
LINE
  8
_0-0_
  6
CONTINUOUS
 62
    2
 10
1208.4523738166718
 20
906.72164415335487
 11
1213.4682636214202
 21
909.18444941860571
  0
LINE
  8
_0-0_
  6
CONTINUOUS
 62
    2
 10
1203.7998979144204
 20
903.62771748647924
 11
1208.4523738166718
 21
906.72164415335487
  0
LINE
  8
_0-0_
  6
CONTINUOUS
 62
    2
 10
1199.588760598047
 20
899.95449572273014
 11
1203.7998979144204
 21
903.62771748647924
  0
LINE
  8
_0-0_
  6
CONTINUOUS
 62
    2
 10
1195.8906259036721
 20
895.76465942510458
 11
1199.588760598047
 21
899.95449572273014
  0
LINE
  8
_0-0_
  6
CONTINUOUS
 62
    2
 10
1192.7734348197982
 20
891.13620736748112
 11
1195.8906259036721
 21
895.76465942510458
  0
LINE
  8
_0-0_
  6
CONTINUOUS
 62
    2
 10
1195.8906259036721
 20
886.50814428497961
 11
1192.7734348197982
 21
891.13657781998199
  0
LINE
  8
_0-0_
  6
CONTINUOUS
 62
    2
 10
1199.588760598047
 20
882.31830798735382
 11
1195.8906259036721
 21
886.50814428497961
  0
LINE
  8
_0-0_
  6
CONTINUOUS
 62
    2
 10
1203.7998979144204
 20
878.64508622360495
 11
1199.588760598047
 21
882.31830798735382
  0
LINE
  8
_0-0_
  6
CONTINUOUS
 62
    2
 10
1208.4523738166718
 20
875.55115955672932
 11
1203.7998979144204
 21
878.64508622360495
  0
LINE
  8
_0-0_
  6
CONTINUOUS
 62
    2
 10
1213.4682636214202
 20
873.08835429148189
 11
1208.4523738166718
 21
875.55115955672932
  0
LINE
  8
_0-0_
  6
CONTINUOUS
 62
    2
 10
1218.7618631427968
 20
871.29882792235549
 11
1213.4682636214202
 21
873.08835429148189
  0
LINE
  8
_0-0_
  6
CONTINUOUS
 62
    2
 10
1224.2426152671724
 20
870.21297607698239
 11
1218.7618631427968
 21
871.29882792235549
  0
LINE
  8
_0-0_
  6
CONTINUOUS
 62
    2
 10
1229.8186848197947
 20
869.84889535998195
 11
1224.2426152671724
 21
870.21297607698239
  0
LINE
  8
_0-0_
  6
CONTINUOUS
 62
    2
 10
1235.3947728950479
 20
870.21297607698239
 11
1229.8186848197947
 21
869.84889535998195
  0
LINE
  8
_0-0_
  6
CONTINUOUS
 62
    2
 10
1240.8755250194226
 20
871.29882792235549
 11
1235.3947728950479
 21
870.21297607698239
  0
LINE
  8
_0-0_
  6
CONTINUOUS
 62
    2
 10
1246.1691245407956
 20
873.08835429148189
 11
1240.8755250194226
 21
871.29882792235549
  0
LINE
  8
_0-0_
  6
CONTINUOUS
 62
    2
 10
1251.1850143455476
 20
875.55115955672932
 11
1246.1691245407956
 21
873.08835429148189
  0
LINE
  8
_0-0_
  6
CONTINUOUS
 62
    2
 10
1255.8374902477954
 20
878.64508622360495
 11
1251.1850143455476
 21
875.55115955672932
  0
LINE
  8
_0-0_
  6
CONTINUOUS
 62
    2
 10
1260.0486275641724
 20
882.31830798735382
 11
1255.8374902477954
 21
878.64508622360495
  0
LINE
  8
_0-0_
  6
CONTINUOUS
 62
    2
 10
1263.7467622585473
 20
886.50814428497961
 11
1260.0486275641724
 21
882.31830798735382
  0
LINE
  8
_0-0_
  6
CONTINUOUS
 62
    2
 10
1266.8639348197967
 20
891.13657781998199
 11
1263.7467622585473
 21
886.50814428497961
  0
LINE
  8
_0-0_
  6
CONTINUOUS
 62
    2
 10
1125.4982605980476
 20
882.31830798735382
 11
1121.8001259036728
 21
886.50814428497961
  0
LINE
  8
_0-0_
  6
CONTINUOUS
 62
    2
 10
1129.7093979144202
 20
878.64508622360495
 11
1125.4982605980476
 21
882.31830798735382
  0
LINE
  8
_0-0_
  6
CONTINUOUS
 62
    2
 10
1134.3618738166715
 20
875.55115955672932
 11
1129.7093979144202
 21
878.64508622360495
  0
LINE
  8
_0-0_
  6
CONTINUOUS
 62
    2
 10
1139.3777636214199
 20
873.08835429148189
 11
1134.3618738166715
 21
875.55115955672932
  0
LINE
  8
_0-0_
  6
CONTINUOUS
 62
    2
 10
1144.6713631427965
 20
871.29882792235549
 11
1139.3777636214199
 21
873.08835429148189
  0
LINE
  8
_0-0_
  6
CONTINUOUS
 62
    2
 10
1150.1521152671721
 20
870.21297607698239
 11
1144.6713631427965
 21
871.29882792235549
  0
LINE
  8
_0-0_
  6
CONTINUOUS
 62
    2
 10
1155.7281848197954
 20
869.84889535998195
 11
1150.1521152671721
 21
870.21297607698239
  0
LINE
  8
_0-0_
  6
CONTINUOUS
 62
    2
 10
1161.3042728950459
 20
870.21297607698239
 11
1155.7281848197954
 21
869.84889535998195
  0
LINE
  8
_0-0_
  6
CONTINUOUS
 62
    2
 10
1166.7850250194215
 20
871.29882792235549
 11
1161.3042728950459
 21
870.21297607698239
  0
LINE
  8
_0-0_
  6
CONTINUOUS
 62
    2
 10
1172.0786245407971
 20
873.08835429148189
 11
1166.7850250194215
 21
871.29882792235549
  0
LINE
  8
_0-0_
  6
CONTINUOUS
 62
    2
 10
1177.0945143455456
 20
875.55115955672932
 11
1172.0786245407971
 21
873.08835429148189
  0
LINE
  8
_0-0_
  6
CONTINUOUS
 62
    2
 10
1181.7469902477969
 20
878.64508622360495
 11
1177.0945143455456
 21
875.55115955672932
  0
LINE
  8
_0-0_
  6
CONTINUOUS
 62
    2
 10
1185.9581275641704
 20
882.31830798735382
 11
1181.7469902477969
 21
878.64508622360495
  0
LINE
  8
_0-0_
  6
CONTINUOUS
 62
    2
 10
1192.7734348197982
 20
891.13657781998199
 11
1189.6562622585452
 21
886.50814428497961
  0
LINE
  8
_0-0_
  6
CONTINUOUS
 62
    2
 10
1118.6834099203434
 20
1037.0202143575673
 11
1118.6834099203434
 21
891.13587238638797
  0
LINE
  8
_0-0_
  6
CONTINUOUS
 62
    2
 10
1121.8001259036728
 20
886.50814428497961
 11
1118.6834099203434
 21
891.13587238638797
  0
LINE
  8
_0-0_
  6
CONTINUOUS
 62
    2
 10
1258.2839348197958
 20
1093.7270111400078
 11
1258.2839348197958
 21
901.49377295545423
  0
LINE
  8
_0-0_
  6
CONTINUOUS
 62
    2
 10
1127.2439348197968
 20
1093.7270111400078
 11
1127.2439348197968
 21
880.79561991949777
  0
LINE
  8
_0-0_
  6
CONTINUOUS
 62
    7
 10
1413.9914206453241
 20
1169.2234406605003
 11
1459.9127551600232
 21
1248.7615251913248
  0
POINT
  8
_0-0_
 62
    7
 10
1413.9914206453241
 20
1169.2234406605003
  0
TEXT
  8
_0-0_
 62
    7
 10
1462.4211675552178
 20
1230.3371689039377
 40
30
 41
1
 50
0
  1
防水層
  0
LINE
  8
_0-0_
  6
CENTER1
 62
    7
 10
1192.7639348197963
 20
853.76401428451413
 11
1192.7639348197963
 21
1411.8223726527062
  0
LINE
  8
_0-0_
  6
CONTINUOUS
 62
    7
 10
672.13606690525205
 20
820.44381216958413
 11
1706.8525777203668
 21
820.44381216958413
  0
TEXT
  8
_0-0_
 62
    7
 10
718.76084653185183
 20
1400.2260503374041
 40
30
 41
1
 50
0
  1
縦型
  0
TEXT
  8
_0-0_
 62
    7
 10
722.03489007346445
 20
745.41734201477379
 40
30
 41
1
 50
0
  1
横型
  0
LINE
  8
_0-0_
  6
CONTINUOUS
 62
    7
 10
1247.1879936625019
 20
459.98235466124538
 11
1250.1879936625019
 21
459.98235466124538
  0
LINE
  8
_0-0_
  6
CONTINUOUS
 62
    7
 10
1250.1879936625019
 20
459.98235466124538
 11
1251.1879936625019
 21
457.98235466124538
  0
LINE
  8
_0-0_
  6
CONTINUOUS
 62
    4
 10
1250.534745433107
 20
461.27644988675769
 11
1250.1879936625019
 21
459.98235466124538
  0
ARC
  8
_0-0_
  6
CONTINUOUS
 62
    4
 10
1255.3643745645522
 20
459.98235466124538
 40
5
 50
90
 51
165.00000000000327
  0
LINE
  8
_0-0_
  6
CONTINUOUS
 62
    4
 10
1327.043196296421
 20
464.98235466124538
 11
1381.2312700151151
 21
477.6964737124265
  0
LINE
  8
_0-0_
  6
CONTINUOUS
 62
    7
 10
1163.7556994546035
 20
566.3750604533468
 11
1177.7556994546044
 21
566.3750604533468
  0
LINE
  8
_0-0_
  6
CONTINUOUS
 62
    7
 10
1162.7556994546035
 20
567.3750604533468
 11
1163.7556994546035
 21
566.3750604533468
  0
LINE
  8
_0-0_
  6
CONTINUOUS
 62
    7
 10
1162.7556994546035
 20
571.72506045334717
 11
1162.7556994546035
 21
567.3750604533468
  0
LINE
  8
_0-0_
  6
CONTINUOUS
 62
    7
 10
1163.7556994546035
 20
572.72506045334717
 11
1162.7556994546035
 21
571.72506045334717
  0
LINE
  8
_0-0_
  6
CONTINUOUS
 62
    7
 10
1177.7556994546044
 20
572.72506045334717
 11
1163.7556994546035
 21
572.72506045334717
  0
ARC
  8
_0-0_
  6
CONTINUOUS
 62
    7
 10
1176.3842708831748
 20
569.55006045334699
 40
5.5714285714285214
 50
7.4251436854322064
 51
75.749967302198101
  0
LINE
  8
_0-0_
  6
CONTINUOUS
 62
    7
 10
1179.6556994546049
 20
570.27006045334724
 11
1181.9089804978553
 21
570.27006045334724
  0
LINE
  8
_0-0_
  6
CONTINUOUS
 62
    7
 10
1179.6556994546049
 20
568.83006045334673
 11
1179.6556994546049
 21
570.27006045334724
  0
LINE
  8
_0-0_
  6
CONTINUOUS
 62
    7
 10
1181.9089804978553
 20
568.83006045334673
 11
1179.6556994546049
 21
568.83006045334673
  0
ARC
  8
_0-0_
  6
CONTINUOUS
 62
    7
 10
1176.3842708831758
 20
569.55006045334699
 40
5.5714285714282301
 50
284.25003269780018
 51
352.57485631456524
  0
LINE
  8
_0-0_
  6
CONTINUOUS
 62
    7
 10
1177.7556994546044
 20
574.95006045334662
 11
1177.7556994546044
 21
564.15006045334735
  0
LINE
  8
_0-0_
  6
CONTINUOUS
 62
    7
 10
1173.8095673948642
 20
493.16027757970886
 11
1189.3659165809672
 21
477.60392839360492
  0
LINE
  8
_0-0_
  6
CONTINUOUS
 62
    7
 10
1172.6781965449641
 20
492.02890672981056
 11
1173.8095673948642
 21
493.16027757970886
  0
LINE
  8
_0-0_
  6
CONTINUOUS
 62
    7
 10
1188.234545731068
 20
476.47255754370661
 11
1172.6781965449641
 21
492.02890672981056
  0
LINE
  8
_0-0_
  6
CONTINUOUS
 62
    7
 10
1189.3659165809672
 20
477.60392839360492
 11
1188.234545731068
 21
476.47255754370661
  0
LINE
  8
_0-0_
  6
CONTINUOUS
 62
    7
 10
1201.3867318611378
 20
511.12078982184784
 11
1184.2747477564239
 21
494.00880571713304
  0
LINE
  8
_0-0_
  6
CONTINUOUS
 62
    7
 10
1200.2553610112404
 20
511.12078982184693
 11
1183.7090623314748
 21
494.57449114208219
  0
LINE
  8
_0-0_
  6
CONTINUOUS
 62
    7
 10
1202.3766813548004
 20
511.12078982184693
 11
1200.2553610112404
 21
511.12078982184693
  0
LINE
  8
_0-0_
  6
CONTINUOUS
 62
    7
 10
1207.3264288231053
 20
506.17104235354117
 11
1202.3766813548004
 21
511.12078982184693
  0
LINE
  8
_0-0_
  6
CONTINUOUS
 62
    7
 10
1207.3264288231053
 20
504.04972200998208
 11
1207.3264288231053
 21
506.17104235354117
  0
LINE
  8
_0-0_
  6
CONTINUOUS
 62
    7
 10
1190.7801301433406
 20
487.50342333021644
 11
1207.3264288231053
 21
504.04972200998208
  0
LINE
  8
_0-0_
  6
CONTINUOUS
 62
    7
 10
1193.6479892175134
 20
483.56190834048328
 11
1193.2550038774939
 21
485.02854959606401
  0
LINE
  8
_0-0_
  6
CONTINUOUS
 62
    7
 10
1188.5279629258007
 20
478.44188204877145
 11
1193.6479892175134
 21
483.56190834048328
  0
LINE
  8
_0-0_
  6
CONTINUOUS
 62
    7
 10
1174.6475210500307
 20
492.32232392454324
 11
1188.5279629258007
 21
478.44188204877145
  0
LINE
  8
_0-0_
  6
CONTINUOUS
 62
    7
 10
1179.7675473417407
 20
497.44235021625417
 11
1174.6475210500307
 21
492.32232392454324
  0
LINE
  8
_0-0_
  6
CONTINUOUS
 62
    7
 10
1181.2341885973215
 20
497.04936487623553
 11
1179.7675473417407
 21
497.44235021625417
  0
LINE
  8
_0-0_
  6
CONTINUOUS
 62
    7
 10
1193.2550038774939
 20
485.02854959606401
 11
1181.2341885973215
 21
497.04936487623553
  0
LINE
  8
_0-0_
  6
CONTINUOUS
 62
    7
 10
1183.2376578106837
 20
493.97223974731213
 11
1181.2341885973215
 21
497.04936487623553
  0
ARC
  8
_0-0_
  6
CONTINUOUS
 62
    7
 10
1175.7606089150172
 20
479.55496991375884
 40
16.240810621445799
 50
27.412046226006396
 51
62.587953773993704
  0
LINE
  8
_0-0_
  6
CONTINUOUS
 62
    7
 10
1193.2550038774939
 20
485.02854959606401
 11
1190.1778787485705
 21
487.03201880942623
  0
LINE
  8
_0-0_
  6
CONTINUOUS
 62
    7
 10
1207.3264288231053
 20
505.18109285988038
 11
1190.2144447183896
 21
488.06910875516559
  0
LINE
  8
_0-0_
  6
CONTINUOUS
 62
    7
 10
1200.2553610112404
 20
511.12078982184784
 11
1207.3264288231053
 21
504.04972200998208
  0
ARC
  8
_0-0_
  6
CONTINUOUS
 62
    7
 10
1172.7556994545962
 20
476.55006045334693
 40
10
 50
255.00000000007287
 51
270
  0
ARC
  8
_0-0_
  6
CONTINUOUS
 62
    7
 10
1218.7764967440012
 20
472.55006045334602
 40
0.9999999999996328
 50
224.90087215595801
 51
270
  0
ARC
  8
_0-0_
  6
CONTINUOUS
 62
    7
 10
1212.7556994546044
 20
466.55006045334602
 40
7.5000000000002487
 50
44.900872155958005
 51
125.68533471264276
  0
LINE
  8
_0-0_
  6
CONTINUOUS
 62
    7
 10
1206.8605525580401
 20
471.55006045334693
 11
1208.3806994546062
 21
472.64180691885275
  0
ARC
  8
_0-0_
  6
CONTINUOUS
 62
    7
 10
1217.1431816483014
 20
467.55006045334693
 40
1.0000000000000699
 50
192.83958840692833
 51
270
  0
ARC
  8
_0-0_
  6
CONTINUOUS
 62
    7
 10
1212.7556994546044
 20
466.55006045334693
 40
3.500000000000048
 50
12.839588406928298
 51
125.68533471264276
  0
LINE
  8
_0-0_
  6
CONTINUOUS
 62
    7
 10
1206.7556994546044
 20
466.55006045334693
 11
1210.7140327879383
 21
469.39287547058274
  0
ARC
  8
_0-0_
  6
CONTINUOUS
 62
    7
 10
1185.0097327622193
 20
467.05006045333874
 40
0.5
 50
270
 51
75.287668388261906
  0
ARC
  8
_0-0_
  6
CONTINUOUS
 62
    7
 10
1163.2556994546035
 20
488.80409376093274
 40
0.5
 50
14.712331611805297
 51
180
  0
LINE
  8
_0-0_
  6
CONTINUOUS
 62
    7
 10
1185.0578524568577
 20
481.9119925177144
 11
1190.1778787485705
 21
487.03201880942623
  0
LINE
  8
_0-0_
  6
CONTINUOUS
 62
    7
 10
1183.2376578106837
 20
493.97223974731213
 11
1178.1176315189718
 21
488.85221345559938
  0
LINE
  8
_0-0_
  6
CONTINUOUS
 62
    7
 10
1184.168681739246
 20
480.53842153552949
 11
1185.3000525891453
 21
481.6697923854278
  0
LINE
  8
_0-0_
  6
CONTINUOUS
 62
    7
 10
1176.7440605367869
 20
487.96304273798859
 11
1177.8754313866862
 21
489.09441358788598
  0
LINE
  8
_0-0_
  6
CONTINUOUS
 62
    7
 10
1162.7556994546035
 20
567.3750604533468
 11
1177.7556994546044
 21
567.3750604533468
  0
LINE
  8
_0-0_
  6
CONTINUOUS
 62
    7
 10
1162.7556994546035
 20
571.72506045334717
 11
1177.7556994546044
 21
571.72506045334717
  0
LINE
  8
_0-0_
  6
CONTINUOUS
 62
    7
 10
1163.7556994546035
 20
572.72506045334717
 11
1163.7556994546035
 21
566.3750604533468
  0
LINE
  8
_0-0_
  6
CONTINUOUS
 62
    7
 10
1177.7556994546044
 20
576.55006045334699
 11
1176.7901822132249
 21
577.51557769472652
  0
LINE
  8
_0-0_
  6
CONTINUOUS
 62
    7
 10
1272.7556994546044
 20
481.55006045334693
 11
1273.7212166959839
 21
480.5845432119674
  0
LINE
  8
_0-0_
  6
CONTINUOUS
 62
    7
 10
1177.7556994546044
 20
558.55006045334699
 11
1177.7556994546044
 21
554.55006045334699
  0
LINE
  8
_0-0_
  6
CONTINUOUS
 62
    7
 10
1177.7556994546044
 20
514.66275882555487
 11
1177.7556994546044
 21
495.43050232911781
  0
LINE
  8
_0-0_
  6
CONTINUOUS
 62
    7
 10
1210.8683978268141
 20
481.55006045334693
 11
1191.6361413303753
 21
481.55006045334693
  0
LINE
  8
_0-0_
  6
CONTINUOUS
 62
    7
 10
1222.1821063257971
 20
481.55006045334693
 11
1247.6379504485135
 21
481.55006045334693
  0
ARC
  8
_0-0_
  6
CONTINUOUS
 62
    7
 10
1179.7556994546035
 20
551.43231144725519
 40
2
 50
180.00000000000006
 51
314.99999999999102
  0
ARC
  8
_0-0_
  6
CONTINUOUS
 62
    7
 10
1179.7556994546035
 20
525.97646732453882
 40
2
 50
134.99999999999105
 51
180
  0
ARC
  8
_0-0_
  6
CONTINUOUS
 62
    7
 10
1179.7556994546035
 20
514.66275882555487
 40
2
 50
180.00000000000006
 51
314.99999999999102
  0
ARC
  8
_0-0_
  6
CONTINUOUS
 62
    7
 10
1210.8683978268141
 20
483.55006045334693
 40
2
 50
134.99999999999102
 51
270
  0
ARC
  8
_0-0_
  6
CONTINUOUS
 62
    7
 10
1222.1821063257971
 20
483.55006045334693
 40
2
 50
270
 51
314.99999999999102
  0
ARC
  8
_0-0_
  6
CONTINUOUS
 62
    7
 10
1247.6379504485135
 20
483.55006045334693
 40
2
 50
134.99999999999102
 51
270
  0
ARC
  8
_0-0_
  6
CONTINUOUS
 62
    7
 10
1265.7329692462959
 20
483.55006045334693
 40
2
 50
181.30228893516397
 51
270
  0
LINE
  8
_0-0_
  6
CONTINUOUS
 62
    7
 10
1257.7556994546044
 20
474.55006045334693
 11
1188.9416525122547
 21
474.55006045334693
  0
ARC
  8
_0-0_
  6
CONTINUOUS
 62
    7
 10
1179.7556994546035
 20
569.52733024503846
 40
2
 50
179.99999999999994
 51
268.69771106483603
  0
ARC
  8
_0-0_
  6
CONTINUOUS
 62
    7
 10
1179.7556994546035
 20
560.55006045334699
 40
2
 50
180
 51
270
  0
LINE
  8
_0-0_
  6
CONTINUOUS
 62
    7
 10
1170.7556994546035
 20
557.55006045334699
 11
1170.7556994546035
 21
492.73601351099722
  0
LINE
  8
_0-0_
  6
CONTINUOUS
 62
    7
 10
1236.2800129236125
 20
531.58909254811601
 11
1191.4872369245272
 21
486.79631654903068
  0
LINE
  8
_0-0_
  6
CONTINUOUS
 62
    7
 10
1242.6613436941366
 20
537.97042331864009
 11
1236.2800129236125
 21
531.58909254811601
  0
LINE
  8
_0-0_
  6
CONTINUOUS
 62
    7
 10
1243.314852133652
 20
537.20971819578403
 11
1192.1943437057139
 21
486.08920976784401
  0
LINE
  8
_0-0_
  6
CONTINUOUS
 62
    7
 10
1244.476347799789
 20
519.98643755106855
 11
1209.4541842644398
 21
484.96427401571935
  0
LINE
  8
_0-0_
  6
CONTINUOUS
 62
    7
 10
1251.04172740882
 20
526.55181716010043
 11
1244.476347799789
 21
519.98643755106855
  0
LINE
  8
_0-0_
  6
CONTINUOUS
 62
    7
 10
1249.9058385102321
 20
508.44536551303526
 11
1223.5963198881695
 21
482.1358468909736
  0
LINE
  8
_0-0_
  6
CONTINUOUS
 62
    7
 10
1256.8277796192529
 20
515.36730662205787
 11
1249.9058385102321
 21
508.44536551303526
  0
LINE
  8
_0-0_
  6
CONTINUOUS
 62
    7
 10
1253.9460972784259
 20
492.68663440800691
 11
1246.2237368861402
 21
484.96427401572026
  0
LINE
  8
_0-0_
  6
CONTINUOUS
 62
    7
 10
1261.6635417038465
 20
500.40407883342658
 11
1253.9460972784259
 21
492.68663440800691
  0
LINE
  8
_0-0_
  6
CONTINUOUS
 62
    7
 10
1227.7947315493743
 20
540.0743739223542
 11
1183.0019555502881
 21
495.28159792326886
  0
LINE
  8
_0-0_
  6
CONTINUOUS
 62
    7
 10
1234.1760623198984
 20
546.45570469287827
 11
1227.7947315493743
 21
540.0743739223542
  0
LINE
  8
_0-0_
  6
CONTINUOUS
 62
    7
 10
1233.4153571970432
 20
547.10921313239464
 11
1182.2948487691015
 21
495.98870470445553
  0
LINE
  8
_0-0_
  6
CONTINUOUS
 62
    7
 10
1216.1920765523269
 20
548.27070879853068
 11
1181.1699130169768
 21
513.24854526318154
  0
LINE
  8
_0-0_
  6
CONTINUOUS
 62
    7
 10
1222.7574561613587
 20
554.83608840756256
 11
1216.1920765523269
 21
548.27070879853068
  0
LINE
  8
_0-0_
  6
CONTINUOUS
 62
    7
 10
1204.6510045142936
 20
553.70019950897381
 11
1178.3414858922301
 21
527.39068088691215
  0
LINE
  8
_0-0_
  6
CONTINUOUS
 62
    7
 10
1211.5729456233153
 20
560.62214061799637
 11
1204.6510045142936
 21
553.70019950897381
  0
LINE
  8
_0-0_
  6
CONTINUOUS
 62
    7
 10
1185.701875585441
 20
554.55006045334699
 11
1181.1699130169768
 21
550.01809788488185
  0
LINE
  8
_0-0_
  6
CONTINUOUS
 62
    7
 10
1196.609717834684
 20
565.45790270258817
 11
1185.7018755854428
 21
554.55006045334699
  0
LINE
  8
_0-0_
  6
CONTINUOUS
 62
    7
 10
1236.3954720828419
 20
545.1395805498903
 11
1237.1031517847473
 21
545.84726025179475
  0
LINE
  8
_0-0_
  6
CONTINUOUS
 62
    7
 10
1241.3452195511477
 20
540.18983308158363
 11
1242.052899253054
 21
540.89751278348899
  0
LINE
  8
_0-0_
  6
CONTINUOUS
 62
    7
 10
1245.5813967197068
 20
535.23362209471702
 11
1240.0229480669427
 21
526.84674631720804
  0
LINE
  8
_0-0_
  6
CONTINUOUS
 62
    7
 10
1231.4392610959762
 20
549.37575771844854
 11
1223.0523853184645
 21
543.81730906568532
  0
LINE
  8
_0-0_
  6
CONTINUOUS
 62
    7
 10
1202.2505968824357
 20
558.55006045334699
 11
1207.7556994546044
 21
562.14782717178673
  0
LINE
  8
_0-0_
  6
CONTINUOUS
 62
    7
 10
1173.0890327879392
 20
573.55006045334699
 11
1177.7556994546044
 21
573.55006045334699
  0
LINE
  8
_0-0_
  6
CONTINUOUS
 62
    7
 10
1254.7556994546044
 20
481.55006045334693
 11
1254.7556994546044
 21
477.55006045334693
  0
LINE
  8
_0-0_
  6
CONTINUOUS
 62
    7
 10
1177.7556994546044
 20
558.55006045334699
 11
1173.7556994546035
 21
558.55006045334699
  0
LINE
  8
_0-0_
  6
CONTINUOUS
 62
    7
 10
1202.2505968824385
 20
554.55006045334699
 11
1202.2505968824357
 21
558.55006045334699
  0
ARC
  8
_0-0_
  6
CONTINUOUS
 62
    7
 10
1173.7556994546035
 20
557.55006045334699
 40
3
 50
180
 51
270
  0
LINE
  8
_0-0_
  6
CONTINUOUS
 62
    7
 10
1173.7556994546035
 20
554.55006045334699
 11
1202.2505968824385
 21
554.55006045334699
  0
LINE
  8
_0-0_
  6
CONTINUOUS
 62
    7
 10
1179.7556994546035
 20
558.55006045334699
 11
1202.2505968824357
 21
558.55006045334699
  0
ARC
  8
_0-0_
  6
CONTINUOUS
 62
    7
 10
1177.7556994546044
 20
481.55006045334693
 40
77
 50
71.451000386577704
 51
90
  0
ARC
  8
_0-0_
  6
CONTINUOUS
 62
    7
 10
1177.7556994546044
 20
481.55006045334693
 40
77
 50
0
 51
71.451000386577704
  0
ARC
  8
_0-0_
  6
CONTINUOUS
 62
    7
 10
1177.7556994546044
 20
481.55006045334693
 40
87.5
 50
42.707557224017499
 51
47.29244277596252
  0
ARC
  8
_0-0_
  6
CONTINUOUS
 62
    7
 10
1177.7556994546044
 20
481.55006045334693
 40
86.5
 50
38.361366560620091
 51
51.638633439393281
  0
ARC
  8
_0-0_
  6
CONTINUOUS
 62
    7
 10
1177.7556994546044
 20
481.55006045334693
 40
86
 50
51.747571769753101
 51
88.697711064836071
  0
ARC
  8
_0-0_
  6
CONTINUOUS
 62
    7
 10
1177.7556994546044
 20
481.55006045334693
 40
86
 50
38.252428230275719
 51
51.747571769753115
  0
ARC
  8
_0-0_
  6
CONTINUOUS
 62
    7
 10
1177.7556994546044
 20
481.55006045334693
 40
86
 50
1.3022889351638973
 51
38.252428230275726
  0
ARC
  8
_0-0_
  6
CONTINUOUS
 62
    7
 10
1257.7556994546044
 20
477.55006045334693
 40
3
 50
180
 51
270
  0
LINE
  8
_0-0_
  6
CONTINUOUS
 62
    7
 10
1267.2556994546044
 20
474.55006045334693
 11
1257.7556994546044
 21
474.55006045334693
  0
LINE
  8
_0-0_
  6
CONTINUOUS
 62
    7
 10
1170.7556994546035
 20
571.05006045334699
 11
1170.7556994546035
 21
557.55006045334699
  0
LINE
  8
_0-0_
  6
CONTINUOUS
 62
    7
 10
1273.7212166959839
 20
480.5845432119674
 11
1267.2556994546044
 21
474.55006045334693
  0
LINE
  8
_0-0_
  6
CONTINUOUS
 62
    7
 10
1247.6379504485135
 20
481.55006045334693
 11
1272.7556994546044
 21
481.55006045334602
  0
LINE
  8
_0-0_
  6
CONTINUOUS
 62
    7
 10
1210.8683978268141
 20
481.55006045334693
 11
1222.1821063257971
 21
481.55006045334693
  0
LINE
  8
_0-0_
  6
CONTINUOUS
 62
    7
 10
1177.7556994546044
 20
525.97646732453882
 11
1177.7556994546044
 21
514.66275882555487
  0
LINE
  8
_0-0_
  6
CONTINUOUS
 62
    7
 10
1177.7556994546044
 20
554.55006045334699
 11
1177.7556994546044
 21
551.43231144725519
  0
LINE
  8
_0-0_
  6
CONTINUOUS
 62
    7
 10
1177.7556994546044
 20
576.55006045334699
 11
1177.7556994546044
 21
558.55006045334699
  0
LINE
  8
_0-0_
  6
CONTINUOUS
 62
    7
 10
1176.7901822132249
 20
577.51557769472561
 11
1170.7556994546035
 21
571.05006045334699
  0
LINE
  8
_0-0_
  6
CONTINUOUS
 62
    7
 10
1227.7556994546044
 20
471.55006045334693
 11
1227.7556994546044
 21
466.55006045334693
  0
LINE
  8
_0-0_
  6
CONTINUOUS
 62
    7
 10
1162.7556994546035
 20
531.55006045334699
 11
1167.7556994546035
 21
531.55006045334699
  0
LINE
  8
_0-0_
  6
CONTINUOUS
 62
    7
 10
1177.7556994546044
 20
571.55006045334699
 11
1167.7556994546035
 21
558.69291759620387
  0
LINE
  8
_0-0_
  6
CONTINUOUS
 62
    7
 10
1177.5018540262022
 20
584.21513603539711
 11
1170.7556994546035
 21
575.54150872905825
  0
LINE
  8
_0-0_
  6
CONTINUOUS
 62
    7
 10
1170.7556994546035
 20
565.55006045334699
 11
1170.7556994546035
 21
562.55006045334699
  0
ARC
  8
_0-0_
  6
CONTINUOUS
 62
    7
 10
1176.2556994546035
 20
585.05006045334699
 40
1.5
 50
326.17788765133332
 51
90
  0
LINE
  8
_0-0_
  6
CONTINUOUS
 62
    7
 10
1177.7556994546044
 20
571.55006045334699
 11
1177.7556994546044
 21
585.05006045334699
  0
LINE
  8
_0-0_
  6
CONTINUOUS
 62
    7
 10
1262.9477793596975
 20
474.55006045334693
 11
1272.9477793596975
 21
474.55006045334693
  0
LINE
  8
_0-0_
  6
CONTINUOUS
 62
    7
 10
1262.9477793596975
 20
474.55006045334693
 11
1259.6159418152097
 21
471.55006045334693
  0
LINE
  8
_0-0_
  6
CONTINUOUS
 62
    7
 10
1280.0556994546055
 20
480.95006045334748
 11
1269.6159418152097
 21
471.55006045334693
  0
ARC
  8
_0-0_
  6
CONTINUOUS
 62
    7
 10
1281.2556994546044
 20
480.05006045334693
 40
1.5
 50
0
 51
143.13010235416249
  0
LINE
  8
_0-0_
  6
CONTINUOUS
 62
    7
 10
1267.7556994546044
 20
481.55006045334693
 11
1281.2556994546044
 21
481.55006045334693
  0
LINE
  8
_0-0_
  6
CONTINUOUS
 62
    7
 10
1162.7556994546035
 20
566.55006045334699
 11
1170.7556994546035
 21
566.55006045334699
  0
LINE
  8
_0-0_
  6
CONTINUOUS
 62
    7
 10
1162.7556994546035
 20
572.55006045334699
 11
1170.7556994546035
 21
572.55006045334699
  0
LINE
  8
_0-0_
  6
CONTINUOUS
 62
    7
 10
1162.7556994546035
 20
571.55006045334699
 11
1170.7556994546035
 21
571.55006045334699
  0
LINE
  8
_0-0_
  6
CONTINUOUS
 62
    7
 10
1162.7556994546035
 20
567.55006045334699
 11
1170.7556994546035
 21
567.55006045334699
  0
LINE
  8
_0-0_
  6
CONTINUOUS
 62
    7
 10
1170.7556994546035
 20
575.54150872905825
 11
1170.7556994546035
 21
565.24723214326218
  0
LINE
  8
_0-0_
  6
CONTINUOUS
 62
    7
 10
1171.9710897637792
 20
492.73601351099722
 11
1162.9991363815357
 21
492.73601351099722
  0
LINE
  8
_0-0_
  6
CONTINUOUS
 62
    7
 10
1188.9416525122547
 20
475.76545076251995
 11
1188.9416525122547
 21
466.7934973802773
  0
LINE
  8
_0-0_
  6
CONTINUOUS
 62
    7
 10
1185.4061186063177
 20
479.30098466845692
 11
1176.2137304508929
 21
471.5228100754054
  0
LINE
  8
_0-0_
  6
CONTINUOUS
 62
    7
 10
1175.5066236697098
 20
489.2004796050648
 11
1167.7284490766592
 21
480.00809144963995
  0
LINE
  8
_0-0_
  6
CONTINUOUS
 62
    7
 10
1171.9710897637792
 20
492.73601351099722
 11
1188.9416525122547
 21
475.76545076251995
  0
LINE
  8
_0-0_
  6
CONTINUOUS
 62
    7
 10
1192.7556994546044
 20
471.55006045334693
 11
1193.5094864207144
 21
471.55006045334693
  0
LINE
  8
_0-0_
  6
CONTINUOUS
 62
    7
 10
1167.7556994546035
 20
496.55006045334693
 11
1167.7556994546035
 21
497.30384741945517
  0
ARC
  8
_0-0_
  6
CONTINUOUS
 62
    7
 10
1192.7556994546044
 20
496.55006045334693
 40
25
 50
261.22457957341652
 51
270
  0
ARC
  8
_0-0_
  6
CONTINUOUS
 62
    7
 10
1192.7556994546044
 20
496.55006045334693
 40
25
 50
180.00000000000006
 51
188.77542042658058
  0
ARC
  8
_0-0_
  6
CONTINUOUS
 62
    7
 10
1192.7556994546044
 20
496.55006045334693
 40
30
 50
234.59406822687521
 51
270
  0
ARC
  8
_0-0_
  6
CONTINUOUS
 62
    7
 10
1192.7556994546044
 20
496.55006045334693
 40
30
 50
180
 51
215.40593177317947
  0
LINE
  8
_0-0_
  6
CONTINUOUS
 62
    7
 10
1218.7764967440012
 20
471.55006045334693
 11
1282.7556994546044
 21
471.55006045334693
  0
LINE
  8
_0-0_
  6
CONTINUOUS
 62
    7
 10
1193.5094864207144
 20
471.55006045334693
 11
1206.8605525580401
 21
471.55006045334693
  0
LINE
  8
_0-0_
  6
CONTINUOUS
 62
    7
 10
1167.7556994546035
 20
558.69291759620387
 11
1167.7556994546035
 21
497.30384741945517
  0
LINE
  8
_0-0_
  6
CONTINUOUS
 62
    7
 10
1192.7556994546044
 20
466.55006045334693
 11
1206.7556994546044
 21
466.55006045334693
  0
LINE
  8
_0-0_
  6
CONTINUOUS
 62
    7
 10
1162.7556994546035
 20
586.55006045334699
 11
1176.2556994546035
 21
586.55006045334699
  0
LINE
  8
_0-0_
  6
CONTINUOUS
 62
    7
 10
1162.7556994546035
 20
586.55006045334699
 11
1162.7556994546035
 21
496.55006045334693
  0
LINE
  8
_0-0_
  6
CONTINUOUS
 62
    7
 10
1282.7556994546044
 20
480.05006045334693
 11
1282.7556994546044
 21
466.55006045334693
  0
ARC
  8
_0-0_
  6
CONTINUOUS
 62
    7
 10
1172.7556994546035
 20
476.55006045333874
 40
10
 50
179.99999999999994
 51
194.99999999994083
  0
LINE
  8
_0-0_
  6
CONTINUOUS
 62
    7
 10
1162.7556994546035
 20
560.5500604533388
 11
1162.7556994546035
 21
476.55006045333874
  0
LINE
  8
_0-0_
  6
CONTINUOUS
 62
    7
 10
1282.7556994546044
 20
466.55006045334693
 11
1172.7556994545962
 21
466.55006045334693
  0
LINE
  8
_0-0_
  6
CONTINUOUS
 62
    7
 10
1176.9208372320832
 20
487.78626604269147
 11
1152.6316444763984
 21
463.49707328700674
  0
LINE
  8
_0-0_
  6
CONTINUOUS
 62
    7
 10
1159.7027122882598
 20
456.42600547514462
 11
1183.9919050439453
 21
480.71519823083025
  0
LINE
  8
_0-0_
  6
CONTINUOUS
 62
    7
 10
1177.4865226570341
 20
487.22058061774231
 11
1152.8875939446777
 21
462.62165190538741
  0
LINE
  8
_0-0_
  6
CONTINUOUS
 62
    7
 10
1183.4262196189961
 20
481.28088365577941
 11
1158.8272909066409
 21
456.68195494342422
  0
LINE
  8
_0-0_
  6
CONTINUOUS
 62
    7
 10
672.13606690525205
 20
1633.3565543671134
 11
1706.8525777203668
 21
1633.3565543671134
  0
LINE
  8
_0-0_
  6
CONTINUOUS
 62
    7
 10
672.13606690525205
 20
1553.3565543671134
 11
1706.8525777203668
 21
1553.3565543671134
  0
LINE
  8
_0-0_
  6
CONTINUOUS
 62
    7
 10
672.13606690525205
 20
1473.3565543671134
 11
1706.8525777203668
 21
1473.3565543671134
  0
LINE
  8
_0-0_
  6
CONTINUOUS
 62
    7
 10
1189.4943223128093
 20
1633.3565543671134
 11
1189.4943223128093
 21
1473.3565543671134
  0
TEXT
  8
_0-0_
 62
    7
 10
1213.4943223128093
 20
1577.3565543671134
 40
20
 41
1
 50
0
  1
構造：ＲＣ造
  0
TEXT
  8
_0-0_
 62
    7
 10
1213.4943223128093
 20
1497.3565543671134
 40
20
 41
1
 50
0
  1
下地：コンクリートスラブ
  0
TEXT
  8
_0-0_
 62
    7
 10
696.13606690525205
 20
1497.3565543671134
 40
20
 41
1
 50
0
  1
施工部位：ドレン
  0
TEXT
  8
_0-0_
 62
    7
 10
696.13606690525205
 20
1577.3565543671134
 40
20
 41
1
 50
0
  1
図面番号：dr-rc
  0
ENDSEC
  0
EOF
