  0
SECTION
  2
HEADER
  9
$ACADVER
  1
AC1009
  9
$INSBASE
 10
0
 20
0
 30
0
  9
$EXTMIN
 10
0
 20
0
  9
$EXTMAX
 10
2378
 20
1682
  9
$LIMMIN
 10
0
 20
0
  9
$LIMMAX
 10
2378
 20
1682
  9
$LTSCALE
 40
1
  0
ENDSEC
  0
SECTION
  2
TABLES
  0
TABLE
  2
LTYPE
 70
     9
  0
LTYPE
  2
CONTINUOUS
 70
    64
  3
実線
 72
    65
 73
     0
 40
0.0
  0
LTYPE
  2
DASHED1
 70
    64
  3
--  --  --  --  --  --  --  --  
 72
    65
 73
     2
 40
2.5
 49
1.25
 49
-1.25
  0
LTYPE
  2
DASHED2
 70
    64
  3
----    ----    ----    ----    
 72
    65
 73
     2
 40
5.0
 49
2.5
 49
-2.5
  0
LTYPE
  2
DASHED3
 70
    64
  3
------  ------  ------  ------  
 72
    65
 73
     2
 40
5.0
 49
3.75
 49
-1.25
  0
LTYPE
  2
CENTER1
 70
    64
  3
----- - ----- - ----- - ----- - 
 72
    65
 73
     4
 40
10.0
 49
6.25
 49
-1.25
 49
1.25
 49
-1.25
  0
LTYPE
  2
CENTER2
 70
    64
  3
----------  --  ----------  --  
 72
    65
 73
     4
 40
20.0
 49
12.5
 49
-2.5
 49
2.5
 49
-2.5
  0
LTYPE
  2
PHANTOM1
 70
    64
  3
--- - - --- - - --- - - --- - - 
 72
    65
 73
     6
 40
10.0
 49
3.25
 49
-1.25
 49
1.25
 49
-1.25
 49
1.25
 49
-1.25
  0
LTYPE
  2
PHANTOM2
 70
    64
  3
--------  -  -  --------  -  -  
 72
    65
 73
     6
 40
20.0
 49
10.0
 49
-2.5
 49
1.25
 49
-2.5
 49
1.25
 49
-2.5
  0
LTYPE
  2
DOT
 70
    64
  3
-   -   -   -   -   -   -   -   
 72
    65
 73
     2
 40
2.5
 49
0.625
 49
-1.875
  0
LTYPE
  2
DUMMY
 70
    64
  3
ダミー
 72
    65
 73
     0
 40
0.0
  0
LTYPE
  2
RAND1
 70
    64
  3
ランダム線1
 72
    65
 73
     4
 40
10.0
 49
1.0
 49
-2.0
 49
3.0
 49
-4.0
  0
LTYPE
  2
RAND2
 70
    64
  3
ランダム線2
 72
    65
 73
     4
 40
14.0
 49
2.0
 49
-3.0
 49
4.0
 49
-5.0
  0
LTYPE
  2
RAND3
 70
    64
  3
ランダム線3
 72
    65
 73
     4
 40
18.0
 49
3.0
 49
-4.0
 49
5.0
 49
-6.0
  0
LTYPE
  2
RAND4
 70
    64
  3
ランダム線4
 72
    65
 73
     4
 40
22.0
 49
4.0
 49
-5.0
 49
6.0
 49
-7.0
  0
LTYPE
  2
RAND5
 70
    64
  3
ランダム線5
 72
    65
 73
     4
 40
26.0
 49
5.0
 49
-6.0
 49
7.0
 49
-8.0
  0
LTYPE
  2
LONG1
 70
    64
  3
----------  --  ----------  --  
 72
    65
 73
     4
 40
40.0
 49
32.5
 49
-2.5
 49
2.5
 49
-2.5
  0
LTYPE
  2
LONG2
 70
    64
  3
--------  -  -  --------  -  -  
 72
    65
 73
     6
 40
40.0
 49
30.0
 49
-2.5
 49
1.25
 49
-2.5
 49
1.25
 49
-2.5
  0
LTYPE
  2
LONG3
 70
    64
  3
+++++++++++++++..+++++++++++++++
 72
    65
 73
     2
 40
40.0
 49
37.5
 49
-2.5
  0
LTYPE
  2
LONG4
 70
    64
  3
+++++++++++++++..+++++++++++++++
 72
    65
 73
     2
 40
80.0
 49
75.0
 49
-5.0
  0
LTYPE
  2
LONG5
 70
    64
  3
----------  --  ----------  --  
 72
    65
 73
     4
 40
60.0
 49
37.5
 49
-7.5
 49
7.5
 49
-7.5
  0
LTYPE
  2
dashed
 70
   64
  3
-------   -------------   ------
 72
   65
 73
    2
 40
7.5
 49
6
 49
-1.5
  0
LTYPE
  2
dashed_spaced
 70
   64
  3
----        --------        ----
 72
   65
 73
    2
 40
12
 49
6
 49
-6
  0
LTYPE
  2
long_dashed_dotted
 70
   64
  3
------------- --- --------------
 72
   65
 73
    4
 40
15.25
 49
12
 49
-1.5
 49
0.25
 49
-1.5
  0
LTYPE
  2
long_dashed_double-dotted
 70
   64
  3
----------- --- --- ------------
 72
   65
 73
    6
 40
17
 49
12
 49
-1.5
 49
0.25
 49
-1.5
 49
0.25
 49
-1.5
  0
LTYPE
  2
long_dashed_triplicate-dotted
 70
   64
  3
--------- --- --- --- ----------
 72
   65
 73
    8
 40
18.75
 49
12
 49
-1.5
 49
0.25
 49
-1.5
 49
0.25
 49
-1.5
 49
0.25
 49
-1.5
  0
LTYPE
  2
dotted
 70
   64
  3
   -       -       -       -    
 72
   65
 73
    2
 40
1.75
 49
0.25
 49
-1.5
  0
LTYPE
  2
chain
 70
   64
  3
-------------- -- --------------
 72
   65
 73
    4
 40
18.5
 49
12
 49
-1.5
 49
3.5
 49
-1.5
  0
LTYPE
  2
chain_double_dash
 70
   64
  3
------------ -- -- -------------
 72
   65
 73
    6
 40
23.5
 49
12
 49
-1.5
 49
3.5
 49
-1.5
 49
3.5
 49
-1.5
  0
LTYPE
  2
dashed_dotted
 70
   64
  3
-----------     -     ----------
 72
   65
 73
    4
 40
9.25
 49
6
 49
-1.5
 49
0.25
 49
-1.5
  0
LTYPE
  2
double-dashed_dotted
 70
   64
  3
------   -----------   -   -----
 72
   65
 73
    6
 40
16.75
 49
6
 49
-1.5
 49
6
 49
-1.5
 49
0.25
 49
-1.5
  0
LTYPE
  2
dashed_double-dotted
 70
   64
  3
---------    -    -    ---------
 72
   65
 73
    6
 40
11
 49
6
 49
-1.5
 49
0.25
 49
-1.5
 49
0.25
 49
-1.5
  0
LTYPE
  2
double-dashed_double-dotted
 70
   64
  3
-----   ---------   -   -   ----
 72
   65
 73
    8
 40
18.5
 49
6
 49
-1.5
 49
6
 49
-1.5
 49
0.25
 49
-1.5
 49
0.25
 49
-1.5
  0
LTYPE
  2
dashed_triplicate-dotted
 70
   64
  3
-------    -    -    -    ------
 72
   65
 73
    8
 40
12.75
 49
6
 49
-1.5
 49
0.25
 49
-1.5
 49
0.25
 49
-1.5
 49
0.25
 49
-1.5
  0
LTYPE
  2
double-dashed_triplicate-dotted
 70
   64
  3
-----  ---------  -  -  -  -----
 72
   65
 73
   10
 40
20.25
 49
6
 49
-1.5
 49
6
 49
-1.5
 49
0.25
 49
-1.5
 49
0.25
 49
-1.5
 49
0.25
 49
-1.5
  0
LTYPE
  2
undefined
 70
   64
  3
--------------------------------
 72
   65
 73
    0
 40
0
  0
ENDTAB
  0
TABLE
  2
STYLE
  5
3
100
AcDbSymbolTable
 70
     1
  0
STYLE
  5
10
100
AcDbSymbolTableRecord
100
AcDbTextStyleTableRecord
  2
STANDARD
 70
     0
 40
0.0
 41
1.0
 50
0.0
 71
     0
 42
0.2
  3
txt
  4
bigfont.shx
  0
STYLE
  5
26
100
AcDbSymbolTableRecord
100
AcDbTextStyleTableRecord
  2
TATEGAKI
 70
    68
 40
0.0
 41
1.0
 50
0.0
 71
     0
 42
1.0
  3
txt
  4
bigfont.shx
  0
ENDTAB
  0
TABLE
  2
LAYER
 70
    2
  0
LAYER
  2
_0-0_
 70
   64
 62
    7
  6
CONTINUOUS
  0
LAYER
  2
ADD_LINE
 70
   64
 62
    7
  6
CONTINUOUS
  0
ENDTAB
  0
ENDSEC
  0
SECTION
  2
BLOCKS
  0
ENDSEC
  0
SECTION
  2
ENTITIES
  0
LINE
  8
_0-0_
  6
CONTINUOUS
 62
    7
 10
672.13606690525205
 20
167.53106997205509
 11
1706.8525777203668
 21
167.53106997205509
  0
LINE
  8
_0-0_
  6
CONTINUOUS
 62
    7
 10
672.13606690525205
 20
1633.3565543671132
 11
672.13606690525205
 21
167.53106997205509
  0
LINE
  8
_0-0_
  6
CONTINUOUS
 62
    7
 10
1706.8525777203668
 20
1633.3565543671132
 11
1706.8525777203668
 21
167.53106997205509
  0
LINE
  8
_0-0_
  6
CONTINUOUS
 62
    1
 10
1238.5523228209213
 20
1005.6640603746464
 11
1238.5523228209213
 21
1189.1830165799911
  0
LINE
  8
_0-0_
  6
CENTER1
 62
    1
 10
1189.5523228209213
 20
872.87102803058951
 11
1189.5523228209213
 21
1334.1053589216444
  0
LINE
  8
_0-0_
  6
CONTINUOUS
 62
    4
 10
1040.1014459671005
 20
1228.1934417704006
 11
987.77638166533427
 21
1260.2401358573807
  0
LINE
  8
_0-0_
  6
CONTINUOUS
 62
    7
 10
1099.2523228209193
 20
1139.5415064590497
 11
1099.2523228209193
 21
1187.3631589206243
  0
LINE
  8
_0-0_
  6
CONTINUOUS
 62
    7
 10
1116.0828228209211
 20
1090.7915064590488
 11
1116.9368190992045
 21
1118.1193873641514
  0
LINE
  8
_0-0_
  6
CONTINUOUS
 62
    7
 10
1106.4437793371135
 20
1139.5415064590488
 11
1106.4437793371135
 21
1143.4415064590494
  0
LINE
  8
_0-0_
  6
CONTINUOUS
 62
    7
 10
1106.4437793371135
 20
1143.4415064590494
 11
1099.597324671402
 21
1143.4415064590494
  0
LINE
  8
_0-0_
  6
CONTINUOUS
 62
    7
 10
1104.1006567710801
 20
1143.4415064590494
 11
1104.1006567710801
 21
1139.5415064590488
  0
LINE
  8
_0-0_
  6
CONTINUOUS
 62
    7
 10
1099.597324671402
 20
1143.4415064590494
 11
1099.597324671402
 21
1142.1415064590492
  0
ARC
  8
_0-0_
  6
CONTINUOUS
 62
    7
 10
1096.9973246714017
 20
1142.1415064590492
 40
2.6000000000000001
 50
270
 51
0
  0
LINE
  8
_0-0_
  6
CONTINUOUS
 62
    7
 10
1263.0218228209205
 20
1090.7915064590488
 11
1262.1678265426353
 21
1118.1193873641514
  0
LINE
  8
_0-0_
  6
CONTINUOUS
 62
    7
 10
1261.8607603209211
 20
1127.9455064590229
 11
1255.0723228209208
 21
1127.9455064590229
  0
LINE
  8
_0-0_
  6
CONTINUOUS
 62
    7
 10
1117.2438853209205
 20
1127.9455064590229
 11
1124.0323228209218
 21
1127.9455064590229
  0
LINE
  8
_0-0_
  6
CONTINUOUS
 62
    7
 10
1321.9823532401406
 20
1159.9069245380133
 11
1320.9595707396293
 21
1136.1795359662729
  0
ARC
  8
_0-0_
  6
CONTINUOUS
 62
    7
 10
1318.3619828953488
 20
1136.2915064590488
 40
2.60000000000035
 50
270
 51
357.53176100726529
  0
LINE
  8
_0-0_
  6
CONTINUOUS
 62
    7
 10
1318.3619828953488
 20
1133.6915064590494
 11
1281.8523228209215
 21
1133.6915064590494
  0
LINE
  8
_0-0_
  6
CONTINUOUS
 62
    7
 10
1281.8523228209215
 20
1133.6915064590494
 11
1280.5523228209186
 21
1129.7915064590488
  0
LINE
  8
_0-0_
  6
CONTINUOUS
 62
    7
 10
1280.5523228209186
 20
1129.7915064590488
 11
1274.0523228209213
 21
1129.7915064590488
  0
LINE
  8
_0-0_
  6
CONTINUOUS
 62
    7
 10
1274.0523228209213
 20
1129.7915064590488
 11
1271.6141261924276
 21
1093.2185570316869
  0
ARC
  8
_0-0_
  6
CONTINUOUS
 62
    7
 10
1269.019884782002
 20
1093.3915064590492
 40
2.6000000000002306
 50
270
 51
356.18592516570902
  0
LINE
  8
_0-0_
  6
CONTINUOUS
 62
    7
 10
1269.019884782002
 20
1090.7915064590488
 11
1263.0218228209205
 21
1090.7915064590488
  0
LINE
  8
_0-0_
  6
CONTINUOUS
 62
    7
 10
1263.0218228209205
 20
1090.7915064590488
 11
1261.0099334048273
 21
1092.7415064590487
  0
LINE
  8
_0-0_
  6
CONTINUOUS
 62
    7
 10
1261.0099334048273
 20
1092.7415064590487
 11
1260.217745904828
 21
1118.091506459049
  0
LINE
  8
_0-0_
  6
CONTINUOUS
 62
    7
 10
1260.217745904828
 20
1118.091506459049
 11
1261.7023228209191
 21
1118.091506459049
  0
ARC
  8
_0-0_
  6
CONTINUOUS
 62
    7
 10
1261.7023228209191
 20
1121.9915064590487
 40
3.9000000000000004
 50
270
 51
0
  0
LINE
  8
_0-0_
  6
CONTINUOUS
 62
    7
 10
1265.6023228209215
 20
1121.9915064590487
 11
1265.6023228209215
 21
1129.7915064590488
  0
ARC
  8
_0-0_
  6
CONTINUOUS
 62
    7
 10
1261.7023228209191
 20
1129.7915064590488
 40
3.9000000000000004
 50
0
 51
90
  0
LINE
  8
_0-0_
  6
CONTINUOUS
 62
    7
 10
1261.7023228209191
 20
1133.6915064590494
 11
1258.4523228209191
 21
1133.6915064590494
  0
LINE
  8
_0-0_
  6
CONTINUOUS
 62
    7
 10
1258.4523228209191
 20
1133.6915064590494
 11
1258.4523228209191
 21
1139.5415064590488
  0
LINE
  8
_0-0_
  6
CONTINUOUS
 62
    7
 10
1258.4523228209191
 20
1139.5415064590488
 11
1298.1023228209215
 21
1139.5415064590488
  0
ARC
  8
_0-0_
  6
CONTINUOUS
 62
    7
 10
1298.1023228209215
 20
1142.1415064590492
 40
2.5999999999998522
 50
270
 51
0.0000000000032314
  0
LINE
  8
_0-0_
  6
CONTINUOUS
 62
    7
 10
1300.7023228209191
 20
1142.1415064590492
 11
1300.7023228209209
 21
1151.2415064590487
  0
ARC
  8
_0-0_
  6
CONTINUOUS
 62
    7
 10
1298.1023228209215
 20
1151.2415064590487
 40
2.6000000000000001
 50
0
 51
90
  0
LINE
  8
_0-0_
  6
CONTINUOUS
 62
    7
 10
1298.1023228209215
 20
1153.841506459049
 11
1294.8523228209215
 21
1153.841506459049
  0
LINE
  8
_0-0_
  6
CONTINUOUS
 62
    7
 10
1294.8523228209215
 20
1153.841506459049
 11
1294.8523228209215
 21
1159.0415064590488
  0
LINE
  8
_0-0_
  6
CONTINUOUS
 62
    7
 10
1294.8523228209215
 20
1159.0415064590488
 11
1295.5023228209193
 21
1159.0415064590488
  0
LINE
  8
_0-0_
  6
CONTINUOUS
 62
    7
 10
1295.5023228209193
 20
1159.0415064590488
 11
1299.4023228209189
 21
1160.8601063258529
  0
ARC
  8
_0-0_
  6
CONTINUOUS
 62
    7
 10
1300.5866925794917
 20
1161.3960804623403
 40
1.2999999999999889
 50
204.34863189823588
 51
295.00000000000523
  0
LINE
  8
_0-0_
  6
CONTINUOUS
 62
    7
 10
1301.136096319754
 20
1160.2178803391935
 11
1354.7870019604097
 21
1185.2357085063823
  0
ARC
  8
_0-0_
  6
CONTINUOUS
 62
    7
 10
1365.7750767656671
 20
1161.6717060434312
 40
25.999999999998103
 50
96.842773412628745
 51
114.99999999999869
  0
LINE
  8
_0-0_
  6
CONTINUOUS
 62
    7
 10
1424.2023228209191
 20
1183.091506459049
 11
1416.4023228209189
 21
1183.091506459049
  0
ARC
  8
_0-0_
  6
CONTINUOUS
 62
    7
 10
1409.4224836871108
 20
1179.6098623551625
 40
7.7999999999995007
 50
26.510680418713015
 51
96.842773412632056
  0
LINE
  8
_0-0_
  6
CONTINUOUS
 62
    7
 10
1408.4931509662856
 20
1187.3543016953599
 11
1363.3433228128479
 21
1181.9363223169476
  0
ARC
  8
_0-0_
  6
CONTINUOUS
 62
    7
 10
1365.7750767656707
 20
1161.6717060434303
 40
20.409999999999183
 50
96.842773412632894
 51
115.0000000000028
  0
LINE
  8
_0-0_
  6
CONTINUOUS
 62
    7
 10
1357.1494380435406
 20
1180.1694479768476
 11
1325.7293041495213
 21
1165.5179989218113
  0
ARC
  8
_0-0_
  6
CONTINUOUS
 62
    7
 10
1328.4763228508373
 20
1159.6269983060738
 40
6.4999999999994964
 50
114.9999999999974
 51
177.53176100726472
  0
LINE
  8
_0-0_
  6
CONTINUOUS
 62
    7
 10
1280.5523228209213
 20
1129.7915064590488
 11
1274.7023228209209
 21
1129.7915064590488
  0
LINE
  8
_0-0_
  6
CONTINUOUS
 62
    7
 10
1314.8723228209201
 20
1133.6915064590494
 11
1314.8723228209201
 21
1116.5315064590495
  0
ARC
  8
_0-0_
  6
CONTINUOUS
 62
    7
 10
1319.2923228209202
 20
1116.5315064590477
 40
4.4199999999998223
 50
179.99999999999611
 51
269.99999999999608
  0
LINE
  8
_0-0_
  6
CONTINUOUS
 62
    7
 10
1319.2923228209202
 20
1112.1115064590485
 11
1333.8523228209187
 21
1112.1115064590485
  0
LINE
  8
_0-0_
  6
CONTINUOUS
 62
    7
 10
1333.8523228209187
 20
1112.1115064590485
 11
1333.8523228209187
 21
1103.2715064590484
  0
LINE
  8
_0-0_
  6
CONTINUOUS
 62
    7
 10
1333.8523228209187
 20
1103.2715064590484
 11
1319.2923228209202
 21
1103.2715064590484
  0
ARC
  8
_0-0_
  6
CONTINUOUS
 62
    7
 10
1319.2923228209202
 20
1116.5315064590477
 40
13.260000000000053
 50
179.99999999999869
 51
269.99999999999881
  0
LINE
  8
_0-0_
  6
CONTINUOUS
 62
    7
 10
1306.032322820919
 20
1116.5315064590495
 11
1306.032322820919
 21
1133.6915064590494
  0
ARC
  8
_0-0_
  6
CONTINUOUS
 62
    7
 10
1085.1524165139126
 20
1140.1915064590494
 40
6.5000000000001066
 50
183.63572767233612
 51
269.99999999999739
  0
ARC
  8
_0-0_
  6
CONTINUOUS
 62
    7
 10
1081.0023228209211
 20
1151.2415064590487
 40
2.6000000000000001
 50
90
 51
180
  0
LINE
  8
_0-0_
  6
CONTINUOUS
 62
    7
 10
1081.0023228209211
 20
1153.841506459049
 11
1084.2523228209211
 21
1153.841506459049
  0
LINE
  8
_0-0_
  6
CONTINUOUS
 62
    7
 10
1084.2523228209211
 20
1153.841506459049
 11
1084.2523228209193
 21
1159.0415064590488
  0
LINE
  8
_0-0_
  6
CONTINUOUS
 62
    7
 10
1084.2523228209193
 20
1159.0415064590488
 11
1083.6023228209215
 21
1159.0415064590488
  0
LINE
  8
_0-0_
  6
CONTINUOUS
 62
    7
 10
1083.6023228209215
 20
1159.0415064590488
 11
1079.7023228209209
 21
1160.8601063258529
  0
ARC
  8
_0-0_
  6
CONTINUOUS
 62
    7
 10
1078.5179530623509
 20
1161.3960804623403
 40
1.2999999999999889
 50
244.99999999999474
 51
335.65136810176409
  0
LINE
  8
_0-0_
  6
CONTINUOUS
 62
    7
 10
1077.9685493220886
 20
1160.2178803391935
 11
1024.317643681431
 21
1185.2357085063823
  0
ARC
  8
_0-0_
  6
CONTINUOUS
 62
    7
 10
1013.3295688761738
 20
1161.6717060434312
 40
25.999999999998103
 50
65.000000000001222
 51
83.157226587371255
  0
LINE
  8
_0-0_
  6
CONTINUOUS
 62
    7
 10
954.90232282092177
 20
1183.091506459049
 11
962.70232282092104
 21
1183.091506459049
  0
ARC
  8
_0-0_
  6
CONTINUOUS
 62
    7
 10
969.6821619547319
 20
1179.6098623551625
 40
7.7999999999995007
 50
83.157226587367944
 51
153.48931958128696
  0
LINE
  8
_0-0_
  6
CONTINUOUS
 62
    7
 10
970.61149467555435
 20
1187.3543016953599
 11
1015.7613228289948
 21
1181.9363223169476
  0
ARC
  8
_0-0_
  6
CONTINUOUS
 62
    7
 10
1013.3295688761719
 20
1161.6717060434303
 40
20.409999999999183
 50
64.999999999997172
 51
83.15722658736712
  0
LINE
  8
_0-0_
  6
CONTINUOUS
 62
    7
 10
1021.9552075982994
 20
1180.1694479768476
 11
1067.7243710585917
 21
1158.8269365479655
  0
ARC
  8
_0-0_
  6
CONTINUOUS
 62
    7
 10
1064.9773523572794
 20
1152.9359359322261
 40
6.4999999999995151
 50
3.1676287693983731
 51
65.000000000008328
  0
LINE
  8
_0-0_
  6
CONTINUOUS
 62
    7
 10
1071.467421287517
 20
1153.2951089834842
 11
1072.2124775009215
 21
1139.8323334077932
  0
ARC
  8
_0-0_
  6
CONTINUOUS
 62
    7
 10
1078.702546431161
 20
1140.1915064590494
 40
6.5000000000003331
 50
183.16762876939401
 51
270.00000000000261
  0
LINE
  8
_0-0_
  6
CONTINUOUS
 62
    7
 10
1078.702546431161
 20
1133.6915064590494
 11
1097.2523228209211
 21
1133.6915064590494
  0
LINE
  8
_0-0_
  6
CONTINUOUS
 62
    7
 10
1097.2523228209211
 20
1133.6915064590494
 11
1098.5523228209213
 21
1129.7915064590488
  0
LINE
  8
_0-0_
  6
CONTINUOUS
 62
    7
 10
1098.5523228209213
 20
1129.7915064590488
 11
1105.0523228209213
 21
1129.7915064590488
  0
LINE
  8
_0-0_
  6
CONTINUOUS
 62
    7
 10
1105.0523228209213
 20
1129.7915064590488
 11
1107.4905194494122
 21
1093.2185570316869
  0
ARC
  8
_0-0_
  6
CONTINUOUS
 62
    7
 10
1110.0847608598406
 20
1093.3915064590492
 40
2.5999999999999157
 50
183.8140748342849
 51
269.99999999999352
  0
LINE
  8
_0-0_
  6
CONTINUOUS
 62
    7
 10
1110.0847608598378
 20
1090.7915064590488
 11
1116.0828228209211
 21
1090.7915064590488
  0
LINE
  8
_0-0_
  6
CONTINUOUS
 62
    7
 10
1116.0828228209211
 20
1090.7915064590488
 11
1118.0947122370126
 21
1092.7415064590487
  0
LINE
  8
_0-0_
  6
CONTINUOUS
 62
    7
 10
1118.0947122370126
 20
1092.7415064590487
 11
1118.8868997370128
 21
1118.091506459049
  0
LINE
  8
_0-0_
  6
CONTINUOUS
 62
    7
 10
1118.8868997370128
 20
1118.091506459049
 11
1117.4023228209217
 21
1118.091506459049
  0
ARC
  8
_0-0_
  6
CONTINUOUS
 62
    7
 10
1117.4023228209217
 20
1121.9915064590487
 40
3.9000000000000004
 50
180
 51
270
  0
LINE
  8
_0-0_
  6
CONTINUOUS
 62
    7
 10
1113.5023228209211
 20
1121.9915064590487
 11
1113.5023228209211
 21
1129.7915064590488
  0
ARC
  8
_0-0_
  6
CONTINUOUS
 62
    7
 10
1117.4023228209217
 20
1129.7915064590488
 40
3.9000000000000004
 50
90
 51
180
  0
LINE
  8
_0-0_
  6
CONTINUOUS
 62
    7
 10
1117.4023228209217
 20
1133.6915064590494
 11
1120.6523228209217
 21
1133.6915064590494
  0
LINE
  8
_0-0_
  6
CONTINUOUS
 62
    7
 10
1120.6523228209217
 20
1133.6915064590494
 11
1120.6523228209217
 21
1139.5415064590488
  0
LINE
  8
_0-0_
  6
CONTINUOUS
 62
    7
 10
1120.6523228209217
 20
1139.5415064590488
 11
1081.0023228209211
 21
1139.5415064590488
  0
ARC
  8
_0-0_
  6
CONTINUOUS
 62
    7
 10
1081.0023228209211
 20
1142.1415064590492
 40
2.5999999999998522
 50
179.9999999999967
 51
270
  0
LINE
  8
_0-0_
  6
CONTINUOUS
 62
    7
 10
1078.4023228209217
 20
1142.1415064590492
 11
1078.4023228209217
 21
1151.2415064590487
  0
LINE
  8
_0-0_
  6
CONTINUOUS
 62
    7
 10
1098.5523228209213
 20
1129.7915064590488
 11
1104.4023228209217
 21
1129.7915064590488
  0
LINE
  8
_0-0_
  6
CONTINUOUS
 62
    7
 10
1423.5798322762521
 20
1194.2963362630799
 11
1424.2023228209191
 21
1183.091506459049
  0
LINE
  8
_0-0_
  6
CONTINUOUS
 62
    7
 10
1362.6773010295892
 20
1187.4865038440894
 11
1419.4259045211893
 21
1194.2963362630799
  0
LINE
  8
_0-0_
  6
CONTINUOUS
 62
    7
 10
1419.4259045211893
 20
1194.2963362630799
 11
1423.5798322762521
 21
1194.2963362630799
  0
LINE
  8
_0-0_
  6
CONTINUOUS
 62
    7
 10
955.52481336558878
 20
1194.2963362630799
 11
954.90232282092177
 21
1183.091506459049
  0
LINE
  8
_0-0_
  6
CONTINUOUS
 62
    7
 10
1016.4273446122535
 20
1187.4865038440894
 11
959.6787411206534
 21
1194.2963362630799
  0
LINE
  8
_0-0_
  6
CONTINUOUS
 62
    7
 10
955.52481336558878
 20
1194.2963362630799
 11
959.6787411206534
 21
1194.2963362630799
  0
LINE
  8
_0-0_
  6
CONTINUOUS
 62
    7
 10
1280.5523228209213
 20
1083.4320053383417
 11
1307.5300382047508
 21
1110.4097207221721
  0
LINE
  8
_0-0_
  6
CONTINUOUS
 62
    7
 10
1280.5523228209213
 20
1074.2396171829168
 11
1311.86175777059
 21
1105.5490521325864
  0
LINE
  8
_0-0_
  6
CONTINUOUS
 62
    7
 10
1280.5523228209213
 20
1065.0472290274929
 11
1318.7862605955452
 21
1103.2811668021177
  0
LINE
  8
_0-0_
  6
CONTINUOUS
 62
    7
 10
1327.616600252476
 20
1112.1115064590485
 11
1402.0911561054918
 21
1186.5860623120643
  0
LINE
  8
_0-0_
  6
CONTINUOUS
 62
    7
 10
1318.8582674589861
 20
1112.5455618209826
 11
1391.6452604743281
 21
1185.3325548363255
  0
LINE
  8
_0-0_
  6
CONTINUOUS
 62
    7
 10
1314.8723228209201
 20
1117.7520053383405
 11
1381.1993648431644
 21
1184.0790473605857
  0
LINE
  8
_0-0_
  6
CONTINUOUS
 62
    7
 10
884.02481336558878
 20
981.06091685661431
 11
1063.6777864495216
 21
1160.7138899405463
  0
LINE
  8
_0-0_
  6
CONTINUOUS
 62
    7
 10
884.02481336558878
 20
971.86852870119037
 11
1069.6306216917847
 21
1157.4743370273854
  0
LINE
  8
_0-0_
  6
CONTINUOUS
 62
    7
 10
884.02481336558878
 20
962.67614054576552
 11
1071.6339890772715
 21
1150.2853162574465
  0
LINE
  8
_0-0_
  6
CONTINUOUS
 62
    7
 10
1115.4523228209209
 20
960.79150645904883
 11
884.02481336558878
 21
960.79150645904883
  0
LINE
  8
_0-0_
  6
CONTINUOUS
 62
    7
 10
1423.5798322762521
 20
1194.2963362630799
 11
1495.0798322762521
 21
1194.2963362630799
  0
LINE
  8
_0-0_
  6
CONTINUOUS
 62
    7
 10
1452.0682449152318
 20
960.79150645904883
 11
1495.0798322762521
 21
1003.80309382007
  0
LINE
  8
_0-0_
  6
CONTINUOUS
 62
    7
 10
1461.2606330706558
 20
960.79150645904883
 11
1495.0798322762521
 21
994.61070566464514
  0
LINE
  8
_0-0_
  6
CONTINUOUS
 62
    7
 10
1470.4530212260797
 20
960.79150645904883
 11
1495.0798322762521
 21
985.4183175092212
  0
LINE
  8
_0-0_
  6
CONTINUOUS
 62
    7
 10
1263.6523228209217
 20
960.79150645904883
 11
1495.0798322762521
 21
960.79150645904883
  0
LINE
  8
_0-0_
  6
CONTINUOUS
 62
    2
 10
1117.2438853209205
 20
1127.9455064590229
 11
1115.4717979214684
 21
1071.2387096765824
  0
LINE
  8
_0-0_
  6
CONTINUOUS
 62
    2
 10
1115.4717979214684
 20
1071.2387096765824
 11
1117.4298250301672
 21
1072.3691771548683
  0
LINE
  8
_0-0_
  6
CONTINUOUS
 62
    2
 10
1119.1665853209215
 20
1127.9455064590229
 11
1117.4298250301672
 21
1072.3691771548683
  0
LINE
  8
_0-0_
  6
CONTINUOUS
 62
    2
 10
1098.5523228209213
 20
1129.7915064590488
 11
1098.5523228209213
 21
960.79150645904883
  0
LINE
  8
_0-0_
  6
CONTINUOUS
 62
    2
 10
1104.4023228209217
 20
1129.7915064590488
 11
1104.4023228209217
 21
960.79150645904883
  0
LINE
  8
_0-0_
  6
CONTINUOUS
 62
    2
 10
1115.4717979214684
 20
1071.2387096765824
 11
1115.4717979214684
 21
925.35470268649624
  0
LINE
  8
_0-0_
  6
CONTINUOUS
 62
    2
 10
1261.6748206116754
 20
1072.3691771548683
 11
1263.6328477203724
 21
1071.2387096765806
  0
LINE
  8
_0-0_
  6
CONTINUOUS
 62
    2
 10
1263.6328477203724
 20
1071.2387096765806
 11
1261.8607603209211
 21
1127.9455064590229
  0
LINE
  8
_0-0_
  6
CONTINUOUS
 62
    2
 10
1259.9380603209211
 20
1127.9455064590229
 11
1261.6748206116754
 21
1072.3691771548683
  0
LINE
  8
_0-0_
  6
CONTINUOUS
 62
    2
 10
1263.6523228209217
 20
1070.615506459053
 11
1263.6523228209217
 21
925.35470268649624
  0
LINE
  8
_0-0_
  6
CONTINUOUS
 62
    2
 10
1274.0523228209213
 20
1129.7915064590488
 11
1274.0523228209213
 21
960.79150645904883
  0
LINE
  8
_0-0_
  6
CONTINUOUS
 62
    2
 10
1280.5523228209213
 20
1129.7915064590488
 11
1280.5523228209213
 21
960.79150645904883
  0
LINE
  8
_0-0_
  6
CONTINUOUS
 62
    7
 10
1297.4222627625186
 20
1165.1063588241159
 11
1299.4023228209189
 21
1160.8601063258529
  0
LINE
  8
_0-0_
  6
CONTINUOUS
 62
    7
 10
1297.4222627625186
 20
1165.1063588241159
 11
1352.2512923899658
 21
1190.6735552286018
  0
ARC
  8
_0-0_
  6
CONTINUOUS
 62
    7
 10
1365.7750767656671
 20
1161.6717060434312
 40
31.999999999998103
 50
96.842773412629981
 51
114.99999999999994
  0
LINE
  8
_0-0_
  6
CONTINUOUS
 62
    7
 10
1361.9624297058781
 20
1193.4437648750109
 11
1419.0671912731332
 21
1200.2963362630799
  0
LINE
  8
_0-0_
  6
CONTINUOUS
 62
    7
 10
1081.6823828793222
 20
1165.1063588241168
 11
1079.7023228209218
 21
1160.8601063258529
  0
LINE
  8
_0-0_
  6
CONTINUOUS
 62
    7
 10
1419.0671912731332
 20
1200.2963362630799
 11
1495.0798322762521
 21
1200.2963362630799
  0
POINT
  8
_0-0_
 62
    7
 10
1286.8913305865281
 20
1187.3006590046589
  0
LINE
  8
_0-0_
  6
CONTINUOUS
 62
    7
 10
1317.8437827625185
 20
1204.6804538241158
 11
1396.02881586289
 21
1252.5651888241155
  0
POINT
  8
_0-0_
 62
    7
 10
1288.918446269824
 20
1177.5997017832906
  0
POINT
  8
_0-0_
 62
    7
 10
1302.060363974254
 20
1184.9173605050746
  0
POINT
  8
_0-0_
 62
    7
 10
1292.8012855915867
 20
1174.7622422789245
  0
POINT
  8
_0-0_
 62
    7
 10
1283.3928672350066
 20
1170.8794029571618
  0
POINT
  8
_0-0_
 62
    7
 10
1311.0207624090917
 20
1198.0592782095046
  0
POINT
  8
_0-0_
 62
    7
 10
1297.729504730748
 20
1190.1442595920635
  0
POINT
  8
_0-0_
 62
    7
 10
1282.0488074697814
 20
1185.6640603746455
  0
POINT
  8
_0-0_
 62
    7
 10
1296.8334648872642
 20
1177.5997017832906
  0
POINT
  8
_0-0_
 62
    7
 10
1306.391223217759
 20
1186.4107602442145
  0
POINT
  8
_0-0_
 62
    7
 10
1317.4423812873929
 20
1202.6888174008382
  0
POINT
  8
_0-0_
 62
    7
 10
1295.6387450959528
 20
1168.489963374539
  0
POINT
  8
_0-0_
 62
    7
 10
1281.3021076002115
 20
1165.8018438440868
  0
POINT
  8
_0-0_
 62
    7
 10
1292.0545857220177
 20
1190.5922795138067
  0
POINT
  8
_0-0_
 62
    7
 10
1292.8012855915867
 20
1183.5733007398503
  0
POINT
  8
_0-0_
 62
    7
 10
1304.0017836351353
 20
1196.7152184442784
  0
POINT
  8
_0-0_
 62
    7
 10
1305.3458434003605
 20
1176.2556420180645
  0
POINT
  8
_0-0_
 62
    7
 10
1312.215482200404
 20
1190.1442595920635
  0
POINT
  8
_0-0_
 62
    7
 10
1310.7220824612641
 20
1191.0402994355481
  0
POINT
  8
_0-0_
 62
    7
 10
1315.0529417047692
 20
1197.3125783399355
  0
POINT
  8
_0-0_
 62
    7
 10
1284.3980508725099
 20
1184.291528315327
  0
POINT
  8
_0-0_
 62
    7
 10
1285.6876783107955
 20
1179.3909440498428
  0
POINT
  8
_0-0_
 62
    7
 10
1281.9907463210448
 20
1175.9519375477503
  0
POINT
  8
_0-0_
 62
    7
 10
1285.6017031482434
 20
1171.7391545826849
  0
POINT
  8
_0-0_
 62
    7
 10
1287.6651070494991
 20
1167.7842971052778
  0
POINT
  8
_0-0_
 62
    7
 10
1292.7376416400875
 20
1172.9428068584184
  0
POINT
  8
_0-0_
 62
    7
 10
1290.5022874137267
 20
1181.3683727885473
  0
POINT
  8
_0-0_
 62
    7
 10
1289.5565606256505
 20
1186.1829818914794
  0
POINT
  8
_0-0_
 62
    7
 10
1292.3937409898781
 20
1190.7396655067532
  0
POINT
  8
_0-0_
 62
    7
 10
1298.6699278561991
 20
1185.6671309161648
  0
POINT
  8
_0-0_
 62
    7
 10
1297.036399767705
 20
1182.4000747391747
  0
POINT
  8
_0-0_
 62
    7
 10
1293.3394677779543
 20
1189.5360132310198
  0
POINT
  8
_0-0_
 62
    7
 10
1297.2943252553614
 20
1194.3506223339518
  0
POINT
  8
_0-0_
 62
    7
 10
1302.0229591957404
 20
1191.5994171322764
  0
POINT
  8
_0-0_
 62
    7
 10
1303.7424624467876
 20
1186.7848080293443
  0
POINT
  8
_0-0_
 62
    7
 10
1302.2808846833977
 20
1180.2506956753659
  0
POINT
  8
_0-0_
 62
    7
 10
1297.6382259055708
 20
1175.0921859222253
  0
POINT
  8
_0-0_
 62
    7
 10
1297.6382259055708
 20
1169.5038003563241
  0
POINT
  8
_0-0_
 62
    7
 10
1304.3442885846534
 20
1173.7165833213894
  0
POINT
  8
_0-0_
 62
    7
 10
1304.7741643974159
 20
1180.3366708379199
  0
POINT
  8
_0-0_
 62
    7
 10
1305.4619656978348
 20
1190.8256406693054
  0
POINT
  8
_0-0_
 62
    7
 10
1306.7515931361195
 20
1197.4457281858358
  0
POINT
  8
_0-0_
 62
    7
 10
1308.6430467122709
 20
1195.210373959475
  0
POINT
  8
_0-0_
 62
    7
 10
1310.1905996382129
 20
1194.3506223339518
  0
POINT
  8
_0-0_
 62
    7
 10
1313.1997303275457
 20
1199.9390078998531
  0
POINT
  8
_0-0_
 62
    7
 10
1313.1997303275457
 20
1194.7804981467125
  0
POINT
  8
_0-0_
 62
    7
 10
1317.1545878049528
 20
1199.5951072496446
  0
POINT
  8
_0-0_
 62
    7
 10
1310.3625499633181
 20
1187.9024851425256
  0
POINT
  8
_0-0_
 62
    7
 10
1307.6973199241957
 20
1182.3140995766225
  0
POINT
  8
_0-0_
 62
    7
 10
1305.5479408603869
 20
1181.8842237638619
  0
POINT
  8
_0-0_
 62
    7
 10
1302.1949095208456
 20
1175.2641362473314
  0
POINT
  8
_0-0_
 62
    7
 10
1301.5930833829789
 20
1172.1690303954474
  0
POINT
  8
_0-0_
 62
    7
 10
1296.5205487923904
 20
1171.9111049077892
  0
POINT
  8
_0-0_
 62
    7
 10
1292.9095919651918
 20
1169.4178251937719
  0
POINT
  8
_0-0_
 62
    7
 10
1295.8327474919715
 20
1166.4086945044401
  0
POINT
  8
_0-0_
 62
    7
 10
1290.6742377388309
 20
1165.3769925538109
  0
POINT
  8
_0-0_
 62
    7
 10
1288.8687593252316
 20
1170.7074526320575
  0
POINT
  8
_0-0_
 62
    7
 10
1286.9773057490802
 20
1175.9519375477503
  0
POINT
  8
_0-0_
 62
    7
 10
1283.1943985967773
 20
1172.5129310456559
  0
LINE
  8
_0-0_
  6
CONTINUOUS
 62
    7
 10
1317.8437827625185
 20
1204.6804538241158
 11
1318.6531887625188
 21
1204.7641278241153
  0
LINE
  8
_0-0_
  6
CONTINUOUS
 62
    7
 10
1318.6531887625188
 20
1204.7641278241153
 11
1318.6531887625188
 21
1201.158875824116
  0
LINE
  8
_0-0_
  6
CONTINUOUS
 62
    7
 10
1318.6531887625188
 20
1201.158875824116
 11
1318.6531887625188
 21
1199.9571258241158
  0
LINE
  8
_0-0_
  6
CONTINUOUS
 62
    7
 10
1318.6531887625188
 20
1199.9571258241158
 11
1318.6531887625188
 21
1199.5565418241149
  0
LINE
  8
_0-0_
  6
CONTINUOUS
 62
    7
 10
1318.6531887625188
 20
1199.5565418241149
 11
1318.6531887625188
 21
1199.1559588241144
  0
LINE
  8
_0-0_
  6
CONTINUOUS
 62
    7
 10
1318.6531887625188
 20
1199.1559588241144
 11
1318.6531887625188
 21
1198.3547918241147
  0
LINE
  8
_0-0_
  6
CONTINUOUS
 62
    7
 10
1318.6531887625188
 20
1198.3547918241147
 11
1318.2526057625182
 21
1198.3547918241147
  0
LINE
  8
_0-0_
  6
CONTINUOUS
 62
    7
 10
1318.2526057625182
 20
1198.3547918241147
 11
1318.2526057625182
 21
1197.9542078241157
  0
LINE
  8
_0-0_
  6
CONTINUOUS
 62
    7
 10
1318.2526057625182
 20
1197.9542078241157
 11
1317.8520217625182
 21
1197.5536248241151
  0
LINE
  8
_0-0_
  6
CONTINUOUS
 62
    7
 10
1317.8520217625182
 20
1197.5536248241151
 11
1317.8520217625182
 21
1197.1530408241142
  0
LINE
  8
_0-0_
  6
CONTINUOUS
 62
    7
 10
1317.8520217625182
 20
1197.1530408241142
 11
1317.8520217625182
 21
1196.7524578241155
  0
LINE
  8
_0-0_
  6
CONTINUOUS
 62
    7
 10
1317.8520217625182
 20
1196.7524578241155
 11
1317.8520217625182
 21
1196.3518738241146
  0
LINE
  8
_0-0_
  6
CONTINUOUS
 62
    7
 10
1317.8520217625182
 20
1196.3518738241146
 11
1317.8520217625182
 21
1195.9512898241155
  0
LINE
  8
_0-0_
  6
CONTINUOUS
 62
    7
 10
1317.8520217625182
 20
1195.9512898241155
 11
1317.4514387625186
 21
1195.9512898241155
  0
LINE
  8
_0-0_
  6
CONTINUOUS
 62
    7
 10
1317.4514387625186
 20
1195.9512898241155
 11
1317.0508547625186
 21
1195.1501228241159
  0
LINE
  8
_0-0_
  6
CONTINUOUS
 62
    7
 10
1317.0508547625186
 20
1195.1501228241159
 11
1316.6502717625181
 21
1195.1501228241159
  0
LINE
  8
_0-0_
  6
CONTINUOUS
 62
    7
 10
1316.6502717625181
 20
1195.1501228241159
 11
1315.8491047625184
 21
1194.7495398241153
  0
LINE
  8
_0-0_
  6
CONTINUOUS
 62
    7
 10
1315.8491047625184
 20
1194.7495398241153
 11
1315.4485207625185
 21
1194.3489558241145
  0
LINE
  8
_0-0_
  6
CONTINUOUS
 62
    7
 10
1315.4485207625185
 20
1194.3489558241145
 11
1315.4485207625185
 21
1193.9483728241157
  0
LINE
  8
_0-0_
  6
CONTINUOUS
 62
    7
 10
1315.4485207625185
 20
1193.9483728241157
 11
1315.0479377625188
 21
1193.9483728241157
  0
LINE
  8
_0-0_
  6
CONTINUOUS
 62
    7
 10
1315.0479377625188
 20
1193.9483728241157
 11
1315.0479377625188
 21
1193.5477888241148
  0
LINE
  8
_0-0_
  6
CONTINUOUS
 62
    7
 10
1315.0479377625188
 20
1193.5477888241148
 11
1314.6473537625188
 21
1193.1472058241161
  0
LINE
  8
_0-0_
  6
CONTINUOUS
 62
    7
 10
1314.6473537625188
 20
1193.1472058241161
 11
1314.6473537625188
 21
1192.7466218241152
  0
LINE
  8
_0-0_
  6
CONTINUOUS
 62
    7
 10
1314.6473537625188
 20
1192.7466218241152
 11
1314.2467707625183
 21
1192.3460388241147
  0
LINE
  8
_0-0_
  6
CONTINUOUS
 62
    7
 10
1314.2467707625183
 20
1192.3460388241147
 11
1314.2467707625183
 21
1191.9454548241156
  0
LINE
  8
_0-0_
  6
CONTINUOUS
 62
    7
 10
1314.2467707625183
 20
1191.9454548241156
 11
1313.8461867625183
 21
1191.544871824115
  0
LINE
  8
_0-0_
  6
CONTINUOUS
 62
    7
 10
1313.8461867625183
 20
1191.544871824115
 11
1313.8461867625183
 21
1191.144287824116
  0
LINE
  8
_0-0_
  6
CONTINUOUS
 62
    7
 10
1313.8461867625183
 20
1191.144287824116
 11
1313.8461867625183
 21
1190.3431208241145
  0
LINE
  8
_0-0_
  6
CONTINUOUS
 62
    7
 10
1313.8461867625183
 20
1190.3431208241145
 11
1313.8461867625183
 21
1189.9425378241158
  0
LINE
  8
_0-0_
  6
CONTINUOUS
 62
    7
 10
1313.8461867625183
 20
1189.9425378241158
 11
1313.8461867625183
 21
1189.5419538241149
  0
LINE
  8
_0-0_
  6
CONTINUOUS
 62
    7
 10
1313.8461867625183
 20
1189.5419538241149
 11
1313.8461867625183
 21
1189.1413708241143
  0
LINE
  8
_0-0_
  6
CONTINUOUS
 62
    7
 10
1313.8461867625183
 20
1189.1413708241143
 11
1313.4456027625183
 21
1188.7407868241153
  0
LINE
  8
_0-0_
  6
CONTINUOUS
 62
    7
 10
1313.4456027625183
 20
1188.7407868241153
 11
1313.0450197625187
 21
1188.7407868241153
  0
LINE
  8
_0-0_
  6
CONTINUOUS
 62
    7
 10
1313.0450197625187
 20
1188.7407868241153
 11
1312.6444357625187
 21
1188.3402038241147
  0
LINE
  8
_0-0_
  6
CONTINUOUS
 62
    7
 10
1312.6444357625187
 20
1188.3402038241147
 11
1312.2438527625181
 21
1188.3402038241147
  0
LINE
  8
_0-0_
  6
CONTINUOUS
 62
    7
 10
1312.2438527625181
 20
1188.3402038241147
 11
1312.2438527625181
 21
1187.9396198241157
  0
LINE
  8
_0-0_
  6
CONTINUOUS
 62
    7
 10
1312.2438527625181
 20
1187.9396198241157
 11
1311.8432687625182
 21
1187.5390368241151
  0
LINE
  8
_0-0_
  6
CONTINUOUS
 62
    7
 10
1311.8432687625182
 20
1187.5390368241151
 11
1311.8432687625182
 21
1187.138452824116
  0
LINE
  8
_0-0_
  6
CONTINUOUS
 62
    7
 10
1311.8432687625182
 20
1187.138452824116
 11
1311.4426857625185
 21
1187.138452824116
  0
LINE
  8
_0-0_
  6
CONTINUOUS
 62
    7
 10
1311.4426857625185
 20
1187.138452824116
 11
1311.4426857625185
 21
1186.7378688241151
  0
LINE
  8
_0-0_
  6
CONTINUOUS
 62
    7
 10
1311.4426857625185
 20
1186.7378688241151
 11
1311.0421017625185
 21
1186.3372858241146
  0
LINE
  8
_0-0_
  6
CONTINUOUS
 62
    7
 10
1311.0421017625185
 20
1186.3372858241146
 11
1311.0421017625185
 21
1185.9367018241155
  0
LINE
  8
_0-0_
  6
CONTINUOUS
 62
    7
 10
1311.0421017625185
 20
1185.9367018241155
 11
1311.0421017625185
 21
1185.536118824115
  0
LINE
  8
_0-0_
  6
CONTINUOUS
 62
    7
 10
1311.0421017625185
 20
1185.536118824115
 11
1310.641518762518
 21
1184.7349518241153
  0
LINE
  8
_0-0_
  6
CONTINUOUS
 62
    7
 10
1310.641518762518
 20
1184.7349518241153
 11
1310.641518762518
 21
1183.9337848241157
  0
LINE
  8
_0-0_
  6
CONTINUOUS
 62
    7
 10
1310.641518762518
 20
1183.9337848241157
 11
1310.240934762518
 21
1183.9337848241157
  0
LINE
  8
_0-0_
  6
CONTINUOUS
 62
    7
 10
1310.240934762518
 20
1183.9337848241157
 11
1310.240934762518
 21
1183.1326178241143
  0
LINE
  8
_0-0_
  6
CONTINUOUS
 62
    7
 10
1310.240934762518
 20
1183.1326178241143
 11
1309.8403517625184
 21
1182.3314508241147
  0
LINE
  8
_0-0_
  6
CONTINUOUS
 62
    7
 10
1309.8403517625184
 20
1182.3314508241147
 11
1309.4397677625184
 21
1182.3314508241147
  0
LINE
  8
_0-0_
  6
CONTINUOUS
 62
    7
 10
1309.4397677625184
 20
1182.3314508241147
 11
1309.0391847625187
 21
1181.530283824115
  0
LINE
  8
_0-0_
  6
CONTINUOUS
 62
    7
 10
1309.0391847625187
 20
1181.530283824115
 11
1309.0391847625187
 21
1181.129699824116
  0
LINE
  8
_0-0_
  6
CONTINUOUS
 62
    7
 10
1309.0391847625187
 20
1181.129699824116
 11
1309.0391847625187
 21
1180.7291168241154
  0
LINE
  8
_0-0_
  6
CONTINUOUS
 62
    7
 10
1309.0391847625187
 20
1180.7291168241154
 11
1309.0391847625187
 21
1180.3285328241145
  0
LINE
  8
_0-0_
  6
CONTINUOUS
 62
    7
 10
1309.0391847625187
 20
1180.3285328241145
 11
1309.0391847625187
 21
1179.9279498241158
  0
LINE
  8
_0-0_
  6
CONTINUOUS
 62
    7
 10
1309.0391847625187
 20
1179.9279498241158
 11
1308.6386007625188
 21
1179.1267828241143
  0
LINE
  8
_0-0_
  6
CONTINUOUS
 62
    7
 10
1308.6386007625188
 20
1179.1267828241143
 11
1307.8374337625182
 21
1179.1267828241143
  0
LINE
  8
_0-0_
  6
CONTINUOUS
 62
    7
 10
1307.8374337625182
 20
1179.1267828241143
 11
1307.8374337625182
 21
1178.7261988241153
  0
LINE
  8
_0-0_
  6
CONTINUOUS
 62
    7
 10
1307.8374337625182
 20
1178.7261988241153
 11
1307.4368507625186
 21
1178.7261988241153
  0
LINE
  8
_0-0_
  6
CONTINUOUS
 62
    7
 10
1307.4368507625186
 20
1178.7261988241153
 11
1307.0362667625186
 21
1177.9250318241156
  0
LINE
  8
_0-0_
  6
CONTINUOUS
 62
    7
 10
1307.0362667625186
 20
1177.9250318241156
 11
1307.0362667625186
 21
1177.5244478241148
  0
LINE
  8
_0-0_
  6
CONTINUOUS
 62
    7
 10
1307.0362667625186
 20
1177.5244478241148
 11
1306.6356837625181
 21
1177.123864824116
  0
LINE
  8
_0-0_
  6
CONTINUOUS
 62
    7
 10
1306.6356837625181
 20
1177.123864824116
 11
1306.2350997625181
 21
1176.7232808241151
  0
LINE
  8
_0-0_
  6
CONTINUOUS
 62
    7
 10
1306.2350997625181
 20
1176.7232808241151
 11
1306.2350997625181
 21
1176.3226978241146
  0
LINE
  8
_0-0_
  6
CONTINUOUS
 62
    7
 10
1306.2350997625181
 20
1176.3226978241146
 11
1306.2350997625181
 21
1175.9221138241155
  0
LINE
  8
_0-0_
  6
CONTINUOUS
 62
    7
 10
1306.2350997625181
 20
1175.9221138241155
 11
1305.8345167625184
 21
1175.521530824115
  0
LINE
  8
_0-0_
  6
CONTINUOUS
 62
    7
 10
1305.8345167625184
 20
1175.521530824115
 11
1305.8345167625184
 21
1175.1209468241159
  0
LINE
  8
_0-0_
  6
CONTINUOUS
 62
    7
 10
1305.8345167625184
 20
1175.1209468241159
 11
1305.8345167625184
 21
1174.3197798241144
  0
LINE
  8
_0-0_
  6
CONTINUOUS
 62
    7
 10
1305.8345167625184
 20
1174.3197798241144
 11
1305.4339327625185
 21
1173.9191968241157
  0
LINE
  8
_0-0_
  6
CONTINUOUS
 62
    7
 10
1305.4339327625185
 20
1173.9191968241157
 11
1305.4339327625185
 21
1173.5186128241148
  0
LINE
  8
_0-0_
  6
CONTINUOUS
 62
    7
 10
1305.4339327625185
 20
1173.5186128241148
 11
1304.6327657625188
 21
1172.7174458241152
  0
LINE
  8
_0-0_
  6
CONTINUOUS
 62
    7
 10
1304.6327657625188
 20
1172.7174458241152
 11
1303.8315987625183
 21
1172.7174458241152
  0
LINE
  8
_0-0_
  6
CONTINUOUS
 62
    7
 10
1303.8315987625183
 20
1172.7174458241152
 11
1303.4310147625183
 21
1172.3168628241147
  0
LINE
  8
_0-0_
  6
CONTINUOUS
 62
    7
 10
1303.4310147625183
 20
1172.3168628241147
 11
1303.0304317625187
 21
1171.9162788241156
  0
LINE
  8
_0-0_
  6
CONTINUOUS
 62
    7
 10
1303.0304317625187
 20
1171.9162788241156
 11
1302.6298477625187
 21
1171.115111824116
  0
LINE
  8
_0-0_
  6
CONTINUOUS
 62
    7
 10
1302.6298477625187
 20
1171.115111824116
 11
1302.2292647625181
 21
1171.115111824116
  0
LINE
  8
_0-0_
  6
CONTINUOUS
 62
    7
 10
1302.2292647625181
 20
1171.115111824116
 11
1301.8286807625182
 21
1170.7145288241154
  0
LINE
  8
_0-0_
  6
CONTINUOUS
 62
    7
 10
1301.8286807625182
 20
1170.7145288241154
 11
1301.4280977625185
 21
1170.3139448241145
  0
LINE
  8
_0-0_
  6
CONTINUOUS
 62
    7
 10
1301.4280977625185
 20
1170.3139448241145
 11
1301.0275137625185
 21
1169.9133618241158
  0
LINE
  8
_0-0_
  6
CONTINUOUS
 62
    7
 10
1301.0275137625185
 20
1169.9133618241158
 11
1301.0275137625185
 21
1169.5127778241149
  0
LINE
  8
_0-0_
  6
CONTINUOUS
 62
    7
 10
1301.0275137625185
 20
1169.5127778241149
 11
1300.626930762518
 21
1169.1121938241158
  0
LINE
  8
_0-0_
  6
CONTINUOUS
 62
    7
 10
1300.626930762518
 20
1169.1121938241158
 11
1299.8257637625184
 21
1168.7116108241153
  0
LINE
  8
_0-0_
  6
CONTINUOUS
 62
    7
 10
1299.8257637625184
 20
1168.7116108241153
 11
1299.4251797625184
 21
1168.3110268241144
  0
LINE
  8
_0-0_
  6
CONTINUOUS
 62
    7
 10
1299.4251797625184
 20
1168.3110268241144
 11
1299.0245967625187
 21
1167.9104438241156
  0
LINE
  8
_0-0_
  6
CONTINUOUS
 62
    7
 10
1299.0245967625187
 20
1167.9104438241156
 11
1298.6240127625188
 21
1167.9104438241156
  0
LINE
  8
_0-0_
  6
CONTINUOUS
 62
    7
 10
1298.6240127625188
 20
1167.9104438241156
 11
1298.6240127625188
 21
1167.5098598241148
  0
LINE
  8
_0-0_
  6
CONTINUOUS
 62
    7
 10
1298.6240127625188
 20
1167.5098598241148
 11
1298.2234297625182
 21
1167.109276824116
  0
LINE
  8
_0-0_
  6
CONTINUOUS
 62
    7
 10
1298.2234297625182
 20
1167.109276824116
 11
1298.2234297625182
 21
1166.7086928241151
  0
LINE
  8
_0-0_
  6
CONTINUOUS
 62
    7
 10
1298.2234297625182
 20
1166.7086928241151
 11
1298.2234297625182
 21
1166.3081098241146
  0
LINE
  8
_0-0_
  6
CONTINUOUS
 62
    7
 10
1298.2234297625182
 20
1166.3081098241146
 11
1297.8228457625182
 21
1166.3081098241146
  0
LINE
  8
_0-0_
  6
CONTINUOUS
 62
    7
 10
1297.8228457625182
 20
1166.3081098241146
 11
1297.8228457625182
 21
1165.9075258241155
  0
LINE
  8
_0-0_
  6
CONTINUOUS
 62
    7
 10
1297.8228457625182
 20
1165.9075258241155
 11
1297.8228457625182
 21
1165.506942824115
  0
LINE
  8
_0-0_
  6
CONTINUOUS
 62
    7
 10
1297.8228457625182
 20
1165.506942824115
 11
1297.4222627625186
 21
1165.1063588241159
  0
LINE
  8
_0-0_
  6
CONTINUOUS
 62
    7
 10
1279.8523228209215
 20
1187.3631589206234
 11
1317.8437827625185
 21
1204.6804538241158
  0
POINT
  8
_0-0_
 62
    7
 10
1298.798216791075
 20
1148.3177929364483
  0
POINT
  8
_0-0_
 62
    7
 10
1284.6109192692475
 20
1142.7922139016318
  0
POINT
  8
_0-0_
 62
    7
 10
1282.3708196605376
 20
1146.0776933277375
  0
POINT
  8
_0-0_
 62
    7
 10
1290.1364983040639
 20
1142.3441939798886
  0
POINT
  8
_0-0_
 62
    7
 10
1298.3501968693326
 20
1152.9473321277819
  0
POINT
  8
_0-0_
 62
    7
 10
1294.0193376258276
 20
1153.5446920234372
  0
POINT
  8
_0-0_
 62
    7
 10
1298.051516921505
 20
1144.1362736668561
  0
POINT
  8
_0-0_
 62
    7
 10
1285.656299086645
 20
1148.6164728842759
  0
POINT
  8
_0-0_
 62
    7
 10
1286.7016789040426
 20
1142.7922139016318
  0
POINT
  8
_0-0_
 62
    7
 10
1281.4747798170538
 20
1141.5974941103195
  0
POINT
  8
_0-0_
 62
    7
 10
1296.1301953505708
 20
1141.570696657056
  0
POINT
  8
_0-0_
 62
    7
 10
1293.89484112421
 20
1146.9011567353009
  0
POINT
  8
_0-0_
 62
    7
 10
1289.7680333216977
 20
1145.2676286468068
  0
POINT
  8
_0-0_
 62
    7
 10
1293.0350894986859
 20
1141.7426469821603
  0
POINT
  8
_0-0_
 62
    7
 10
1285.9851261693939
 20
1150.6840638876038
  0
POINT
  8
_0-0_
 62
    7
 10
1280.4827157660438
 20
1148.9645606365575
  0
POINT
  8
_0-0_
 62
    7
 10
1294.2939105201585
 20
1161.2676734653342
  0
POINT
  8
_0-0_
 62
    7
 10
1285.6321920331475
 20
1155.2940745087744
  0
POINT
  8
_0-0_
 62
    7
 10
1293.8458905984162
 20
1165.8972126566678
  0
POINT
  8
_0-0_
 62
    7
 10
1289.5150313549111
 20
1166.494572552323
  0
POINT
  8
_0-0_
 62
    7
 10
1295.1899503636423
 20
1153.3526548478931
  0
POINT
  8
_0-0_
 62
    7
 10
1293.5472106505886
 20
1157.086154195742
  0
POINT
  8
_0-0_
 62
    7
 10
1281.1519928157286
 20
1161.5663534131618
  0
POINT
  8
_0-0_
 62
    7
 10
1282.1973726331262
 20
1155.7420944305177
  0
POINT
  8
_0-0_
 62
    7
 10
1298.2459765961848
 20
1168.3625783568696
  0
POINT
  8
_0-0_
 62
    7
 10
1291.6258890796544
 20
1154.5205771859419
  0
POINT
  8
_0-0_
 62
    7
 10
1289.3905348532935
 20
1159.8510372641867
  0
POINT
  8
_0-0_
 62
    7
 10
1285.2637270507812
 20
1158.2175091756926
  0
POINT
  8
_0-0_
 62
    7
 10
1288.5307832277695
 20
1154.6925275110461
  0
POINT
  8
_0-0_
 62
    7
 10
1297.2142746455565
 20
1164.4077208794606
  0
POINT
  8
_0-0_
 62
    7
 10
1296.5264733451377
 20
1170.168056770468
  0
POINT
  8
_0-0_
 62
    7
 10
1281.4808198984774
 20
1163.6339444164896
  0
LINE
  8
_0-0_
  6
CONTINUOUS
 62
    7
 10
1430.1333549506535
 20
1252.5651888241155
 11
1482.4022075116891
 21
1200.2963362630799
  0
LINE
  8
_0-0_
  6
CONTINUOUS
 62
    7
 10
1444.2754905743832
 20
1252.5651888241155
 11
1495.0798322762521
 21
1201.7608471222466
  0
LINE
  8
_0-0_
  6
CONTINUOUS
 62
    7
 10
1279.8523228209215
 20
1139.5415064590488
 11
1279.8523228209215
 21
1187.3631589206234
  0
POINT
  8
_0-0_
 62
    7
 10
1080.7544487725081
 20
1152.9473321277828
  0
LINE
  8
_0-0_
  6
CONTINUOUS
 62
    7
 10
1081.6823828793222
 20
1165.1063588241168
 11
1026.853353251875
 21
1190.6735552286027
  0
ARC
  8
_0-0_
  6
CONTINUOUS
 62
    7
 10
1013.3295688761738
 20
1161.6717060434321
 40
31.999999999998103
 50
65.000000000000057
 51
83.157226587370019
  0
LINE
  8
_0-0_
  6
CONTINUOUS
 62
    7
 10
1017.1422159359628
 20
1193.4437648750118
 11
960.0374543687077
 21
1200.2963362630808
  0
LINE
  8
_0-0_
  6
CONTINUOUS
 62
    7
 10
960.0374543687077
 20
1200.2963362630808
 11
884.02481336558878
 21
1200.2963362630808
  0
POINT
  8
_0-0_
 62
    7
 10
1092.2133150553127
 20
1187.3006590046598
  0
LINE
  8
_0-0_
  6
CONTINUOUS
 62
    7
 10
1061.2608628793223
 20
1204.6804538241167
 11
983.07582977895083
 21
1252.5651888241164
  0
POINT
  8
_0-0_
 62
    7
 10
1090.1861993720167
 20
1177.5997017832915
  0
POINT
  8
_0-0_
 62
    7
 10
1077.0442816675868
 20
1184.9173605050755
  0
POINT
  8
_0-0_
 62
    7
 10
1086.303360050254
 20
1174.7622422789254
  0
POINT
  8
_0-0_
 62
    7
 10
1095.7117784068341
 20
1170.8794029571627
  0
POINT
  8
_0-0_
 62
    7
 10
1068.083883232749
 20
1198.0592782095055
  0
POINT
  8
_0-0_
 62
    7
 10
1081.3751409110928
 20
1190.1442595920644
  0
POINT
  8
_0-0_
 62
    7
 10
1097.0558381720593
 20
1185.6640603746464
  0
POINT
  8
_0-0_
 62
    7
 10
1082.2711807545766
 20
1177.5997017832915
  0
POINT
  8
_0-0_
 62
    7
 10
1072.7134224240817
 20
1186.4107602442155
  0
POINT
  8
_0-0_
 62
    7
 10
1061.6622643544479
 20
1202.6888174008391
  0
POINT
  8
_0-0_
 62
    7
 10
1083.465900545888
 20
1168.4899633745399
  0
POINT
  8
_0-0_
 62
    7
 10
1097.8025380416293
 20
1165.8018438440877
  0
POINT
  8
_0-0_
 62
    7
 10
1087.0500599198231
 20
1190.5922795138076
  0
POINT
  8
_0-0_
 62
    7
 10
1086.303360050254
 20
1183.5733007398512
  0
POINT
  8
_0-0_
 62
    7
 10
1075.1028620067054
 20
1196.7152184442793
  0
POINT
  8
_0-0_
 62
    7
 10
1073.7588022414802
 20
1176.2556420180654
  0
POINT
  8
_0-0_
 62
    7
 10
1066.8891634414367
 20
1190.1442595920644
  0
POINT
  8
_0-0_
 62
    7
 10
1068.3825631805767
 20
1191.0402994355491
  0
POINT
  8
_0-0_
 62
    7
 10
1064.0517039370716
 20
1197.3125783399364
  0
POINT
  8
_0-0_
 62
    7
 10
1094.7065947693309
 20
1184.2915283153279
  0
POINT
  8
_0-0_
 62
    7
 10
1093.4169673310453
 20
1179.3909440498437
  0
POINT
  8
_0-0_
 62
    7
 10
1097.113899320796
 20
1175.9519375477512
  0
POINT
  8
_0-0_
 62
    7
 10
1093.5029424935974
 20
1171.7391545826858
  0
POINT
  8
_0-0_
 62
    7
 10
1091.4395385923417
 20
1167.7842971052787
  0
POINT
  8
_0-0_
 62
    7
 10
1086.3670040017532
 20
1172.9428068584193
  0
POINT
  8
_0-0_
 62
    7
 10
1088.6023582281141
 20
1181.3683727885482
  0
POINT
  8
_0-0_
 62
    7
 10
1089.5480850161903
 20
1186.1829818914803
  0
POINT
  8
_0-0_
 62
    7
 10
1086.7109046519627
 20
1190.7396655067541
  0
POINT
  8
_0-0_
 62
    7
 10
1080.4347177856416
 20
1185.6671309161657
  0
POINT
  8
_0-0_
 62
    7
 10
1082.0682458741358
 20
1182.4000747391756
  0
POINT
  8
_0-0_
 62
    7
 10
1085.7651778638865
 20
1189.5360132310207
  0
POINT
  8
_0-0_
 62
    7
 10
1081.8103203864794
 20
1194.3506223339527
  0
POINT
  8
_0-0_
 62
    7
 10
1077.0816864461003
 20
1191.5994171322773
  0
POINT
  8
_0-0_
 62
    7
 10
1075.3621831950531
 20
1186.7848080293452
  0
POINT
  8
_0-0_
 62
    7
 10
1076.823760958443
 20
1180.2506956753668
  0
POINT
  8
_0-0_
 62
    7
 10
1081.4664197362699
 20
1175.0921859222262
  0
POINT
  8
_0-0_
 62
    7
 10
1081.4664197362699
 20
1169.503800356325
  0
POINT
  8
_0-0_
 62
    7
 10
1074.7603570571873
 20
1173.7165833213903
  0
POINT
  8
_0-0_
 62
    7
 10
1074.3304812444248
 20
1180.3366708379208
  0
POINT
  8
_0-0_
 62
    7
 10
1073.642679944006
 20
1190.8256406693063
  0
POINT
  8
_0-0_
 62
    7
 10
1072.3530525057213
 20
1197.4457281858367
  0
POINT
  8
_0-0_
 62
    7
 10
1070.4615989295698
 20
1195.2103739594759
  0
POINT
  8
_0-0_
 62
    7
 10
1068.9140460036278
 20
1194.3506223339527
  0
POINT
  8
_0-0_
 62
    7
 10
1065.9049153142951
 20
1199.939007899854
  0
POINT
  8
_0-0_
 62
    7
 10
1065.9049153142951
 20
1194.7804981467134
  0
POINT
  8
_0-0_
 62
    7
 10
1061.9500578368879
 20
1199.5951072496455
  0
POINT
  8
_0-0_
 62
    7
 10
1068.7420956785227
 20
1187.9024851425265
  0
POINT
  8
_0-0_
 62
    7
 10
1071.4073257176451
 20
1182.3140995766234
  0
POINT
  8
_0-0_
 62
    7
 10
1073.5567047814538
 20
1181.8842237638628
  0
POINT
  8
_0-0_
 62
    7
 10
1076.9097361209951
 20
1175.2641362473323
  0
POINT
  8
_0-0_
 62
    7
 10
1077.5115622588619
 20
1172.1690303954483
  0
POINT
  8
_0-0_
 62
    7
 10
1082.5840968494504
 20
1171.9111049077901
  0
POINT
  8
_0-0_
 62
    7
 10
1086.195053676649
 20
1169.4178251937728
  0
POINT
  8
_0-0_
 62
    7
 10
1083.2718981498692
 20
1166.408694504441
  0
POINT
  8
_0-0_
 62
    7
 10
1088.4304079030098
 20
1165.3769925538118
  0
POINT
  8
_0-0_
 62
    7
 10
1090.2358863166091
 20
1170.7074526320584
  0
POINT
  8
_0-0_
 62
    7
 10
1092.1273398927606
 20
1175.9519375477512
  0
POINT
  8
_0-0_
 62
    7
 10
1095.9102470450634
 20
1172.5129310456568
  0
LINE
  8
_0-0_
  6
CONTINUOUS
 62
    7
 10
1061.2608628793223
 20
1204.6804538241167
 11
1060.451456879322
 21
1204.7641278241163
  0
LINE
  8
_0-0_
  6
CONTINUOUS
 62
    7
 10
1060.451456879322
 20
1204.7641278241163
 11
1060.451456879322
 21
1201.1588758241169
  0
LINE
  8
_0-0_
  6
CONTINUOUS
 62
    7
 10
1060.451456879322
 20
1201.1588758241169
 11
1060.451456879322
 21
1199.9571258241167
  0
LINE
  8
_0-0_
  6
CONTINUOUS
 62
    7
 10
1060.451456879322
 20
1199.9571258241167
 11
1060.451456879322
 21
1199.5565418241158
  0
LINE
  8
_0-0_
  6
CONTINUOUS
 62
    7
 10
1060.451456879322
 20
1199.5565418241158
 11
1060.451456879322
 21
1199.1559588241153
  0
LINE
  8
_0-0_
  6
CONTINUOUS
 62
    7
 10
1060.451456879322
 20
1199.1559588241153
 11
1060.451456879322
 21
1198.3547918241156
  0
LINE
  8
_0-0_
  6
CONTINUOUS
 62
    7
 10
1060.451456879322
 20
1198.3547918241156
 11
1060.8520398793225
 21
1198.3547918241156
  0
LINE
  8
_0-0_
  6
CONTINUOUS
 62
    7
 10
1060.8520398793225
 20
1198.3547918241156
 11
1060.8520398793225
 21
1197.9542078241166
  0
LINE
  8
_0-0_
  6
CONTINUOUS
 62
    7
 10
1060.8520398793225
 20
1197.9542078241166
 11
1061.2526238793225
 21
1197.553624824116
  0
LINE
  8
_0-0_
  6
CONTINUOUS
 62
    7
 10
1061.2526238793225
 20
1197.553624824116
 11
1061.2526238793225
 21
1197.1530408241151
  0
LINE
  8
_0-0_
  6
CONTINUOUS
 62
    7
 10
1061.2526238793225
 20
1197.1530408241151
 11
1061.2526238793225
 21
1196.7524578241164
  0
LINE
  8
_0-0_
  6
CONTINUOUS
 62
    7
 10
1061.2526238793225
 20
1196.7524578241164
 11
1061.2526238793225
 21
1196.3518738241155
  0
LINE
  8
_0-0_
  6
CONTINUOUS
 62
    7
 10
1061.2526238793225
 20
1196.3518738241155
 11
1061.2526238793225
 21
1195.9512898241164
  0
LINE
  8
_0-0_
  6
CONTINUOUS
 62
    7
 10
1061.2526238793225
 20
1195.9512898241164
 11
1061.6532068793222
 21
1195.9512898241164
  0
LINE
  8
_0-0_
  6
CONTINUOUS
 62
    7
 10
1061.6532068793222
 20
1195.9512898241164
 11
1062.0537908793222
 21
1195.1501228241168
  0
LINE
  8
_0-0_
  6
CONTINUOUS
 62
    7
 10
1062.0537908793222
 20
1195.1501228241168
 11
1062.4543738793227
 21
1195.1501228241168
  0
LINE
  8
_0-0_
  6
CONTINUOUS
 62
    7
 10
1062.4543738793227
 20
1195.1501228241168
 11
1063.2555408793223
 21
1194.7495398241163
  0
LINE
  8
_0-0_
  6
CONTINUOUS
 62
    7
 10
1063.2555408793223
 20
1194.7495398241163
 11
1063.6561248793223
 21
1194.3489558241154
  0
LINE
  8
_0-0_
  6
CONTINUOUS
 62
    7
 10
1063.6561248793223
 20
1194.3489558241154
 11
1063.6561248793223
 21
1193.9483728241166
  0
LINE
  8
_0-0_
  6
CONTINUOUS
 62
    7
 10
1063.6561248793223
 20
1193.9483728241166
 11
1064.0567078793219
 21
1193.9483728241166
  0
LINE
  8
_0-0_
  6
CONTINUOUS
 62
    7
 10
1064.0567078793219
 20
1193.9483728241166
 11
1064.0567078793219
 21
1193.5477888241157
  0
LINE
  8
_0-0_
  6
CONTINUOUS
 62
    7
 10
1064.0567078793219
 20
1193.5477888241157
 11
1064.4572918793219
 21
1193.147205824117
  0
LINE
  8
_0-0_
  6
CONTINUOUS
 62
    7
 10
1064.4572918793219
 20
1193.147205824117
 11
1064.4572918793219
 21
1192.7466218241161
  0
LINE
  8
_0-0_
  6
CONTINUOUS
 62
    7
 10
1064.4572918793219
 20
1192.7466218241161
 11
1064.8578748793225
 21
1192.3460388241156
  0
LINE
  8
_0-0_
  6
CONTINUOUS
 62
    7
 10
1064.8578748793225
 20
1192.3460388241156
 11
1064.8578748793225
 21
1191.9454548241165
  0
LINE
  8
_0-0_
  6
CONTINUOUS
 62
    7
 10
1064.8578748793225
 20
1191.9454548241165
 11
1065.2584588793225
 21
1191.5448718241159
  0
LINE
  8
_0-0_
  6
CONTINUOUS
 62
    7
 10
1065.2584588793225
 20
1191.5448718241159
 11
1065.2584588793225
 21
1191.1442878241169
  0
LINE
  8
_0-0_
  6
CONTINUOUS
 62
    7
 10
1065.2584588793225
 20
1191.1442878241169
 11
1065.2584588793225
 21
1190.3431208241154
  0
LINE
  8
_0-0_
  6
CONTINUOUS
 62
    7
 10
1065.2584588793225
 20
1190.3431208241154
 11
1065.2584588793225
 21
1189.9425378241167
  0
LINE
  8
_0-0_
  6
CONTINUOUS
 62
    7
 10
1065.2584588793225
 20
1189.9425378241167
 11
1065.2584588793225
 21
1189.5419538241158
  0
LINE
  8
_0-0_
  6
CONTINUOUS
 62
    7
 10
1065.2584588793225
 20
1189.5419538241158
 11
1065.2584588793225
 21
1189.1413708241153
  0
LINE
  8
_0-0_
  6
CONTINUOUS
 62
    7
 10
1065.2584588793225
 20
1189.1413708241153
 11
1065.6590428793224
 21
1188.7407868241162
  0
LINE
  8
_0-0_
  6
CONTINUOUS
 62
    7
 10
1065.6590428793224
 20
1188.7407868241162
 11
1066.0596258793221
 21
1188.7407868241162
  0
LINE
  8
_0-0_
  6
CONTINUOUS
 62
    7
 10
1066.0596258793221
 20
1188.7407868241162
 11
1066.4602098793221
 21
1188.3402038241156
  0
LINE
  8
_0-0_
  6
CONTINUOUS
 62
    7
 10
1066.4602098793221
 20
1188.3402038241156
 11
1066.8607928793226
 21
1188.3402038241156
  0
LINE
  8
_0-0_
  6
CONTINUOUS
 62
    7
 10
1066.8607928793226
 20
1188.3402038241156
 11
1066.8607928793226
 21
1187.9396198241166
  0
LINE
  8
_0-0_
  6
CONTINUOUS
 62
    7
 10
1066.8607928793226
 20
1187.9396198241166
 11
1067.2613768793226
 21
1187.539036824116
  0
LINE
  8
_0-0_
  6
CONTINUOUS
 62
    7
 10
1067.2613768793226
 20
1187.539036824116
 11
1067.2613768793226
 21
1187.1384528241169
  0
LINE
  8
_0-0_
  6
CONTINUOUS
 62
    7
 10
1067.2613768793226
 20
1187.1384528241169
 11
1067.6619598793222
 21
1187.1384528241169
  0
LINE
  8
_0-0_
  6
CONTINUOUS
 62
    7
 10
1067.6619598793222
 20
1187.1384528241169
 11
1067.6619598793222
 21
1186.737868824116
  0
LINE
  8
_0-0_
  6
CONTINUOUS
 62
    7
 10
1067.6619598793222
 20
1186.737868824116
 11
1068.0625438793222
 21
1186.3372858241155
  0
LINE
  8
_0-0_
  6
CONTINUOUS
 62
    7
 10
1068.0625438793222
 20
1186.3372858241155
 11
1068.0625438793222
 21
1185.9367018241164
  0
LINE
  8
_0-0_
  6
CONTINUOUS
 62
    7
 10
1068.0625438793222
 20
1185.9367018241164
 11
1068.0625438793222
 21
1185.5361188241159
  0
LINE
  8
_0-0_
  6
CONTINUOUS
 62
    7
 10
1068.0625438793222
 20
1185.5361188241159
 11
1068.4631268793228
 21
1184.7349518241163
  0
LINE
  8
_0-0_
  6
CONTINUOUS
 62
    7
 10
1068.4631268793228
 20
1184.7349518241163
 11
1068.4631268793228
 21
1183.9337848241166
  0
LINE
  8
_0-0_
  6
CONTINUOUS
 62
    7
 10
1068.4631268793228
 20
1183.9337848241166
 11
1068.8637108793228
 21
1183.9337848241166
  0
LINE
  8
_0-0_
  6
CONTINUOUS
 62
    7
 10
1068.8637108793228
 20
1183.9337848241166
 11
1068.8637108793228
 21
1183.1326178241152
  0
LINE
  8
_0-0_
  6
CONTINUOUS
 62
    7
 10
1068.8637108793228
 20
1183.1326178241152
 11
1069.2642938793224
 21
1182.3314508241156
  0
LINE
  8
_0-0_
  6
CONTINUOUS
 62
    7
 10
1069.2642938793224
 20
1182.3314508241156
 11
1069.6648778793224
 21
1182.3314508241156
  0
LINE
  8
_0-0_
  6
CONTINUOUS
 62
    7
 10
1069.6648778793224
 20
1182.3314508241156
 11
1070.065460879322
 21
1181.5302838241159
  0
LINE
  8
_0-0_
  6
CONTINUOUS
 62
    7
 10
1070.065460879322
 20
1181.5302838241159
 11
1070.065460879322
 21
1181.1296998241169
  0
LINE
  8
_0-0_
  6
CONTINUOUS
 62
    7
 10
1070.065460879322
 20
1181.1296998241169
 11
1070.065460879322
 21
1180.7291168241163
  0
LINE
  8
_0-0_
  6
CONTINUOUS
 62
    7
 10
1070.065460879322
 20
1180.7291168241163
 11
1070.065460879322
 21
1180.3285328241154
  0
LINE
  8
_0-0_
  6
CONTINUOUS
 62
    7
 10
1070.065460879322
 20
1180.3285328241154
 11
1070.065460879322
 21
1179.9279498241167
  0
LINE
  8
_0-0_
  6
CONTINUOUS
 62
    7
 10
1070.065460879322
 20
1179.9279498241167
 11
1070.466044879322
 21
1179.1267828241153
  0
LINE
  8
_0-0_
  6
CONTINUOUS
 62
    7
 10
1070.466044879322
 20
1179.1267828241153
 11
1071.2672118793225
 21
1179.1267828241153
  0
LINE
  8
_0-0_
  6
CONTINUOUS
 62
    7
 10
1071.2672118793225
 20
1179.1267828241153
 11
1071.2672118793225
 21
1178.7261988241162
  0
LINE
  8
_0-0_
  6
CONTINUOUS
 62
    7
 10
1071.2672118793225
 20
1178.7261988241162
 11
1071.6677948793222
 21
1178.7261988241162
  0
LINE
  8
_0-0_
  6
CONTINUOUS
 62
    7
 10
1071.6677948793222
 20
1178.7261988241162
 11
1072.0683788793222
 21
1177.9250318241166
  0
LINE
  8
_0-0_
  6
CONTINUOUS
 62
    7
 10
1072.0683788793222
 20
1177.9250318241166
 11
1072.0683788793222
 21
1177.5244478241157
  0
LINE
  8
_0-0_
  6
CONTINUOUS
 62
    7
 10
1072.0683788793222
 20
1177.5244478241157
 11
1072.4689618793227
 21
1177.1238648241169
  0
LINE
  8
_0-0_
  6
CONTINUOUS
 62
    7
 10
1072.4689618793227
 20
1177.1238648241169
 11
1072.8695458793227
 21
1176.723280824116
  0
LINE
  8
_0-0_
  6
CONTINUOUS
 62
    7
 10
1072.8695458793227
 20
1176.723280824116
 11
1072.8695458793227
 21
1176.3226978241155
  0
LINE
  8
_0-0_
  6
CONTINUOUS
 62
    7
 10
1072.8695458793227
 20
1176.3226978241155
 11
1072.8695458793227
 21
1175.9221138241164
  0
LINE
  8
_0-0_
  6
CONTINUOUS
 62
    7
 10
1072.8695458793227
 20
1175.9221138241164
 11
1073.2701288793223
 21
1175.5215308241159
  0
LINE
  8
_0-0_
  6
CONTINUOUS
 62
    7
 10
1073.2701288793223
 20
1175.5215308241159
 11
1073.2701288793223
 21
1175.1209468241168
  0
LINE
  8
_0-0_
  6
CONTINUOUS
 62
    7
 10
1073.2701288793223
 20
1175.1209468241168
 11
1073.2701288793223
 21
1174.3197798241154
  0
LINE
  8
_0-0_
  6
CONTINUOUS
 62
    7
 10
1073.2701288793223
 20
1174.3197798241154
 11
1073.6707128793223
 21
1173.9191968241166
  0
LINE
  8
_0-0_
  6
CONTINUOUS
 62
    7
 10
1073.6707128793223
 20
1173.9191968241166
 11
1073.6707128793223
 21
1173.5186128241157
  0
LINE
  8
_0-0_
  6
CONTINUOUS
 62
    7
 10
1073.6707128793223
 20
1173.5186128241157
 11
1074.4718798793219
 21
1172.7174458241161
  0
LINE
  8
_0-0_
  6
CONTINUOUS
 62
    7
 10
1074.4718798793219
 20
1172.7174458241161
 11
1075.2730468793225
 21
1172.7174458241161
  0
LINE
  8
_0-0_
  6
CONTINUOUS
 62
    7
 10
1075.2730468793225
 20
1172.7174458241161
 11
1075.6736308793224
 21
1172.3168628241156
  0
LINE
  8
_0-0_
  6
CONTINUOUS
 62
    7
 10
1075.6736308793224
 20
1172.3168628241156
 11
1076.0742138793221
 21
1171.9162788241165
  0
LINE
  8
_0-0_
  6
CONTINUOUS
 62
    7
 10
1076.0742138793221
 20
1171.9162788241165
 11
1076.4747978793221
 21
1171.1151118241169
  0
LINE
  8
_0-0_
  6
CONTINUOUS
 62
    7
 10
1076.4747978793221
 20
1171.1151118241169
 11
1076.8753808793226
 21
1171.1151118241169
  0
LINE
  8
_0-0_
  6
CONTINUOUS
 62
    7
 10
1076.8753808793226
 20
1171.1151118241169
 11
1077.2759648793226
 21
1170.7145288241163
  0
LINE
  8
_0-0_
  6
CONTINUOUS
 62
    7
 10
1077.2759648793226
 20
1170.7145288241163
 11
1077.6765478793222
 21
1170.3139448241154
  0
LINE
  8
_0-0_
  6
CONTINUOUS
 62
    7
 10
1077.6765478793222
 20
1170.3139448241154
 11
1078.0771318793222
 21
1169.9133618241167
  0
LINE
  8
_0-0_
  6
CONTINUOUS
 62
    7
 10
1078.0771318793222
 20
1169.9133618241167
 11
1078.0771318793222
 21
1169.5127778241158
  0
LINE
  8
_0-0_
  6
CONTINUOUS
 62
    7
 10
1078.0771318793222
 20
1169.5127778241158
 11
1078.4777148793228
 21
1169.1121938241167
  0
LINE
  8
_0-0_
  6
CONTINUOUS
 62
    7
 10
1078.4777148793228
 20
1169.1121938241167
 11
1079.2788818793224
 21
1168.7116108241162
  0
LINE
  8
_0-0_
  6
CONTINUOUS
 62
    7
 10
1079.2788818793224
 20
1168.7116108241162
 11
1079.6794658793224
 21
1168.3110268241153
  0
LINE
  8
_0-0_
  6
CONTINUOUS
 62
    7
 10
1079.6794658793224
 20
1168.3110268241153
 11
1080.080048879322
 21
1167.9104438241166
  0
LINE
  8
_0-0_
  6
CONTINUOUS
 62
    7
 10
1080.080048879322
 20
1167.9104438241166
 11
1080.480632879322
 21
1167.9104438241166
  0
LINE
  8
_0-0_
  6
CONTINUOUS
 62
    7
 10
1080.480632879322
 20
1167.9104438241166
 11
1080.480632879322
 21
1167.5098598241157
  0
LINE
  8
_0-0_
  6
CONTINUOUS
 62
    7
 10
1080.480632879322
 20
1167.5098598241157
 11
1080.8812158793226
 21
1167.1092768241169
  0
LINE
  8
_0-0_
  6
CONTINUOUS
 62
    7
 10
1080.8812158793226
 20
1167.1092768241169
 11
1080.8812158793226
 21
1166.708692824116
  0
LINE
  8
_0-0_
  6
CONTINUOUS
 62
    7
 10
1080.8812158793226
 20
1166.708692824116
 11
1080.8812158793226
 21
1166.3081098241155
  0
LINE
  8
_0-0_
  6
CONTINUOUS
 62
    7
 10
1080.8812158793226
 20
1166.3081098241155
 11
1081.2817998793225
 21
1166.3081098241155
  0
LINE
  8
_0-0_
  6
CONTINUOUS
 62
    7
 10
1081.2817998793225
 20
1166.3081098241155
 11
1081.2817998793225
 21
1165.9075258241164
  0
LINE
  8
_0-0_
  6
CONTINUOUS
 62
    7
 10
1081.2817998793225
 20
1165.9075258241164
 11
1081.2817998793225
 21
1165.5069428241159
  0
LINE
  8
_0-0_
  6
CONTINUOUS
 62
    7
 10
1081.2817998793225
 20
1165.5069428241159
 11
1081.6823828793222
 21
1165.1063588241168
  0
LINE
  8
_0-0_
  6
CONTINUOUS
 62
    7
 10
1099.2523228209193
 20
1187.3631589206243
 11
1061.2608628793223
 21
1204.6804538241167
  0
POINT
  8
_0-0_
 62
    7
 10
1080.3064288507658
 20
1148.3177929364492
  0
POINT
  8
_0-0_
 62
    7
 10
1094.4937263725933
 20
1142.7922139016327
  0
POINT
  8
_0-0_
 62
    7
 10
1096.7338259813032
 20
1146.0776933277384
  0
POINT
  8
_0-0_
 62
    7
 10
1088.9681473377768
 20
1142.3441939798895
  0
POINT
  8
_0-0_
 62
    7
 10
1085.0853080160132
 20
1153.5446920234381
  0
POINT
  8
_0-0_
 62
    7
 10
1081.0531287203357
 20
1144.1362736668571
  0
POINT
  8
_0-0_
 62
    7
 10
1093.4483465551957
 20
1148.6164728842768
  0
POINT
  8
_0-0_
 62
    7
 10
1092.4029667377981
 20
1142.7922139016327
  0
POINT
  8
_0-0_
 62
    7
 10
1097.629865824787
 20
1141.5974941103204
  0
POINT
  8
_0-0_
 62
    7
 10
1082.9744502912699
 20
1141.5706966570569
  0
POINT
  8
_0-0_
 62
    7
 10
1085.2098045176308
 20
1146.9011567353018
  0
POINT
  8
_0-0_
 62
    7
 10
1089.3366123201431
 20
1145.2676286468077
  0
POINT
  8
_0-0_
 62
    7
 10
1086.0695561431548
 20
1141.7426469821612
  0
POINT
  8
_0-0_
 62
    7
 10
1093.1195194724469
 20
1150.6840638876047
  0
POINT
  8
_0-0_
 62
    7
 10
1098.6219298757969
 20
1148.9645606365584
  0
POINT
  8
_0-0_
 62
    7
 10
1084.8107351216822
 20
1161.2676734653351
  0
POINT
  8
_0-0_
 62
    7
 10
1093.4724536086933
 20
1155.2940745087753
  0
POINT
  8
_0-0_
 62
    7
 10
1085.2587550434246
 20
1165.8972126566687
  0
POINT
  8
_0-0_
 62
    7
 10
1089.5896142869296
 20
1166.4945725523239
  0
POINT
  8
_0-0_
 62
    7
 10
1083.9146952781985
 20
1153.352654847894
  0
POINT
  8
_0-0_
 62
    7
 10
1085.5574349912522
 20
1157.0861541957429
  0
POINT
  8
_0-0_
 62
    7
 10
1097.9526528261122
 20
1161.5663534131627
  0
POINT
  8
_0-0_
 62
    7
 10
1096.9072730087146
 20
1155.7420944305186
  0
POINT
  8
_0-0_
 62
    7
 10
1080.8586690456559
 20
1168.3625783568705
  0
POINT
  8
_0-0_
 62
    7
 10
1087.4787565621864
 20
1154.5205771859428
  0
POINT
  8
_0-0_
 62
    7
 10
1089.7141107885473
 20
1159.8510372641877
  0
POINT
  8
_0-0_
 62
    7
 10
1093.8409185910596
 20
1158.2175091756935
  0
POINT
  8
_0-0_
 62
    7
 10
1090.5738624140713
 20
1154.692527511047
  0
POINT
  8
_0-0_
 62
    7
 10
1081.8903709962842
 20
1164.4077208794615
  0
POINT
  8
_0-0_
 62
    7
 10
1082.5781722967031
 20
1170.1680567704689
  0
POINT
  8
_0-0_
 62
    7
 10
1097.6238257433633
 20
1163.6339444164905
  0
LINE
  8
_0-0_
  6
CONTINUOUS
 62
    7
 10
955.52481336558878
 20
1194.2963362630799
 11
884.02481336558878
 21
1194.2963362630799
  0
LINE
  8
_0-0_
  6
CONTINUOUS
 62
    1
 10
1140.5523228209213
 20
1005.6640603746464
 11
1238.5523228209213
 21
1005.6640603746464
  0
LINE
  8
_0-0_
  6
CONTINUOUS
 62
    1
 10
1100.0818516628779
 20
1189.183016579992
 11
1062.2013972340901
 21
1206.4497128698968
  0
LINE
  8
_0-0_
  6
CONTINUOUS
 62
    1
 10
1279.0227939789629
 20
1189.1830165799911
 11
1316.9032484077507
 21
1206.4497128698958
  0
LINE
  8
_0-0_
  6
CONTINUOUS
 62
    1
 10
1100.0818516628779
 20
1189.183016579992
 11
1140.5523228209213
 21
1189.183016579992
  0
LINE
  8
_0-0_
  6
CONTINUOUS
 62
    1
 10
1279.0227939789629
 20
1189.1830165799911
 11
1238.5523228209213
 21
1189.1830165799911
  0
LINE
  8
_0-0_
  6
CONTINUOUS
 62
    1
 10
1047.3144086507173
 20
1217.3262781290887
 11
1046.5309833363199
 21
1216.0471202902108
  0
LINE
  8
_0-0_
  6
CONTINUOUS
 62
    1
 10
1062.2013972340901
 20
1206.4497128698968
 11
1046.5309833363199
 21
1216.0471202902108
  0
LINE
  8
_0-0_
  6
CONTINUOUS
 62
    1
 10
1278.697050620468
 20
1190.6830165799911
 11
1316.1978476416671
 21
1207.776657154227
  0
LINE
  8
_0-0_
  6
CONTINUOUS
 62
    1
 10
1316.1978476416671
 20
1207.776657154227
 11
1331.7902369911235
 21
1217.3262781290878
  0
LINE
  8
_0-0_
  6
CONTINUOUS
 62
    1
 10
1331.7902369911235
 20
1217.3262781290878
 11
1332.5736623055209
 21
1216.0471202902099
  0
LINE
  8
_0-0_
  6
CONTINUOUS
 62
    1
 10
1316.9032484077507
 20
1206.4497128698958
 11
1332.5736623055209
 21
1216.0471202902099
  0
LINE
  8
_0-0_
  6
CONTINUOUS
 62
    1
 10
1062.9067980001737
 20
1207.7766571542279
 11
1047.3144086507173
 21
1217.3262781290887
  0
LINE
  8
_0-0_
  6
CONTINUOUS
 62
    1
 10
1100.4075950213728
 20
1190.683016579992
 11
1062.9067980001737
 21
1207.7766571542279
  0
LINE
  8
_0-0_
  6
CONTINUOUS
 62
    1
 10
1100.4075950213728
 20
1190.683016579992
 11
1278.697050620468
 21
1190.683016579992
  0
LINE
  8
_0-0_
  6
CONTINUOUS
 62
    3
 10
1444.2754905743832
 20
1252.5651888241155
 11
1444.2754905743832
 21
1258.5651888241155
  0
LINE
  8
_0-0_
  6
DASHED2
 62
    5
 10
1444.2754905743832
 20
1261.5651888241155
 11
1494.2754905743832
 21
1261.5651888241155
  0
LINE
  8
_0-0_
  6
DASHED2
 62
    5
 10
1444.2754905743832
 20
1261.5651888241155
 11
1438.2754905743832
 21
1255.5651888241155
  0
LINE
  8
_0-0_
  6
DASHED2
 62
    5
 10
1396.02881586289
 20
1255.5651888241155
 11
1438.2754905743832
 21
1255.5651888241155
  0
ARC
  8
_0-0_
  6
CONTINUOUS
 62
    4
 10
1399.1296395504905
 20
1241.5651888241155
 40
20
 50
90
 51
121.48555206568794
  0
ARC
  8
_0-0_
  6
CONTINUOUS
 62
    4
 10
1449.6344744230055
 20
1247.5651888241155
 40
20
 50
90
 51
120.00000000000416
  0
LINE
  8
_0-0_
  6
CONTINUOUS
 62
    4
 10
1438.5242018803483
 20
1264.2446807484266
 11
1439.6344744230046
 21
1264.8856968998034
  0
LINE
  8
_0-0_
  6
CONTINUOUS
 62
    4
 10
1428.5242018803474
 20
1261.5651888241155
 11
1399.1296395504905
 21
1261.5651888241155
  0
ARC
  8
_0-0_
  6
CONTINUOUS
 62
    4
 10
1428.5242018803474
 20
1281.5651888241155
 40
20
 50
270
 51
300.00000000000318
  0
LINE
  8
_0-0_
  6
CONTINUOUS
 62
    4
 10
1052.0149605371007
 20
1225.001225162353
 11
1040.1014459671005
 21
1228.1934417704006
  0
LINE
  8
_0-0_
  6
CONTINUOUS
 62
    4
 10
1067.6073498865571
 20
1215.4516041874922
 11
1052.0149605371007
 21
1225.001225162353
  0
LINE
  8
_0-0_
  6
CONTINUOUS
 62
    4
 10
1311.9654430451892
 20
1215.7383228602239
 11
1327.0896851047401
 21
1225.0012251623521
  0
LINE
  8
_0-0_
  6
CONTINUOUS
 62
    4
 10
1339.0031996747412
 20
1228.1934417703997
 11
1391.3282639765066
 21
1260.2401358573798
  0
LINE
  8
_0-0_
  6
CONTINUOUS
 62
    4
 10
1327.0896851047401
 20
1225.0012251623521
 11
1339.0031996747412
 21
1228.1934417703997
  0
LINE
  8
_0-0_
  6
CONTINUOUS
 62
    3
 10
934.82915506745769
 20
1252.5651888241164
 11
934.82915506745769
 21
1258.5651888241164
  0
LINE
  8
_0-0_
  6
DASHED2
 62
    5
 10
934.82915506745769
 20
1261.5651888241164
 11
884.82915506745769
 21
1261.5651888241164
  0
LINE
  8
_0-0_
  6
DASHED2
 62
    5
 10
934.82915506745769
 20
1261.5651888241164
 11
940.82915506745769
 21
1255.5651888241164
  0
LINE
  8
_0-0_
  6
DASHED2
 62
    5
 10
983.07582977895083
 20
1255.5651888241164
 11
940.82915506745769
 21
1255.5651888241164
  0
ARC
  8
_0-0_
  6
CONTINUOUS
 62
    4
 10
979.97500609135034
 20
1241.5651888241164
 40
20
 50
58.514447934312059
 51
90
  0
ARC
  8
_0-0_
  6
CONTINUOUS
 62
    4
 10
929.47017121883539
 20
1247.5651888241164
 40
20
 50
59.999999999995836
 51
90
  0
LINE
  8
_0-0_
  6
CONTINUOUS
 62
    4
 10
940.58044376149257
 20
1264.2446807484275
 11
939.4701712188363
 21
1264.8856968998043
  0
LINE
  8
_0-0_
  6
CONTINUOUS
 62
    4
 10
950.58044376149348
 20
1261.5651888241164
 11
979.97500609135034
 21
1261.5651888241164
  0
ARC
  8
_0-0_
  6
CONTINUOUS
 62
    4
 10
950.58044376149348
 20
1281.5651888241164
 40
20
 50
239.99999999999676
 51
270
  0
LINE
  8
_0-0_
  6
DASHED2
 62
    5
 10
1330.6097633561785
 20
1220.1212319359947
 11
1337.3111041266629
 21
1220.1212319359947
  0
LINE
  8
_0-0_
  6
DASHED2
 62
    5
 10
1314.7870461095072
 20
1210.4305457228929
 11
1330.6097633561785
 21
1220.1212319359947
  0
LINE
  8
_0-0_
  6
DASHED2
 62
    5
 10
1048.8812592795121
 20
1219.8845938068434
 11
1042.1799185090276
 21
1219.8845938068434
  0
LINE
  8
_0-0_
  6
DASHED2
 62
    5
 10
1064.3175995323336
 20
1210.4305457228938
 11
1048.8812592795121
 21
1219.8845938068434
  0
LINE
  8
_0-0_
  6
DASHED2
 62
    5
 10
1286.0360145255936
 20
1197.3252295943821
 11
1314.7870461095072
 21
1210.4305457228929
  0
LINE
  8
_0-0_
  6
DASHED2
 62
    5
 10
1337.3111041266629
 20
1220.1212319359947
 11
1375.0620193015111
 21
1243.2419303289262
  0
LINE
  8
_0-0_
  6
DASHED2
 62
    5
 10
1093.4826694630701
 20
1197.1365023339849
 11
1064.3175995323336
 21
1210.4305457228938
  0
LINE
  8
_0-0_
  6
DASHED2
 62
    5
 10
1042.1799185090276
 20
1219.8845938068434
 11
1004.4290033341796
 21
1243.0052921997749
  0
LINE
  8
_0-0_
  6
CONTINUOUS
 62
    4
 10
1100.3860333525236
 20
1200.5837282831535
 11
1066.639677788985
 21
1215.9660166213826
  0
ARC
  8
_0-0_
  6
CONTINUOUS
 62
    4
 10
1104.5336775623146
 20
1209.683016579992
 40
10
 50
245.49551817168719
 51
270
  0
LINE
  8
_0-0_
  6
CONTINUOUS
 62
    4
 10
1127.4101871971907
 20
1199.683016579992
 11
1104.5336775623146
 21
1199.683016579992
  0
LINE
  8
_0-0_
  6
CONTINUOUS
 62
    4
 10
1134.4812550090555
 20
1196.7540843918578
 11
1140.5523228209213
 21
1190.683016579992
  0
ARC
  8
_0-0_
  6
CONTINUOUS
 62
    4
 10
1127.4101871971907
 20
1189.683016579992
 40
10
 50
44.99999999999995
 51
89.999999999999943
  0
LINE
  8
_0-0_
  6
CONTINUOUS
 62
    4
 10
1244.623390632787
 20
1196.7540843918578
 11
1238.5523228209213
 21
1190.683016579992
  0
ARC
  8
_0-0_
  6
CONTINUOUS
 62
    4
 10
1251.6944584446519
 20
1189.683016579992
 40
10
 50
90
 51
135
  0
LINE
  8
_0-0_
  6
CONTINUOUS
 62
    4
 10
1278.718612289319
 20
1200.5837282831535
 11
1311.9654430451892
 21
1215.7383228602239
  0
LINE
  8
_0-0_
  6
CONTINUOUS
 62
    4
 10
1274.570968079528
 20
1199.683016579992
 11
1251.6944584446519
 21
1199.683016579992
  0
ARC
  8
_0-0_
  6
CONTINUOUS
 62
    4
 10
1274.570968079528
 20
1209.683016579992
 40
10
 50
270
 51
294.50448182831263
  0
LINE
  8
_0-0_
  6
CONTINUOUS
 62
    4
 10
929.47017121883539
 20
1267.5651888241164
 11
884.02481336558878
 21
1267.5651888241164
  0
LINE
  8
_0-0_
  6
CONTINUOUS
 62
    3
 10
934.82915506745769
 20
1258.5651888241164
 11
884.02481336558878
 21
1258.5651888241164
  0
LINE
  8
_0-0_
  6
CONTINUOUS
 62
    3
 10
1444.2754905743832
 20
1258.5651888241155
 11
1495.0798322762521
 21
1258.5651888241155
  0
LINE
  8
_0-0_
  6
CONTINUOUS
 62
    4
 10
1449.6344744230055
 20
1267.5651888241155
 11
1495.0798322762521
 21
1267.5651888241155
  0
LINE
  8
_0-0_
  6
CONTINUOUS
 62
    7
 10
948.97129069118739
 20
1252.5651888241164
 11
1006.8586917363374
 21
1194.6777877789664
  0
LINE
  8
_0-0_
  6
CONTINUOUS
 62
    7
 10
941.90022287932254
 20
1252.5651888241164
 11
998.82338740467287
 21
1195.642024298766
  0
LINE
  8
_0-0_
  6
CONTINUOUS
 62
    7
 10
934.82915506745769
 20
1252.5651888241164
 11
990.78808307300835
 21
1196.6062608185657
  0
LINE
  8
_0-0_
  6
CONTINUOUS
 62
    1
 10
1269.5523228209213
 20
1201.683016579992
 11
1109.5523228209213
 21
1201.683016579992
  0
LINE
  8
_0-0_
  6
CONTINUOUS
 62
    1
 10
1109.5523228209213
 20
1234.683016579992
 11
1109.5523228209213
 21
1201.683016579992
  0
ARC
  8
_0-0_
  6
CONTINUOUS
 62
    1
 10
1184.5523228209213
 20
1234.683016579992
 40
75
 50
90
 51
180
  0
LINE
  8
_0-0_
  6
CONTINUOUS
 62
    1
 10
1194.5523228209213
 20
1309.683016579992
 11
1184.5523228209213
 21
1309.683016579992
  0
LINE
  8
_0-0_
  6
CONTINUOUS
 62
    1
 10
1269.5523228209213
 20
1234.683016579992
 11
1269.5523228209213
 21
1201.683016579992
  0
ARC
  8
_0-0_
  6
CONTINUOUS
 62
    1
 10
1194.5523228209213
 20
1234.683016579992
 40
75
 50
0
 51
90
  0
LINE
  8
_0-0_
  6
CONTINUOUS
 62
    1
 10
1158.02504741645
 20
1302.5890372696915
 11
1148.4421142048468
 21
1293.6786857396323
  0
LINE
  8
_0-0_
  6
CONTINUOUS
 62
    1
 10
1148.4421142048468
 20
1293.6786857396323
 11
1142.0992998925949
 21
1284.0716730263166
  0
LINE
  8
_0-0_
  6
CONTINUOUS
 62
    1
 10
1142.0992998925949
 20
1284.0716730263166
 11
1141.4247102328725
 21
1282.5501727653591
  0
LINE
  8
_0-0_
  6
CONTINUOUS
 62
    1
 10
1154.2919281363993
 20
1301.6514680926396
 11
1144.2445280213024
 21
1293.7225592495085
  0
LINE
  8
_0-0_
  6
CONTINUOUS
 62
    1
 10
1144.2445280213024
 20
1293.7225592495085
 11
1137.103451633333
 21
1285.0417519877274
  0
LINE
  8
_0-0_
  6
CONTINUOUS
 62
    1
 10
1137.103451633333
 20
1285.0417519877274
 11
1135.6765201497749
 21
1282.5501727653675
  0
LINE
  8
_0-0_
  6
CONTINUOUS
 62
    1
 10
1183.8075030172677
 20
1301.6514680926266
 11
1182.6594643365697
 21
1282.5501727653646
  0
LINE
  8
_0-0_
  6
CONTINUOUS
 62
    1
 10
1179.3438858437496
 20
1301.6514680926332
 11
1174.4481698957713
 21
1293.3146723598647
  0
LINE
  8
_0-0_
  6
CONTINUOUS
 62
    1
 10
1174.4481698957713
 20
1293.3146723598647
 11
1172.5221696468102
 21
1284.6794652105846
  0
LINE
  8
_0-0_
  6
CONTINUOUS
 62
    1
 10
1172.5221696468102
 20
1284.6794652105846
 11
1172.5118022122265
 21
1282.5501727653539
  0
LINE
  8
_0-0_
  6
CONTINUOUS
 62
    1
 10
1158.0066623088699
 20
1302.5750218944347
 11
1156.9935986238129
 21
1302.4772619658324
  0
LINE
  8
_0-0_
  6
CONTINUOUS
 62
    1
 10
1156.9935986238129
 20
1302.4772619658324
 11
1156.0298773193751
 21
1302.2930288988255
  0
LINE
  8
_0-0_
  6
CONTINUOUS
 62
    1
 10
1156.0298773193751
 20
1302.2930288988255
 11
1155.144780579725
 21
1302.0279205219288
  0
LINE
  8
_0-0_
  6
CONTINUOUS
 62
    1
 10
1155.144780579725
 20
1302.0279205219288
 11
1154.3652016214166
 21
1301.6899920190226
  0
LINE
  8
_0-0_
  6
CONTINUOUS
 62
    1
 10
1154.3652016214166
 20
1301.6899920190226
 11
1154.2919281363831
 21
1301.6514680926271
  0
LINE
  8
_0-0_
  6
CONTINUOUS
 62
    1
 10
1183.8075030172688
 20
1301.6514680926268
 11
1183.7057948600363
 21
1301.8422768877554
  0
LINE
  8
_0-0_
  6
CONTINUOUS
 62
    1
 10
1183.7057948600363
 20
1301.8422768877554
 11
1183.5393646791356
 21
1302.0213561504622
  0
LINE
  8
_0-0_
  6
CONTINUOUS
 62
    1
 10
1183.5393646791356
 20
1302.0213561504622
 11
1183.3132693713953
 21
1302.1832646479686
  0
LINE
  8
_0-0_
  6
CONTINUOUS
 62
    1
 10
1183.3132693713953
 20
1302.1832646479686
 11
1183.0343787283314
 21
1302.3230828725073
  0
LINE
  8
_0-0_
  6
CONTINUOUS
 62
    1
 10
1183.0343787283314
 20
1302.3230828725073
 11
1182.7111667010081
 21
1302.4365625180772
  0
LINE
  8
_0-0_
  6
CONTINUOUS
 62
    1
 10
1182.7111667010081
 20
1302.4365625180772
 11
1182.3534539233221
 21
1302.520255563071
  0
LINE
  8
_0-0_
  6
CONTINUOUS
 62
    1
 10
1182.3534539233221
 20
1302.520255563071
 11
1181.9721093170124
 21
1302.5716190366677
  0
LINE
  8
_0-0_
  6
CONTINUOUS
 62
    1
 10
1181.9721093170124
 20
1302.5716190366677
 11
1181.5787198449718
 21
1302.5890922857129
  0
LINE
  8
_0-0_
  6
CONTINUOUS
 62
    1
 10
1181.5787198449718
 20
1302.5890922857129
 11
1181.1852384472436
 21
1302.5721443943762
  0
LINE
  8
_0-0_
  6
CONTINUOUS
 62
    1
 10
1181.1852384472436
 20
1302.5721443943762
 11
1180.8036208569865
 21
1302.5212903157601
  0
LINE
  8
_0-0_
  6
CONTINUOUS
 62
    1
 10
1180.8036208569865
 20
1302.5212903157601
 11
1180.4454623315728
 21
1302.4380752253096
  0
LINE
  8
_0-0_
  6
CONTINUOUS
 62
    1
 10
1180.4454623315728
 20
1302.4380752253096
 11
1180.1216453365603
 21
1302.3250275714395
  0
LINE
  8
_0-0_
  6
CONTINUOUS
 62
    1
 10
1180.1216453365603
 20
1302.3250275714395
 11
1179.8420088874827
 21
1302.1855822499076
  0
LINE
  8
_0-0_
  6
CONTINUOUS
 62
    1
 10
1179.8420088874827
 20
1302.1855822499076
 11
1179.6150495963429
 21
1302.023976236246
  0
LINE
  8
_0-0_
  6
CONTINUOUS
 62
    1
 10
1179.6150495963429
 20
1302.023976236246
 11
1179.447663506355
 21
1301.8451198474031
  0
LINE
  8
_0-0_
  6
CONTINUOUS
 62
    1
 10
1179.447663506355
 20
1301.8451198474031
 11
1179.3449365591619
 21
1301.6544475442481
  0
LINE
  8
_0-0_
  6
CONTINUOUS
 62
    1
 10
1179.3449365591619
 20
1301.6544475442481
 11
1179.3438858437446
 21
1301.6514680926268
  0
LINE
  8
_0-0_
  6
CONTINUOUS
 62
    1
 10
1227.931960603036
 20
1282.5501727653668
 11
1224.6861226159556
 21
1290.2737019693973
  0
LINE
  8
_0-0_
  6
CONTINUOUS
 62
    1
 10
1224.6861226159556
 20
1290.2737019693973
 11
1218.8072426583826
 21
1297.5980764844132
  0
LINE
  8
_0-0_
  6
CONTINUOUS
 62
    1
 10
1218.8072426583826
 20
1297.5980764844132
 11
1214.1598773175867
 21
1301.6514680926355
  0
LINE
  8
_0-0_
  6
CONTINUOUS
 62
    1
 10
1214.1598773175986
 20
1301.6514680926266
 11
1213.3925643896382
 21
1301.9963437641111
  0
LINE
  8
_0-0_
  6
CONTINUOUS
 62
    1
 10
1213.3925643896382
 20
1301.9963437641111
 11
1212.5171346054467
 21
1302.269358753394
  0
LINE
  8
_0-0_
  6
CONTINUOUS
 62
    1
 10
1212.5171346054467
 20
1302.269358753394
 11
1211.5601874560275
 21
1302.4622176381783
  0
LINE
  8
_0-0_
  6
CONTINUOUS
 62
    1
 10
1211.5601874560275
 20
1302.4622176381783
 11
1210.5507992962773
 21
1302.5690604988408
  0
LINE
  8
_0-0_
  6
CONTINUOUS
 62
    1
 10
1210.5507992962773
 20
1302.5690604988408
 11
1209.9269753934459
 21
1302.5904621257625
  0
LINE
  8
_0-0_
  6
CONTINUOUS
 62
    1
 10
1219.3291866965928
 20
1282.5501727653739
 11
1216.3061506179379
 21
1292.890355921329
  0
LINE
  8
_0-0_
  6
CONTINUOUS
 62
    1
 10
1216.3061506179379
 20
1292.890355921329
 11
1209.9269753934459
 21
1302.5904621257625
  0
LINE
  8
_0-0_
  6
CONTINUOUS
 62
    1
 10
1124.8788001520234
 20
1261.6830165799922
 11
1124.7086249379097
 21
1261.6755723789681
  0
LINE
  8
_0-0_
  6
CONTINUOUS
 62
    1
 10
1124.7086249379097
 20
1261.6755723789681
 11
1124.5436204115642
 21
1261.6534659641773
  0
LINE
  8
_0-0_
  6
CONTINUOUS
 62
    1
 10
1124.5436204115642
 20
1261.6534659641773
 11
1124.3888001520234
 21
1261.6173690278465
  0
LINE
  8
_0-0_
  6
CONTINUOUS
 62
    1
 10
1124.3888001520234
 20
1261.6173690278465
 11
1124.2488682945304
 21
1261.5683783571205
  0
LINE
  8
_0-0_
  6
CONTINUOUS
 62
    1
 10
1124.2488682945304
 20
1261.5683783571205
 11
1124.1280765977667
 21
1261.5079825087387
  0
LINE
  8
_0-0_
  6
CONTINUOUS
 62
    1
 10
1124.1280765977667
 20
1261.5079825087387
 11
1124.0300952563146
 21
1261.4380165799921
  0
LINE
  8
_0-0_
  6
CONTINUOUS
 62
    1
 10
1124.0300952563146
 20
1261.4380165799921
 11
1123.9579013836533
 21
1261.3606064502219
  0
LINE
  8
_0-0_
  6
CONTINUOUS
 62
    1
 10
1123.9579013836533
 20
1261.3606064502219
 11
1123.9136885540713
 21
1261.2781041870489
  0
LINE
  8
_0-0_
  6
CONTINUOUS
 62
    1
 10
1123.9136885540713
 20
1261.2781041870489
 11
1123.9041677456548
 21
1261.2442310126655
  0
LINE
  8
_0-0_
  6
CONTINUOUS
 62
    1
 10
1125.0861380171
 20
1261.683016579992
 11
1124.8788001520234
 21
1261.683016579992
  0
LINE
  8
_0-0_
  6
CONTINUOUS
 62
    1
 10
1126.0611416704501
 20
1261.1436002973674
 11
1126.0634912689843
 21
1261.2290048455498
  0
LINE
  8
_0-0_
  6
CONTINUOUS
 62
    1
 10
1126.0634912689843
 20
1261.2290048455498
 11
1126.0361444835244
 21
1261.3133159084939
  0
LINE
  8
_0-0_
  6
CONTINUOUS
 62
    1
 10
1126.0361444835244
 20
1261.3133159084939
 11
1125.9799322323088
 21
1261.3939717372161
  0
LINE
  8
_0-0_
  6
CONTINUOUS
 62
    1
 10
1125.9799322323088
 20
1261.3939717372161
 11
1125.8965624961456
 21
1261.4685216451742
  0
LINE
  8
_0-0_
  6
CONTINUOUS
 62
    1
 10
1125.8965624961456
 20
1261.4685216451742
 11
1125.7885684222813
 21
1261.5347004711391
  0
LINE
  8
_0-0_
  6
CONTINUOUS
 62
    1
 10
1125.7885684222813
 20
1261.5347004711391
 11
1125.6592313560025
 21
1261.5904974049718
  0
LINE
  8
_0-0_
  6
CONTINUOUS
 62
    1
 10
1125.6592313560025
 20
1261.5904974049718
 11
1125.5124811386204
 21
1261.6342170850726
  0
LINE
  8
_0-0_
  6
CONTINUOUS
 62
    1
 10
1125.5124811386204
 20
1261.6342170850726
 11
1125.3527767012308
 21
1261.6645311110847
  0
LINE
  8
_0-0_
  6
CONTINUOUS
 62
    1
 10
1125.3527767012308
 20
1261.6645311110847
 11
1125.1849705823497
 21
1261.6805184066673
  0
LINE
  8
_0-0_
  6
CONTINUOUS
 62
    1
 10
1125.1849705823497
 20
1261.6805184066673
 11
1125.0861380171
 21
1261.6830165799922
  0
LINE
  8
_0-0_
  6
CONTINUOUS
 62
    1
 10
1248.7036915759295
 20
1282.55017276536
 11
1246.9118651927033
 21
1287.2968026145206
  0
LINE
  8
_0-0_
  6
CONTINUOUS
 62
    1
 10
1246.9118651927033
 20
1287.2968026145206
 11
1244.7832495784317
 21
1290.3773071049782
  0
LINE
  8
_0-0_
  6
CONTINUOUS
 62
    1
 10
1230.9821055870348
 20
1300.2411657882624
 11
1225.0965886143997
 21
1302.5890372696986
  0
LINE
  8
_0-0_
  6
CONTINUOUS
 62
    1
 10
1250.7221875692717
 20
1282.5501727653627
 11
1249.8922622950561
 21
1285.3040704903869
  0
LINE
  8
_0-0_
  6
CONTINUOUS
 62
    1
 10
1225.0965886143995
 20
1302.5904621257623
 11
1226.3890757873942
 21
1302.5904621257623
  0
ARC
  8
_0-0_
  6
CONTINUOUS
 62
    1
 10
1150.8062061451128
 20
1258.683016579992
 40
3
 50
90
 51
171.90021517845028
  0
LINE
  8
_0-0_
  6
CONTINUOUS
 62
    1
 10
1154.5783395047038
 20
1261.683016579992
 11
1150.8062061451128
 21
1261.683016579992
  0
ARC
  8
_0-0_
  6
CONTINUOUS
 62
    1
 10
1154.5783395047038
 20
1258.683016579992
 40
3
 50
354.77024628682199
 51
90.000000000000057
  0
ARC
  8
_0-0_
  6
CONTINUOUS
 62
    1
 10
1199.7340023622855
 20
1258.683016579992
 40
3
 50
90
 51
180.69278701186499
  0
LINE
  8
_0-0_
  6
CONTINUOUS
 62
    1
 10
1205.3025815287001
 20
1261.683016579992
 11
1199.7340023622855
 21
1261.683016579992
  0
ARC
  8
_0-0_
  6
CONTINUOUS
 62
    1
 10
1205.3025815287001
 20
1258.683016579992
 40
3
 50
4.1159455296431364
 51
90.000000000000057
  0
ARC
  8
_0-0_
  6
CONTINUOUS
 62
    1
 10
1244.5237115706677
 20
1258.683016579992
 40
3
 50
90
 51
189.06014740480185
  0
LINE
  8
_0-0_
  6
CONTINUOUS
 62
    1
 10
1244.9889547053617
 20
1261.683016579992
 11
1244.5237115706677
 21
1261.683016579992
  0
ARC
  8
_0-0_
  6
CONTINUOUS
 62
    1
 10
1244.9889547053617
 20
1258.683016579992
 40
3
 50
10.947080032490955
 51
90.000000000000057
  0
LINE
  8
_0-0_
  6
CONTINUOUS
 62
    1
 10
1167.2117701322932
 20
1208.8983416739475
 11
1172.5118022122297
 21
1282.5501727653646
  0
ARC
  8
_0-0_
  6
CONTINUOUS
 62
    1
 10
1170.2040326715623
 20
1208.683016579992
 40
3
 50
175.88405447035612
 51
270
  0
LINE
  8
_0-0_
  6
CONTINUOUS
 62
    1
 10
1178.7660430960195
 20
1205.683016579992
 11
1170.2040326715623
 21
1205.683016579992
  0
LINE
  8
_0-0_
  6
CONTINUOUS
 62
    1
 10
1181.7658237952392
 20
1208.6467432207655
 11
1182.6594643365697
 21
1282.5501727653636
  0
ARC
  8
_0-0_
  6
CONTINUOUS
 62
    1
 10
1178.7660430960195
 20
1208.683016579992
 40
3
 50
270
 51
359.30721298813836
  0
LINE
  8
_0-0_
  6
CONTINUOUS
 62
    1
 10
1197.3388218466034
 20
1208.6467432207655
 11
1196.734221663065
 21
1258.6467432207655
  0
ARC
  8
_0-0_
  6
CONTINUOUS
 62
    1
 10
1200.3386025458231
 20
1208.683016579992
 40
3
 50
180.69278701186548
 51
270
  0
LINE
  8
_0-0_
  6
CONTINUOUS
 62
    1
 10
1208.9006129702784
 20
1205.683016579992
 11
1200.3386025458231
 21
1205.683016579992
  0
LINE
  8
_0-0_
  6
CONTINUOUS
 62
    1
 10
1211.8928755095476
 20
1208.8983416739466
 11
1208.2948440679693
 21
1258.8983416739466
  0
ARC
  8
_0-0_
  6
CONTINUOUS
 62
    1
 10
1208.9006129702784
 20
1208.683016579992
 40
3
 50
270
 51
4.1159455296426648
  0
ARC
  8
_0-0_
  6
CONTINUOUS
 62
    1
 10
1229.1028439030115
 20
1208.683016579992
 40
3
 50
185.22975371317733
 51
270
  0
LINE
  8
_0-0_
  6
CONTINUOUS
 62
    1
 10
1235.4143016998478
 20
1205.683016579992
 11
1229.1028439030115
 21
1205.683016579992
  0
LINE
  8
_0-0_
  6
CONTINUOUS
 62
    1
 10
1238.3843742604704
 20
1209.1057091214852
 11
1227.9319606030322
 21
1282.5501727653646
  0
ARC
  8
_0-0_
  6
CONTINUOUS
 62
    1
 10
1235.4143016998478
 20
1208.683016579992
 40
3
 50
270
 51
8.09978482155271
  0
LINE
  8
_0-0_
  6
CONTINUOUS
 62
    1
 10
1249.5341770457117
 20
1208.2106029065235
 11
1241.5611408422092
 21
1258.2106029065235
  0
ARC
  8
_0-0_
  6
CONTINUOUS
 62
    1
 10
1252.4967477741702
 20
1208.683016579992
 40
3
 50
189.06014740480177
 51
270
  0
LINE
  8
_0-0_
  6
CONTINUOUS
 62
    1
 10
1254.6600524641162
 20
1205.683016579992
 11
1252.4967477741702
 21
1205.683016579992
  0
LINE
  8
_0-0_
  6
CONTINUOUS
 62
    1
 10
1257.6054614676677
 20
1209.2527233482497
 11
1247.9343637089132
 21
1259.2527233482497
  0
ARC
  8
_0-0_
  6
CONTINUOUS
 62
    1
 10
1254.6600524641162
 20
1208.683016579992
 40
3
 50
270
 51
10.947080032491273
  0
LINE
  8
_0-0_
  6
CONTINUOUS
 62
    1
 10
1140.7202713813722
 20
1209.1057091214852
 11
1147.8361335844893
 21
1259.1057091214852
  0
ARC
  8
_0-0_
  6
CONTINUOUS
 62
    1
 10
1143.6903439419948
 20
1208.683016579992
 40
3
 50
171.90021517845045
 51
270
  0
LINE
  8
_0-0_
  6
CONTINUOUS
 62
    1
 10
1150.0018017388284
 20
1205.683016579992
 11
1143.6903439419948
 21
1205.683016579992
  0
LINE
  8
_0-0_
  6
CONTINUOUS
 62
    1
 10
1152.9893133352707
 20
1208.4095673870497
 11
1157.565851101147
 21
1258.4095673870497
  0
ARC
  8
_0-0_
  6
CONTINUOUS
 62
    1
 10
1150.0018017388284
 20
1208.683016579992
 40
3
 50
270
 51
354.77024628682176
  0
LINE
  8
_0-0_
  6
CONTINUOUS
 62
    1
 10
1129.5704685961273
 20
1208.2106029065235
 11
1141.4247102328745
 21
1282.5501727653646
  0
ARC
  8
_0-0_
  6
CONTINUOUS
 62
    1
 10
1126.6078978676687
 20
1208.683016579992
 40
3
 50
270
 51
350.93985259519798
  0
LINE
  8
_0-0_
  6
CONTINUOUS
 62
    1
 10
1124.4445931777263
 20
1205.683016579992
 11
1126.6078978676687
 21
1205.683016579992
  0
LINE
  8
_0-0_
  6
CONTINUOUS
 62
    1
 10
1121.4991841741748
 20
1209.2527233482488
 11
1135.6765201497756
 21
1282.5501727653646
  0
ARC
  8
_0-0_
  6
CONTINUOUS
 62
    1
 10
1124.4445931777263
 20
1208.683016579992
 40
3
 50
169.05291996751231
 51
270
  0
LINE
  8
_0-0_
  6
CONTINUOUS
 62
    1
 10
1226.1153323065691
 20
1208.4095673870497
 11
1225.4204094351298
 21
1216.0018009377172
  0
LINE
  8
_0-0_
  6
CONTINUOUS
 62
    1
 10
1225.4204094351298
 20
1216.0018009377172
 11
1219.3291866965947
 21
1282.5501727653646
  0
LINE
  8
_0-0_
  6
CONTINUOUS
 62
    1
 10
1112.4791953410495
 20
1206.8887116494279
 11
1123.9041677456544
 21
1261.2442310126653
  0
ARC
  8
_0-0_
  6
CONTINUOUS
 62
    1
 10
1113.4578114753995
 20
1206.683016579992
 40
1
 50
168.12980922873345
 51
270
  0
LINE
  8
_0-0_
  6
CONTINUOUS
 62
    1
 10
1113.9998567301191
 20
1205.683016579992
 11
1113.4578114753995
 21
1205.683016579992
  0
LINE
  8
_0-0_
  6
CONTINUOUS
 62
    1
 10
1114.9799189812911
 20
1206.48432590626
 11
1126.0611416704505
 21
1261.1436002973669
  0
ARC
  8
_0-0_
  6
CONTINUOUS
 62
    1
 10
1113.9998567301191
 20
1206.683016579992
 40
1
 50
270
 51
348.53959636285356
  0
LINE
  8
_0-0_
  6
CONTINUOUS
 62
    1
 10
1264.1247266605515
 20
1206.48432590626
 11
1248.7036915759281
 21
1282.5501727653646
  0
ARC
  8
_0-0_
  6
CONTINUOUS
 62
    1
 10
1265.1047889117235
 20
1206.683016579992
 40
1
 50
191.46040363714735
 51
270
  0
LINE
  8
_0-0_
  6
CONTINUOUS
 62
    1
 10
1265.6468341664431
 20
1205.683016579992
 11
1265.1047889117235
 21
1205.683016579992
  0
LINE
  8
_0-0_
  6
CONTINUOUS
 62
    1
 10
1266.6254503007922
 20
1206.8887116494279
 11
1250.7221875692749
 21
1282.5501727653646
  0
ARC
  8
_0-0_
  6
CONTINUOUS
 62
    1
 10
1265.6468341664431
 20
1206.683016579992
 40
1
 50
270
 51
11.870190771267069
  0
LINE
  8
_0-0_
  6
CONTINUOUS
 62
    1
 10
1140.5523228209213
 20
1005.6640603746464
 11
1140.5523228209213
 21
1189.183016579992
  0
LINE
  8
_0-0_
  6
DASHED1
 62
    1
 10
1142.0523228209213
 20
1005.6640603746464
 11
1142.0523228209213
 21
1189.183016579992
  0
LINE
  8
_0-0_
  6
DASHED1
 62
    1
 10
1237.0523228209213
 20
1005.6640603746464
 11
1237.0523228209213
 21
1189.1830165799911
  0
LINE
  8
_0-0_
  6
CONTINUOUS
 62
    1
 10
1140.5523228209213
 20
1189.183016579992
 11
1238.5523228209213
 21
1189.1830165799911
  0
ARC
  8
_0-0_
  6
DASHED1
 62
    1
 10
1140.5523228209213
 20
1189.183016579992
 40
1.5
 50
0
 51
90
  0
ARC
  8
_0-0_
  6
DASHED1
 62
    1
 10
1238.5523228209213
 20
1189.1830165799911
 40
1.5
 50
90
 51
180
  0
LINE
  8
_0-0_
  6
DASHED1
 62
    1
 10
1142.0223228209215
 20
1072.3333425019227
 11
1144.8515814219172
 21
1072.3333425019227
  0
LINE
  8
_0-0_
  6
DASHED1
 62
    1
 10
1237.082322820921
 20
1072.3333425019227
 11
1234.2530642199254
 21
1072.3333425019227
  0
LINE
  8
_0-0_
  6
DASHED1
 62
    1
 10
1173.8525929473308
 20
1190.683016579992
 11
1166.3000175108298
 21
1176.62997946727
  0
LINE
  8
_0-0_
  6
DASHED1
 62
    1
 10
1166.3000175108298
 20
1176.62997946727
 11
1159.4539516049415
 21
1157.3822294158479
  0
LINE
  8
_0-0_
  6
DASHED1
 62
    1
 10
1159.4539516049415
 20
1157.3822294158479
 11
1153.5224094779403
 21
1133.5245995712066
  0
LINE
  8
_0-0_
  6
DASHED1
 62
    1
 10
1153.5224094779403
 20
1133.5245995712066
 11
1148.6856180358495
 21
1105.7819919436329
  0
LINE
  8
_0-0_
  6
DASHED1
 62
    1
 10
1148.6856180358495
 20
1105.7819919436329
 11
1145.0905407391028
 21
1074.9973516274531
  0
LINE
  8
_0-0_
  6
DASHED1
 62
    1
 10
1145.0905407391028
 20
1074.9973516274531
 11
1144.8515814219172
 21
1072.3333425019227
  0
LINE
  8
_0-0_
  6
DASHED1
 62
    1
 10
1170.9669499076817
 20
1190.6830165799915
 11
1163.1058865980569
 21
1175.1394396988535
  0
LINE
  8
_0-0_
  6
DASHED1
 62
    1
 10
1163.1058865980569
 20
1175.1394396988535
 11
1156.0483848705212
 21
1154.4464391756292
  0
LINE
  8
_0-0_
  6
DASHED1
 62
    1
 10
1156.0483848705212
 20
1154.4464391756292
 11
1150.0088833437978
 21
1129.2327613600532
  0
LINE
  8
_0-0_
  6
DASHED1
 62
    1
 10
1150.0088833437978
 20
1129.2327613600532
 11
1145.170889215641
 21
1100.2645110938156
  0
LINE
  8
_0-0_
  6
DASHED1
 62
    1
 10
1145.170889215641
 20
1100.2645110938156
 11
1142.0223228209213
 21
1072.3333425019227
  0
LINE
  8
_0-0_
  6
DASHED1
 62
    1
 10
1234.2530642199254
 20
1072.3333425019227
 11
1230.7665371742214
 21
1103.3295678860795
  0
LINE
  8
_0-0_
  6
DASHED1
 62
    1
 10
1230.7665371742214
 20
1103.3295678860795
 11
1226.0277370807912
 21
1131.3582762456326
  0
LINE
  8
_0-0_
  6
DASHED1
 62
    1
 10
1226.0277370807912
 20
1131.3582762456326
 11
1220.1806499825252
 21
1155.5678294602881
  0
LINE
  8
_0-0_
  6
DASHED1
 62
    1
 10
1220.1806499825252
 20
1155.5678294602881
 11
1213.4029366621353
 21
1175.2226325062434
  0
LINE
  8
_0-0_
  6
DASHED1
 62
    1
 10
1213.4029366621353
 20
1175.2226325062434
 11
1205.9005345091728
 21
1189.7254841387578
  0
LINE
  8
_0-0_
  6
DASHED1
 62
    1
 10
1205.9005345091728
 20
1189.7254841387578
 11
1205.2520526945118
 21
1190.6830165799922
  0
LINE
  8
_0-0_
  6
DASHED1
 62
    1
 10
1237.0823228209213
 20
1072.3333425019227
 11
1233.4258562236876
 21
1103.8829932023766
  0
LINE
  8
_0-0_
  6
DASHED1
 62
    1
 10
1233.4258562236876
 20
1103.8829932023766
 11
1228.4363145150901
 21
1132.448311330038
  0
LINE
  8
_0-0_
  6
DASHED1
 62
    1
 10
1228.4363145150901
 20
1132.448311330038
 11
1222.2653023951143
 21
1157.1613541483462
  0
LINE
  8
_0-0_
  6
DASHED1
 62
    1
 10
1222.2653023951143
 20
1157.1613541483462
 11
1215.1003229443431
 21
1177.2712283566702
  0
LINE
  8
_0-0_
  6
DASHED1
 62
    1
 10
1215.1003229443431
 20
1177.2712283566702
 11
1208.1376957341608
 21
1190.6830165799915
  0
LINE
  8
_0-0_
  6
CONTINUOUS
 62
    1
 10
1205.2520526945118
 20
1190.6830165799922
 11
1197.2224489102484
 21
1199.1143463325241
  0
LINE
  8
_0-0_
  6
CONTINUOUS
 62
    1
 10
1197.2224489102484
 20
1199.1143463325241
 11
1188.9597922260318
 21
1201.6677870367939
  0
LINE
  8
_0-0_
  6
CONTINUOUS
 62
    1
 10
1188.9597922260318
 20
1201.6677870367939
 11
1180.715139284106
 21
1198.2657536891058
  0
LINE
  8
_0-0_
  6
CONTINUOUS
 62
    1
 10
1180.715139284106
 20
1198.2657536891058
 11
1173.8525929473308
 21
1190.683016579992
  0
LINE
  8
_0-0_
  6
CONTINUOUS
 62
    1
 10
1208.1376957341608
 20
1190.6830165799915
 11
1199.7119252732195
 21
1200.6048861009397
  0
LINE
  8
_0-0_
  6
CONTINUOUS
 62
    1
 10
1199.7119252732195
 20
1200.6048861009397
 11
1198.2780218246553
 21
1201.683016579992
  0
LINE
  8
_0-0_
  6
CONTINUOUS
 62
    1
 10
1180.8266238171873
 20
1201.683016579992
 11
1172.3316163494242
 21
1192.7271261543042
  0
LINE
  8
_0-0_
  6
CONTINUOUS
 62
    1
 10
1172.3316163494242
 20
1192.7271261543042
 11
1170.9669499076817
 21
1190.6830165799915
  0
LINE
  8
_0-0_
  6
CONTINUOUS
 62
    7
 10
1265.9117176367781
 20
1189.9041882841784
 11
1340.7225413656261
 21
1319.4803359386233
  0
POINT
  8
_0-0_
 62
    7
 10
1265.9117176367781
 20
1189.9041882841784
  0
LINE
  8
_0-0_
  6
CONTINUOUS
 62
    7
 10
1208.1921751121245
 20
1296.6807279248651
 11
1266.3677060668733
 21
1397.4437032957858
  0
POINT
  8
_0-0_
 62
    7
 10
1208.1921751121245
 20
1296.6807279248651
  0
LINE
  8
_0-0_
  6
CONTINUOUS
 62
    2
 10
1186.4446502596702
 20
920.7269745850881
 11
1182.7465155652953
 21
916.53713828746231
  0
LINE
  8
_0-0_
  6
CONTINUOUS
 62
    2
 10
1260.5351502596723
 20
929.98348972521285
 11
1263.6523228209217
 21
925.35503766758961
  0
LINE
  8
_0-0_
  6
CONTINUOUS
 62
    2
 10
1256.8370155652974
 20
934.17332602283864
 11
1260.5351502596723
 21
929.98348972521285
  0
LINE
  8
_0-0_
  6
CONTINUOUS
 62
    2
 10
1252.6258782489203
 20
937.84654778658773
 11
1256.8370155652974
 21
934.17332602283864
  0
LINE
  8
_0-0_
  6
CONTINUOUS
 62
    2
 10
1247.9734023466726
 20
940.94047445346314
 11
1252.6258782489203
 21
937.84654778658773
  0
LINE
  8
_0-0_
  6
CONTINUOUS
 62
    2
 10
1242.9575125419206
 20
943.40327971871397
 11
1247.9734023466726
 21
940.94047445346314
  0
LINE
  8
_0-0_
  6
CONTINUOUS
 62
    2
 10
1237.6639130205476
 20
945.19280608784038
 11
1242.9575125419206
 21
943.40327971871397
  0
LINE
  8
_0-0_
  6
CONTINUOUS
 62
    2
 10
1232.1831608961729
 20
946.27865793321348
 11
1237.6639130205476
 21
945.19280608784038
  0
LINE
  8
_0-0_
  6
CONTINUOUS
 62
    2
 10
1226.6070728209197
 20
946.64272012758943
 11
1232.1831608961729
 21
946.27865793321348
  0
LINE
  8
_0-0_
  6
CONTINUOUS
 62
    2
 10
1221.0310032682974
 20
946.27865793321348
 11
1226.6070728209197
 21
946.64272012758943
  0
LINE
  8
_0-0_
  6
CONTINUOUS
 62
    2
 10
1215.5502511439217
 20
945.19280608784038
 11
1221.0310032682974
 21
946.27865793321348
  0
LINE
  8
_0-0_
  6
CONTINUOUS
 62
    2
 10
1210.2566516225452
 20
943.40327971871397
 11
1215.5502511439217
 21
945.19280608784038
  0
LINE
  8
_0-0_
  6
CONTINUOUS
 62
    2
 10
1205.2407618177967
 20
940.94047445346314
 11
1210.2566516225452
 21
943.40327971871397
  0
LINE
  8
_0-0_
  6
CONTINUOUS
 62
    2
 10
1200.5882859155454
 20
937.84654778658773
 11
1205.2407618177967
 21
940.94047445346314
  0
LINE
  8
_0-0_
  6
CONTINUOUS
 62
    2
 10
1196.377148599172
 20
934.17332602283864
 11
1200.5882859155454
 21
937.84654778658773
  0
LINE
  8
_0-0_
  6
CONTINUOUS
 62
    2
 10
1192.6790139047971
 20
929.98348972521285
 11
1196.377148599172
 21
934.17332602283864
  0
LINE
  8
_0-0_
  6
CONTINUOUS
 62
    2
 10
1189.5618228209232
 20
925.35503766758961
 11
1192.6790139047971
 21
929.98348972521285
  0
LINE
  8
_0-0_
  6
CONTINUOUS
 62
    2
 10
1192.6790139047971
 20
920.7269745850881
 11
1189.5618228209232
 21
925.35540812009026
  0
LINE
  8
_0-0_
  6
CONTINUOUS
 62
    2
 10
1196.377148599172
 20
916.53713828746231
 11
1192.6790139047971
 21
920.7269745850881
  0
LINE
  8
_0-0_
  6
CONTINUOUS
 62
    2
 10
1200.5882859155454
 20
912.86391652371321
 11
1196.377148599172
 21
916.53713828746231
  0
LINE
  8
_0-0_
  6
CONTINUOUS
 62
    2
 10
1205.2407618177967
 20
909.76998985683781
 11
1200.5882859155454
 21
912.86391652371321
  0
LINE
  8
_0-0_
  6
CONTINUOUS
 62
    2
 10
1210.2566516225452
 20
907.30718459159039
 11
1205.2407618177967
 21
909.76998985683781
  0
LINE
  8
_0-0_
  6
CONTINUOUS
 62
    2
 10
1215.5502511439217
 20
905.51765822246398
 11
1210.2566516225452
 21
907.30718459159039
  0
LINE
  8
_0-0_
  6
CONTINUOUS
 62
    2
 10
1221.0310032682974
 20
904.43180637709088
 11
1215.5502511439217
 21
905.51765822246398
  0
LINE
  8
_0-0_
  6
CONTINUOUS
 62
    2
 10
1226.6070728209197
 20
904.06772566009022
 11
1221.0310032682974
 21
904.43180637709088
  0
LINE
  8
_0-0_
  6
CONTINUOUS
 62
    2
 10
1232.1831608961729
 20
904.43180637709088
 11
1226.6070728209197
 21
904.06772566009022
  0
LINE
  8
_0-0_
  6
CONTINUOUS
 62
    2
 10
1237.6639130205476
 20
905.51765822246398
 11
1232.1831608961729
 21
904.43180637709088
  0
LINE
  8
_0-0_
  6
CONTINUOUS
 62
    2
 10
1242.9575125419206
 20
907.30718459159039
 11
1237.6639130205476
 21
905.51765822246398
  0
LINE
  8
_0-0_
  6
CONTINUOUS
 62
    2
 10
1247.9734023466726
 20
909.76998985683781
 11
1242.9575125419206
 21
907.30718459159039
  0
LINE
  8
_0-0_
  6
CONTINUOUS
 62
    2
 10
1252.6258782489203
 20
912.86391652371321
 11
1247.9734023466726
 21
909.76998985683781
  0
LINE
  8
_0-0_
  6
CONTINUOUS
 62
    2
 10
1256.8370155652974
 20
916.53713828746231
 11
1252.6258782489203
 21
912.86391652371321
  0
LINE
  8
_0-0_
  6
CONTINUOUS
 62
    2
 10
1260.5351502596723
 20
920.7269745850881
 11
1256.8370155652974
 21
916.53713828746231
  0
LINE
  8
_0-0_
  6
CONTINUOUS
 62
    2
 10
1263.6523228209217
 20
925.35540812009026
 11
1260.5351502596723
 21
920.7269745850881
  0
LINE
  8
_0-0_
  6
CONTINUOUS
 62
    2
 10
1122.2866485991726
 20
916.53713828746231
 11
1118.5885139047978
 21
920.7269745850881
  0
LINE
  8
_0-0_
  6
CONTINUOUS
 62
    2
 10
1126.4977859155451
 20
912.86391652371321
 11
1122.2866485991726
 21
916.53713828746231
  0
LINE
  8
_0-0_
  6
CONTINUOUS
 62
    2
 10
1131.1502618177965
 20
909.76998985683781
 11
1126.4977859155451
 21
912.86391652371321
  0
LINE
  8
_0-0_
  6
CONTINUOUS
 62
    2
 10
1136.1661516225449
 20
907.30718459159039
 11
1131.1502618177965
 21
909.76998985683781
  0
LINE
  8
_0-0_
  6
CONTINUOUS
 62
    2
 10
1141.4597511439215
 20
905.51765822246398
 11
1136.1661516225449
 21
907.30718459159039
  0
LINE
  8
_0-0_
  6
CONTINUOUS
 62
    2
 10
1146.9405032682971
 20
904.43180637709088
 11
1141.4597511439215
 21
905.51765822246398
  0
LINE
  8
_0-0_
  6
CONTINUOUS
 62
    2
 10
1152.5165728209204
 20
904.06772566009022
 11
1146.9405032682971
 21
904.43180637709088
  0
LINE
  8
_0-0_
  6
CONTINUOUS
 62
    2
 10
1158.0926608961709
 20
904.43180637709088
 11
1152.5165728209204
 21
904.06772566009022
  0
LINE
  8
_0-0_
  6
CONTINUOUS
 62
    2
 10
1163.5734130205465
 20
905.51765822246398
 11
1158.0926608961709
 21
904.43180637709088
  0
LINE
  8
_0-0_
  6
CONTINUOUS
 62
    2
 10
1168.8670125419221
 20
907.30718459159039
 11
1163.5734130205465
 21
905.51765822246398
  0
LINE
  8
_0-0_
  6
CONTINUOUS
 62
    2
 10
1173.8829023466706
 20
909.76998985683781
 11
1168.8670125419221
 21
907.30718459159039
  0
LINE
  8
_0-0_
  6
CONTINUOUS
 62
    2
 10
1178.5353782489219
 20
912.86391652371321
 11
1173.8829023466706
 21
909.76998985683781
  0
LINE
  8
_0-0_
  6
CONTINUOUS
 62
    2
 10
1182.7465155652953
 20
916.53713828746231
 11
1178.5353782489219
 21
912.86391652371321
  0
LINE
  8
_0-0_
  6
CONTINUOUS
 62
    2
 10
1189.5618228209232
 20
925.35540812009026
 11
1186.4446502596702
 21
920.7269745850881
  0
LINE
  8
_0-0_
  6
CONTINUOUS
 62
    2
 10
1118.5885139047978
 20
920.7269745850881
 11
1115.4717979214684
 21
925.35470268649624
  0
LINE
  8
_0-0_
  6
CONTINUOUS
 62
    2
 10
1255.0723228209208
 20
1127.9455064590229
 11
1255.0723228209208
 21
935.71260325556273
  0
LINE
  8
_0-0_
  6
CONTINUOUS
 62
    2
 10
1124.0323228209218
 20
1127.9455064590229
 11
1124.0323228209218
 21
915.01445021960603
  0
TEXT
  8
_0-0_
 62
    7
 10
1269.952488017906
 20
1383.5800764041853
 40
30
 41
1
 50
0
  1
ﾄﾞﾚﾝｷｬｯﾌﾟ
  0
TEXT
  8
_0-0_
 62
    7
 10
1345.9703130117859
 20
1306.4085453962855
 40
30
 41
1
 50
0
  1
改修用ﾄﾞﾚﾝ
  0
LINE
  8
_0-0_
  6
CONTINUOUS
 62
    7
 10
935.00694038937138
 20
1263.5241851076157
 11
974.7174310832562
 21
1332.3047725829153
  0
POINT
  8
_0-0_
 62
    7
 10
935.00694038937138
 20
1263.5241851076157
  0
TEXT
  8
_0-0_
 62
    7
 10
978.00088442320532
 20
1317.1990978711258
 40
30
 41
1
 50
0
  1
防水層
  0
LINE
  8
_0-0_
  6
CONTINUOUS
 62
    2
 10
916.7601810951038
 20
503.09728813426591
 11
919.58609859510318
 21
499.85753638426718
  0
ARC
  8
_0-0_
  6
CONTINUOUS
 62
    4
 10
1201.0426449506558
 20
481.087863865175
 40
22.5
 50
114.50448182831113
 51
169.64653266611214
  0
LINE
  8
_0-0_
  6
CONTINUOUS
 62
    1
 10
1096.3560289506549
 20
460.59051863426816
 11
1096.3560289506549
 21
554.84051863426816
  0
POINT
  8
_0-0_
 62
    7
 10
1238.3815327746652
 20
505.82654781322549
  0
LINE
  8
_0-0_
  6
CONTINUOUS
 62
    2
 10
1032.5226449506781
 20
451.34051863426635
 11
1076.6226449506557
 21
452.71864363426562
  0
LINE
  8
_0-0_
  6
CONTINUOUS
 62
    1
 10
1094.8560289506549
 20
556.34051863426816
 11
1100.0426449506549
 21
556.34051863426816
  0
LINE
  8
_0-0_
  6
CONTINUOUS
 62
    7
 10
968.04264495065502
 20
445.84051863426271
 11
968.04264495065502
 21
441.34051863426271
  0
LINE
  8
_0-0_
  6
CONTINUOUS
 62
    7
 10
968.04264495065502
 20
433.3218443528242
 11
966.06131923209443
 21
431.34051863426271
  0
LINE
  8
_0-0_
  6
CONTINUOUS
 62
    7
 10
968.04264495065502
 20
437.81197241335781
 11
961.57119117155992
 21
431.34051863426271
  0
LINE
  8
_0-0_
  6
CONTINUOUS
 62
    7
 10
968.04264495065502
 20
442.30210047389323
 11
957.08106311102631
 21
431.34051863426271
  0
LINE
  8
_0-0_
  6
CONTINUOUS
 62
    7
 10
968.04264495065502
 20
446.79222853442684
 11
952.59093505049088
 21
431.34051863426271
  0
LINE
  8
_0-0_
  6
CONTINUOUS
 62
    7
 10
968.04264495065502
 20
451.28235659496227
 11
948.10080698995637
 21
431.34051863426271
  0
LINE
  8
_0-0_
  6
CONTINUOUS
 62
    7
 10
963.61067892942549
 20
451.34051863426635
 11
948.04264495065502
 21
435.77248465549587
  0
LINE
  8
_0-0_
  6
CONTINUOUS
 62
    7
 10
959.12055086889188
 20
451.34051863426635
 11
948.04264495065502
 21
440.2626127160313
  0
LINE
  8
_0-0_
  6
CONTINUOUS
 62
    7
 10
954.63042280835646
 20
451.34051863426635
 11
948.04264495065502
 21
444.75274077656491
  0
LINE
  8
_0-0_
  6
CONTINUOUS
 62
    7
 10
950.14029474782285
 20
451.34051863426635
 11
948.04264495065502
 21
449.24286883710033
  0
LINE
  8
_0-0_
  6
CONTINUOUS
 62
    7
 10
967.67098016370448
 20
451.34051863426635
 11
968.04264495065502
 21
450.96885384731672
  0
LINE
  8
_0-0_
  6
CONTINUOUS
 62
    7
 10
963.18085210317088
 20
451.34051863426635
 11
968.04264495065502
 21
446.4787257867813
  0
LINE
  8
_0-0_
  6
CONTINUOUS
 62
    7
 10
958.69072404263545
 20
451.34051863426635
 11
968.04264495065502
 21
441.98859772624769
  0
LINE
  8
_0-0_
  6
CONTINUOUS
 62
    7
 10
954.20059598210094
 20
451.34051863426635
 11
968.04264495065502
 21
437.49846966571226
  0
LINE
  8
_0-0_
  6
CONTINUOUS
 62
    7
 10
949.71046792156733
 20
451.34051863426635
 11
968.04264495065502
 21
433.00834160517866
  0
LINE
  8
_0-0_
  6
CONTINUOUS
 62
    7
 10
948.04264495065502
 20
448.51821354464323
 11
965.22033986103554
 21
431.34051863426271
  0
LINE
  8
_0-0_
  6
CONTINUOUS
 62
    7
 10
948.04264495065502
 20
444.02808548410962
 11
960.73021180050193
 21
431.34051863426271
  0
LINE
  8
_0-0_
  6
CONTINUOUS
 62
    7
 10
948.04264495065502
 20
439.5379574235742
 11
956.24008373996651
 21
431.34051863426271
  0
LINE
  8
_0-0_
  6
CONTINUOUS
 62
    7
 10
948.04264495065502
 20
435.04782936304059
 11
951.7499556794329
 21
431.34051863426271
  0
LINE
  8
_0-0_
  6
CONTINUOUS
 62
    7
 10
948.04264495065502
 20
431.34051863426271
 11
948.04264495065502
 21
451.34051863426635
  0
LINE
  8
_0-0_
  6
CONTINUOUS
 62
    7
 10
968.04264495065502
 20
445.84051863426271
 11
968.04264495065502
 21
451.34051863426635
  0
LINE
  8
_0-0_
  6
CONTINUOUS
 62
    7
 10
968.04264495065502
 20
441.34051863426271
 11
968.04264495065502
 21
431.34051863426271
  0
LINE
  8
_0-0_
  6
CONTINUOUS
 62
    7
 10
948.04264495065502
 20
431.34051863426271
 11
968.04264495065502
 21
431.34051863426271
  0
LINE
  8
_0-0_
  6
CONTINUOUS
 62
    7
 10
968.04264495065502
 20
441.34051863426635
 11
1053.0426449506595
 21
441.34051863426816
  0
LINE
  8
_0-0_
  6
CONTINUOUS
 62
    7
 10
1053.0426449506595
 20
445.84051863426816
 11
968.04264495065502
 21
445.84051863426453
  0
LINE
  8
_0-0_
  6
CONTINUOUS
 62
    7
 10
948.04264495065502
 20
575.34051863426998
 11
1053.0426449506595
 21
575.34051863426816
  0
LINE
  8
_0-0_
  6
CONTINUOUS
 62
    7
 10
1053.0426449506595
 20
570.84051863426816
 11
948.04264495065502
 21
570.84051863426998
  0
LINE
  8
_0-0_
  6
CONTINUOUS
 62
    7
 10
967.98448291135458
 20
577.32184435282966
 11
966.00315719279308
 21
575.34051863426998
  0
LINE
  8
_0-0_
  6
CONTINUOUS
 62
    7
 10
967.98448291135458
 20
581.81197241336508
 11
961.51302913225857
 21
575.34051863426998
  0
LINE
  8
_0-0_
  6
CONTINUOUS
 62
    7
 10
967.98448291135458
 20
586.30210047389869
 11
957.02290107172496
 21
575.34051863426998
  0
LINE
  8
_0-0_
  6
CONTINUOUS
 62
    7
 10
967.98448291135458
 20
590.79222853443412
 11
952.53277301119044
 21
575.34051863426998
  0
LINE
  8
_0-0_
  6
CONTINUOUS
 62
    7
 10
967.98448291135458
 20
595.28235659496772
 11
948.04264495065502
 21
575.34051863426998
  0
LINE
  8
_0-0_
  6
CONTINUOUS
 62
    7
 10
963.55251689012505
 20
595.34051863427362
 11
947.98448291135458
 21
579.77248465550315
  0
LINE
  8
_0-0_
  6
CONTINUOUS
 62
    7
 10
959.06238882959144
 20
595.34051863427362
 11
947.98448291135458
 21
584.26261271603857
  0
LINE
  8
_0-0_
  6
CONTINUOUS
 62
    7
 10
954.57226076905602
 20
595.34051863427362
 11
947.98448291135458
 21
588.75274077657218
  0
LINE
  8
_0-0_
  6
CONTINUOUS
 62
    7
 10
950.08213270852241
 20
595.34051863427362
 11
947.98448291135458
 21
593.24286883710761
  0
LINE
  8
_0-0_
  6
CONTINUOUS
 62
    7
 10
958.6325620033341
 20
595.34051863427362
 11
967.98448291135458
 21
585.98859772625315
  0
LINE
  8
_0-0_
  6
CONTINUOUS
 62
    7
 10
954.14243394279958
 20
595.34051863427362
 11
967.98448291135458
 21
581.49846966571954
  0
LINE
  8
_0-0_
  6
CONTINUOUS
 62
    7
 10
949.65230588226598
 20
595.34051863427362
 11
967.98448291135458
 21
577.00834160518411
  0
LINE
  8
_0-0_
  6
CONTINUOUS
 62
    7
 10
947.98448291135458
 20
592.51821354465051
 11
965.1621778217351
 21
575.34051863426998
  0
LINE
  8
_0-0_
  6
CONTINUOUS
 62
    7
 10
947.98448291135458
 20
588.02808548411508
 11
960.67204976120058
 21
575.34051863426998
  0
LINE
  8
_0-0_
  6
CONTINUOUS
 62
    7
 10
947.98448291135458
 20
583.53795742358147
 11
956.18192170066607
 21
575.34051863426998
  0
LINE
  8
_0-0_
  6
CONTINUOUS
 62
    7
 10
947.98448291135458
 20
579.04782936304605
 11
951.69179364013246
 21
575.34051863426998
  0
LINE
  8
_0-0_
  6
CONTINUOUS
 62
    7
 10
947.98448291135458
 20
575.34051863426998
 11
947.98448291135458
 21
595.34051863427362
  0
LINE
  8
_0-0_
  6
CONTINUOUS
 62
    7
 10
967.98448291135458
 20
585.34051863426998
 11
967.98448291135458
 21
575.34051863426998
  0
LINE
  8
_0-0_
  6
CONTINUOUS
 62
    7
 10
1244.6426449506553
 20
436.14051863426744
 11
1244.6426449506553
 21
449.34051863426816
  0
ARC
  8
_0-0_
  6
CONTINUOUS
 62
    7
 10
1254.842644950656
 20
436.14051863426744
 40
10.2000000000005
 50
180.00000000000125
 51
270.00000000000125
  0
LINE
  8
_0-0_
  6
CONTINUOUS
 62
    7
 10
1266.0426449506567
 20
425.94051863426671
 11
1254.842644950656
 21
425.94051863426671
  0
LINE
  8
_0-0_
  6
CONTINUOUS
 62
    7
 10
1266.0426449506567
 20
432.7405186342678
 11
1266.0426449506567
 21
425.94051863426671
  0
LINE
  8
_0-0_
  6
CONTINUOUS
 62
    7
 10
1254.842644950656
 20
432.7405186342678
 11
1266.0426449506567
 21
432.7405186342678
  0
ARC
  8
_0-0_
  6
CONTINUOUS
 62
    7
 10
1254.842644950656
 20
436.14051863426744
 40
3.3999999999998631
 50
179.99999999999619
 51
269.99999999999619
  0
LINE
  8
_0-0_
  6
CONTINUOUS
 62
    7
 10
1251.4426449506564
 20
449.34051863426816
 11
1251.4426449506564
 21
436.14051863426744
  0
LINE
  8
_0-0_
  6
CONTINUOUS
 62
    7
 10
1244.2926449506558
 20
449.34051863426816
 11
1244.2926449506558
 21
456.34051863426816
  0
LINE
  8
_0-0_
  6
CONTINUOUS
 62
    7
 10
1251.7926449506558
 20
449.34051863426816
 11
1244.2926449506558
 21
449.34051863426816
  0
LINE
  8
_0-0_
  6
CONTINUOUS
 62
    7
 10
1251.7926449506558
 20
456.34051863426816
 11
1251.7926449506558
 21
449.34051863426816
  0
LINE
  8
_0-0_
  6
CONTINUOUS
 62
    7
 10
1056.842644950656
 20
623.94051863426853
 11
1070.0426449506549
 21
623.94051863426853
  0
ARC
  8
_0-0_
  6
CONTINUOUS
 62
    7
 10
1056.842644950656
 20
634.14051863426744
 40
10.200000000000269
 50
180.00000000000259
 51
270.00000000000261
  0
LINE
  8
_0-0_
  6
CONTINUOUS
 62
    7
 10
1046.6426449506553
 20
645.34051863426816
 11
1046.6426449506553
 21
634.14051863426744
  0
LINE
  8
_0-0_
  6
CONTINUOUS
 62
    7
 10
1053.4426449506564
 20
645.34051863426816
 11
1046.6426449506553
 21
645.34051863426816
  0
LINE
  8
_0-0_
  6
CONTINUOUS
 62
    7
 10
1053.4426449506564
 20
634.14051863426744
 11
1053.4426449506564
 21
645.34051863426816
  0
ARC
  8
_0-0_
  6
CONTINUOUS
 62
    7
 10
1056.842644950656
 20
634.14051863426744
 40
3.3999999999998631
 50
179.99999999999619
 51
269.99999999999619
  0
LINE
  8
_0-0_
  6
CONTINUOUS
 62
    7
 10
1070.0426449506549
 20
630.7405186342678
 11
1056.842644950656
 21
630.7405186342678
  0
LINE
  8
_0-0_
  6
CONTINUOUS
 62
    7
 10
1070.0426449506549
 20
623.59051863426816
 11
1077.0426449506549
 21
623.59051863426816
  0
LINE
  8
_0-0_
  6
CONTINUOUS
 62
    7
 10
1070.0426449506549
 20
631.09051863426816
 11
1070.0426449506549
 21
623.59051863426816
  0
LINE
  8
_0-0_
  6
CONTINUOUS
 62
    7
 10
1077.0426449506549
 20
631.09051863426816
 11
1070.0426449506549
 21
631.09051863426816
  0
LINE
  8
_0-0_
  6
CONTINUOUS
 62
    7
 10
1053.0426449506595
 20
575.34051863426816
 11
1053.0426449506595
 21
570.84051863426816
  0
LINE
  8
_0-0_
  6
CONTINUOUS
 62
    7
 10
1076.6226449506557
 20
563.96239363426707
 11
1076.6226449506557
 21
558.74051863426598
  0
LINE
  8
_0-0_
  6
CONTINUOUS
 62
    7
 10
1076.6226449506557
 20
452.71864363426562
 11
1076.6226449506557
 21
457.94051863426671
  0
LINE
  8
_0-0_
  6
CONTINUOUS
 62
    7
 10
1053.0426449506595
 20
441.34051863426816
 11
1053.0426449506595
 21
445.84051863426816
  0
LINE
  8
_0-0_
  6
CONTINUOUS
 62
    7
 10
1069.0426449506549
 20
453.48225679636585
 11
1069.0426449506549
 21
452.84051863426816
  0
LINE
  8
_0-0_
  6
CONTINUOUS
 62
    7
 10
1048.0426449506549
 20
451.82551863426693
 11
1048.0426449506549
 21
446.34051863426816
  0
LINE
  8
_0-0_
  6
CONTINUOUS
 62
    7
 10
1077.0426449506549
 20
629.89051863426744
 11
1070.0426449506549
 21
629.89051863426744
  0
LINE
  8
_0-0_
  6
CONTINUOUS
 62
    7
 10
1077.0426449506549
 20
624.79051863426707
 11
1070.0426449506549
 21
624.79051863426707
  0
LINE
  8
_0-0_
  6
CONTINUOUS
 62
    7
 10
1250.5926449506569
 20
456.34051863426816
 11
1250.5926449506569
 21
449.34051863426816
  0
LINE
  8
_0-0_
  6
CONTINUOUS
 62
    7
 10
1245.4926449506565
 20
456.34051863426816
 11
1245.4926449506565
 21
449.34051863426816
  0
ARC
  8
_0-0_
  6
CONTINUOUS
 62
    7
 10
1085.3516281162911
 20
452.34051863426816
 40
10
 50
270
 51
300.12318347445199
  0
LINE
  8
_0-0_
  6
CONTINUOUS
 62
    7
 10
1101.2830315655001
 20
450.02286166006547
 11
1090.3702357218026
 21
443.69103438941806
  0
LINE
  8
_0-0_
  6
CONTINUOUS
 62
    7
 10
1087.0426449506576
 20
560.84051863426816
 11
1087.0426449506576
 21
476.34051863426816
  0
ARC
  8
_0-0_
  6
CONTINUOUS
 62
    7
 10
1285.1436654650906
 20
466.34051863426816
 40
5
 50
11.536959032804702
 51
90
  0
ARC
  8
_0-0_
  6
CONTINUOUS
 62
    7
 10
1276.7093116173228
 20
469.34051863426816
 40
2
 50
90
 51
126.86989764582549
  0
ARC
  8
_0-0_
  6
CONTINUOUS
 62
    7
 10
1237.1715387668737
 20
469.34051863426816
 40
2
 50
3.8140748342883031
 51
90
  0
ARC
  8
_0-0_
  6
CONTINUOUS
 62
    7
 10
1090.0426449506549
 20
656.00718530093422
 40
2
 50
323.13010235419512
 51
0
  0
ARC
  8
_0-0_
  6
CONTINUOUS
 62
    7
 10
1090.0426449506549
 20
616.46941245048424
 40
2
 50
0
 51
86.185925165711907
  0
ARC
  8
_0-0_
  6
CONTINUOUS
 62
    7
 10
1087.0426449506549
 20
664.44153914870208
 40
5
 50
0
 51
78.463040967205103
  0
LINE
  8
_0-0_
  6
CONTINUOUS
 62
    7
 10
1088.0426449506549
 20
618.60718530093459
 11
1088.0426449506549
 21
574.44153914870208
  0
LINE
  8
_0-0_
  6
CONTINUOUS
 62
    7
 10
1088.0426449506549
 20
669.34051863426816
 11
1088.0426449506549
 21
650.00718530093422
  0
ARC
  8
_0-0_
  6
CONTINUOUS
 62
    7
 10
1079.0426449506549
 20
634.67385196760029
 40
2
 50
143.13010235416249
 51
180
  0
LINE
  8
_0-0_
  6
CONTINUOUS
 62
    7
 10
1077.4426449506564
 20
635.87385196760101
 11
1091.6426449506553
 21
654.8071853009335
  0
ARC
  8
_0-0_
  6
CONTINUOUS
 62
    7
 10
1079.0426449506549
 20
621.21162481805027
 40
2
 50
180
 51
266.18592516571192
  0
LINE
  8
_0-0_
  6
CONTINUOUS
 62
    7
 10
1077.0426449506549
 20
621.21162481805027
 11
1077.0426449506549
 21
634.67385196760029
  0
LINE
  8
_0-0_
  6
CONTINUOUS
 62
    7
 10
1078.9096069296074
 20
619.21605450233642
 11
1090.1756829717042
 21
618.46498276619809
  0
ARC
  8
_0-0_
  6
CONTINUOUS
 62
    7
 10
1255.3759782839898
 20
458.34051863426816
 40
2
 50
270
 51
306.8698976458665
  0
LINE
  8
_0-0_
  6
CONTINUOUS
 62
    7
 10
1256.5759782839896
 20
456.7405186342678
 11
1275.5093116173221
 21
470.94051863426671
  0
ARC
  8
_0-0_
  6
CONTINUOUS
 62
    7
 10
1241.9137511344397
 20
458.34051863426816
 40
2
 50
183.81407483428828
 51
270
  0
LINE
  8
_0-0_
  6
CONTINUOUS
 62
    7
 10
1241.9137511344397
 20
456.34051863426816
 11
1255.3759782839898
 21
456.34051863426816
  0
LINE
  8
_0-0_
  6
CONTINUOUS
 62
    7
 10
1239.9181808187259
 20
458.2074806132207
 11
1239.1671090825876
 21
469.47355665531563
  0
ARC
  8
_0-0_
  6
CONTINUOUS
 62
    7
 10
1106.3016391710116
 20
441.37337741521537
 40
10
 50
97.125016348904694
 51
120.12318347445199
  0
LINE
  8
_0-0_
  6
CONTINUOUS
 62
    7
 10
1105.06129182512
 20
451.29615618235243
 11
1176.5066288778735
 21
460.22682331394594
  0
LINE
  8
_0-0_
  6
CONTINUOUS
 62
    7
 10
1093.0426449506549
 20
455.84051863426816
 11
1177.0426449506558
 21
466.34051863426816
  0
ARC
  8
_0-0_
  6
CONTINUOUS
 62
    7
 10
1175.2662815319818
 20
470.149602081083
 40
10
 50
277.12501634890469
 51
312.87890360331409
  0
LINE
  8
_0-0_
  6
CONTINUOUS
 62
    7
 10
1188.3673317102675
 20
468.66845355053033
 11
1182.0707925256556
 21
462.82166716481902
  0
LINE
  8
_0-0_
  6
CONTINUOUS
 62
    7
 10
1191.0426449506558
 20
479.34051863426816
 11
1177.0426449506558
 21
466.34051863426816
  0
ARC
  8
_0-0_
  6
CONTINUOUS
 62
    7
 10
1195.1718427039395
 20
461.34051863426816
 40
10
 50
90
 51
132.87890360331409
  0
LINE
  8
_0-0_
  6
CONTINUOUS
 62
    7
 10
1285.1436654650906
 20
471.34051863426816
 11
1195.1718427039395
 21
471.34051863426816
  0
LINE
  8
_0-0_
  6
CONTINUOUS
 62
    7
 10
1298.0426449506567
 20
467.34051863426816
 11
1290.0426449506567
 21
467.34051863426816
  0
LINE
  8
_0-0_
  6
CONTINUOUS
 62
    7
 10
1298.0426449506567
 20
477.34051863426816
 11
1298.0426449506567
 21
467.34051863426816
  0
LINE
  8
_0-0_
  6
CONTINUOUS
 62
    7
 10
1100.0426449506549
 20
573.34051863426816
 11
1098.0426449506549
 21
574.34051863426816
  0
LINE
  8
_0-0_
  6
CONTINUOUS
 62
    7
 10
1100.0426449506549
 20
570.34051863426816
 11
1087.0426449506549
 21
556.34051863426816
  0
LINE
  8
_0-0_
  6
CONTINUOUS
 62
    7
 10
1100.0426449506549
 20
573.34051863426816
 11
1100.0426449506549
 21
570.34051863426816
  0
LINE
  8
_0-0_
  6
CONTINUOUS
 62
    7
 10
1098.0426449506549
 20
677.34051863426816
 11
1098.0426449506549
 21
574.34051863426816
  0
ARC
  8
_0-0_
  6
CONTINUOUS
 62
    7
 10
1087.0426449506549
 20
579.34051863426816
 40
5
 50
270
 51
0
  0
LINE
  8
_0-0_
  6
CONTINUOUS
 62
    7
 10
1092.0426449506549
 20
664.44153914870208
 11
1092.0426449506549
 21
579.34051863426816
  0
LINE
  8
_0-0_
  6
CONTINUOUS
 62
    7
 10
1088.0426449506549
 20
677.34051863426816
 11
1088.0426449506549
 21
669.34051863426816
  0
LINE
  8
_0-0_
  6
CONTINUOUS
 62
    7
 10
1098.0426449506549
 20
677.34051863426816
 11
1088.0426449506549
 21
677.34051863426816
  0
LINE
  8
_0-0_
  6
CONTINUOUS
 62
    7
 10
1053.0426449506549
 20
446.34051863426816
 11
1048.0426449506549
 21
446.34051863426816
  0
LINE
  8
_0-0_
  6
CONTINUOUS
 62
    7
 10
1053.0426449506549
 20
442.34051863426816
 11
1053.0426449506549
 21
446.34051863426816
  0
LINE
  8
_0-0_
  6
CONTINUOUS
 62
    7
 10
1053.0426449506595
 20
570.34051863426816
 11
1048.0426449506595
 21
570.34051863426816
  0
LINE
  8
_0-0_
  6
CONTINUOUS
 62
    7
 10
1053.0426449506595
 20
574.34051863426816
 11
1053.0426449506595
 21
570.34051863426816
  0
LINE
  8
_0-0_
  6
CONTINUOUS
 62
    7
 10
1053.0426449506549
 20
442.34051863426816
 11
1085.3516281162911
 21
442.34051863426816
  0
LINE
  8
_0-0_
  6
CONTINUOUS
 62
    7
 10
1081.0426449506549
 20
455.84051863426816
 11
1093.0426449506549
 21
455.84051863426816
  0
LINE
  8
_0-0_
  6
CONTINUOUS
 62
    7
 10
1049.0426449506549
 20
452.85725679636585
 11
1069.0426449506549
 21
453.48225679636585
  0
LINE
  8
_0-0_
  6
CONTINUOUS
 62
    7
 10
1048.0426449506549
 20
451.82551863426693
 11
1069.0748998864665
 21
452.48277660101144
  0
LINE
  8
_0-0_
  6
CONTINUOUS
 62
    7
 10
1048.0426449506549
 20
451.82551863426693
 11
1049.0426449506549
 21
452.85725679636585
  0
LINE
  8
_0-0_
  6
CONTINUOUS
 62
    7
 10
1081.0426449506549
 20
560.84051863426816
 11
1087.0426449506576
 21
560.84051863426816
  0
LINE
  8
_0-0_
  6
CONTINUOUS
 62
    7
 10
1053.0426449506595
 20
574.34051863426816
 11
1087.0426449506549
 21
574.34051863426816
  0
ARC
  8
_0-0_
  6
CONTINUOUS
 62
    7
 10
1071.0426449506549
 20
452.84051863426816
 40
2
 50
180
 51
270
  0
ARC
  8
_0-0_
  6
CONTINUOUS
 62
    7
 10
1079.0426449506549
 20
452.84051863426816
 40
2
 50
270
 51
0
  0
LINE
  8
_0-0_
  6
CONTINUOUS
 62
    7
 10
1071.0426449506549
 20
450.84051863426816
 11
1079.0426449506549
 21
450.84051863426816
  0
ARC
  8
_0-0_
  6
CONTINUOUS
 62
    7
 10
1071.0426449506549
 20
563.84051863426816
 40
2
 50
90
 51
180
  0
LINE
  8
_0-0_
  6
CONTINUOUS
 62
    7
 10
1071.0426449506549
 20
565.84051863426816
 11
1079.0426449506549
 21
565.84051863426816
  0
ARC
  8
_0-0_
  6
CONTINUOUS
 62
    7
 10
1079.0426449506549
 20
563.84051863426816
 40
2
 50
0
 51
90
  0
LINE
  8
_0-0_
  6
CONTINUOUS
 62
    7
 10
1081.0426449506549
 20
563.84051863426816
 11
1081.0426449506549
 21
452.84051863426816
  0
LINE
  8
_0-0_
  6
CONTINUOUS
 62
    7
 10
1069.0426449506549
 20
563.84051863426816
 11
1069.0426449506549
 21
563.19878047216866
  0
LINE
  8
_0-0_
  6
CONTINUOUS
 62
    7
 10
1048.0426449506595
 20
564.85551863426758
 11
1049.0426449506585
 21
563.82378047216866
  0
LINE
  8
_0-0_
  6
CONTINUOUS
 62
    7
 10
1049.0426449506585
 20
563.82378047216866
 11
1069.0426449506549
 21
563.19878047216866
  0
LINE
  8
_0-0_
  6
CONTINUOUS
 62
    7
 10
1048.0426449506595
 20
564.85551863426758
 11
1069.0748998864665
 21
564.19826066752307
  0
LINE
  8
_0-0_
  6
CONTINUOUS
 62
    7
 10
1048.0426449506595
 20
570.34051863426816
 11
1048.0426449506576
 21
564.85551863426758
  0
LINE
  8
_0-0_
  6
CONTINUOUS
 62
    7
 10
1098.0426449506549
 20
677.34051863426816
 11
1098.0426449506549
 21
751.39588748590745
  0
LINE
  8
_0-0_
  6
CONTINUOUS
 62
    7
 10
948.04264495065502
 20
565.34051863426635
 11
948.04264495065502
 21
751.39588748590745
  0
LINE
  8
_0-0_
  6
CONTINUOUS
 62
    7
 10
948.04264495065593
 20
660.9790786415399
 11
1038.4594537950225
 21
751.39588748590745
  0
LINE
  8
_0-0_
  6
CONTINUOUS
 62
    7
 10
948.04264495065502
 20
668.05014645340475
 11
1031.3883859831594
 21
751.39588748590745
  0
LINE
  8
_0-0_
  6
CONTINUOUS
 62
    7
 10
948.04264495065593
 20
675.1212142652696
 11
1024.3173181712928
 21
751.39588748590745
  0
LINE
  8
_0-0_
  6
CONTINUOUS
 62
    7
 10
1073.5361192993487
 20
574.34051863426816
 11
1088.0426449506549
 21
588.84704428557438
  0
LINE
  8
_0-0_
  6
CONTINUOUS
 62
    7
 10
1080.6071871112154
 20
574.34051863426816
 11
1088.0426449506549
 21
581.77597647370771
  0
LINE
  8
_0-0_
  6
CONTINUOUS
 62
    7
 10
948.04264495065502
 20
434.70490866184468
 11
948.21410530125388
 21
434.87636901244173
  0
LINE
  8
_0-0_
  6
CONTINUOUS
 62
    7
 10
1087.7250401261563
 20
574.38730383734423
 11
1088.0426449506549
 21
574.70490866184468
  0
LINE
  8
_0-0_
  6
CONTINUOUS
 62
    2
 10
1033.8746768929541
 20
452.86176963246385
 11
1033.8716224089985
 21
452.86167417983984
  0
LINE
  8
_0-0_
  6
CONTINUOUS
 62
    2
 10
1033.8746768929541
 20
452.86176963246385
 11
1076.6226449506557
 21
454.1976436342668
  0
LINE
  8
_0-0_
  6
CONTINUOUS
 62
    2
 10
1033.0020320410858
 20
451.35549948084213
 11
1033.8746768929541
 21
452.86176963246385
  0
LINE
  8
_0-0_
  6
CONTINUOUS
 62
    2
 10
1033.0020320410858
 20
565.32553778769056
 11
1033.8716224089985
 21
563.81936308869285
  0
LINE
  8
_0-0_
  6
CONTINUOUS
 62
    2
 10
1076.6226449506557
 20
562.48339363426589
 11
1033.8716224089985
 21
563.81936308869285
  0
LINE
  8
_0-0_
  6
CONTINUOUS
 62
    2
 10
1076.6226449506557
 20
563.96239363426707
 11
1032.5226449506781
 21
565.34051863426635
  0
LINE
  8
_0-0_
  6
CONTINUOUS
 62
    7
 10
947.98448291135458
 20
595.34051863427362
 11
967.89462682022543
 21
595.34051863427362
  0
LINE
  8
_0-0_
  6
CONTINUOUS
 62
    7
 10
967.89462682022543
 20
595.34051863427362
 11
967.98448291135458
 21
595.34051863427362
  0
LINE
  8
_0-0_
  6
CONTINUOUS
 62
    7
 10
967.98448291135458
 20
595.34051863427362
 11
967.98448291135458
 21
585.34051863426998
  0
LINE
  8
_0-0_
  6
CONTINUOUS
 62
    1
 10
952.66764495065502
 20
459.09051863426816
 11
946.41764495065502
 21
459.09051863426816
  0
LINE
  8
_0-0_
  6
CONTINUOUS
 62
    1
 10
946.41764495065502
 20
459.09051863426816
 11
946.41764495065502
 21
556.34051863426816
  0
LINE
  8
_0-0_
  6
CONTINUOUS
 62
    1
 10
946.41764495065502
 20
556.34051863426816
 11
952.66764495065502
 21
556.34051863426816
  0
LINE
  8
_0-0_
  6
CONTINUOUS
 62
    1
 10
952.66764495065502
 20
556.34051863426816
 11
952.66764495065502
 21
459.09051863426816
  0
LINE
  8
_0-0_
  6
CONTINUOUS
 62
    1
 10
962.04264495065502
 20
459.09051863426816
 11
955.79264495065502
 21
459.09051863426816
  0
LINE
  8
_0-0_
  6
CONTINUOUS
 62
    1
 10
955.79264495065502
 20
459.09051863426816
 11
955.79264495065502
 21
556.34051863426816
  0
LINE
  8
_0-0_
  6
CONTINUOUS
 62
    1
 10
955.79264495065502
 20
556.34051863426816
 11
962.04264495065502
 21
556.34051863426816
  0
LINE
  8
_0-0_
  6
CONTINUOUS
 62
    1
 10
962.04264495065502
 20
556.34051863426816
 11
962.04264495065502
 21
459.09051863426816
  0
LINE
  8
_0-0_
  6
CONTINUOUS
 62
    1
 10
971.41764495065502
 20
459.09051863426816
 11
965.16764495065502
 21
459.09051863426816
  0
LINE
  8
_0-0_
  6
CONTINUOUS
 62
    1
 10
965.16764495065502
 20
459.09051863426816
 11
965.16764495065502
 21
556.34051863426816
  0
LINE
  8
_0-0_
  6
CONTINUOUS
 62
    1
 10
965.16764495065502
 20
556.34051863426816
 11
971.41764495065502
 21
556.34051863426816
  0
LINE
  8
_0-0_
  6
CONTINUOUS
 62
    1
 10
971.41764495065502
 20
556.34051863426816
 11
971.41764495065502
 21
459.09051863426816
  0
LINE
  8
_0-0_
  6
CONTINUOUS
 62
    1
 10
980.79264495065502
 20
459.09051863426816
 11
974.54264495065502
 21
459.09051863426816
  0
LINE
  8
_0-0_
  6
CONTINUOUS
 62
    1
 10
974.54264495065502
 20
459.09051863426816
 11
974.54264495065502
 21
556.34051863426816
  0
LINE
  8
_0-0_
  6
CONTINUOUS
 62
    1
 10
974.54264495065502
 20
556.34051863426816
 11
980.79264495065502
 21
556.34051863426816
  0
LINE
  8
_0-0_
  6
CONTINUOUS
 62
    1
 10
980.79264495065502
 20
556.34051863426816
 11
980.79264495065502
 21
459.09051863426816
  0
LINE
  8
_0-0_
  6
CONTINUOUS
 62
    1
 10
990.16764495065502
 20
459.09051863426816
 11
983.91764495065502
 21
459.09051863426816
  0
LINE
  8
_0-0_
  6
CONTINUOUS
 62
    1
 10
983.91764495065502
 20
459.09051863426816
 11
983.91764495065502
 21
556.34051863426816
  0
LINE
  8
_0-0_
  6
CONTINUOUS
 62
    1
 10
983.91764495065502
 20
556.34051863426816
 11
990.16764495065502
 21
556.34051863426816
  0
LINE
  8
_0-0_
  6
CONTINUOUS
 62
    1
 10
990.16764495065502
 20
556.34051863426816
 11
990.16764495065502
 21
459.09051863426816
  0
LINE
  8
_0-0_
  6
CONTINUOUS
 62
    1
 10
999.54264495065502
 20
459.09051863426816
 11
993.29264495065502
 21
459.09051863426816
  0
LINE
  8
_0-0_
  6
CONTINUOUS
 62
    1
 10
993.29264495065502
 20
459.09051863426816
 11
993.29264495065502
 21
556.34051863426816
  0
LINE
  8
_0-0_
  6
CONTINUOUS
 62
    1
 10
993.29264495065502
 20
556.34051863426816
 11
999.54264495065502
 21
556.34051863426816
  0
LINE
  8
_0-0_
  6
CONTINUOUS
 62
    1
 10
999.54264495065502
 20
556.34051863426816
 11
999.54264495065502
 21
459.09051863426816
  0
LINE
  8
_0-0_
  6
CONTINUOUS
 62
    1
 10
1008.917644950655
 20
459.09051863426816
 11
1002.667644950655
 21
459.09051863426816
  0
LINE
  8
_0-0_
  6
CONTINUOUS
 62
    1
 10
1002.667644950655
 20
459.09051863426816
 11
1002.667644950655
 21
556.34051863426816
  0
LINE
  8
_0-0_
  6
CONTINUOUS
 62
    1
 10
1002.667644950655
 20
556.34051863426816
 11
1008.917644950655
 21
556.34051863426816
  0
LINE
  8
_0-0_
  6
CONTINUOUS
 62
    1
 10
1008.917644950655
 20
556.34051863426816
 11
1008.917644950655
 21
459.09051863426816
  0
LINE
  8
_0-0_
  6
CONTINUOUS
 62
    1
 10
1018.292644950655
 20
459.09051863426816
 11
1012.042644950655
 21
459.09051863426816
  0
LINE
  8
_0-0_
  6
CONTINUOUS
 62
    1
 10
1012.042644950655
 20
459.09051863426816
 11
1012.042644950655
 21
556.34051863426816
  0
LINE
  8
_0-0_
  6
CONTINUOUS
 62
    1
 10
1012.042644950655
 20
556.34051863426816
 11
1018.292644950655
 21
556.34051863426816
  0
LINE
  8
_0-0_
  6
CONTINUOUS
 62
    1
 10
1018.292644950655
 20
556.34051863426816
 11
1018.292644950655
 21
459.09051863426816
  0
LINE
  8
_0-0_
  6
CONTINUOUS
 62
    1
 10
1027.6676449506549
 20
459.09051863426816
 11
1021.417644950655
 21
459.09051863426816
  0
LINE
  8
_0-0_
  6
CONTINUOUS
 62
    1
 10
1021.417644950655
 20
459.09051863426816
 11
1021.417644950655
 21
556.34051863426816
  0
LINE
  8
_0-0_
  6
CONTINUOUS
 62
    1
 10
1021.417644950655
 20
556.34051863426816
 11
1027.6676449506549
 21
556.34051863426816
  0
LINE
  8
_0-0_
  6
CONTINUOUS
 62
    1
 10
1027.6676449506549
 20
556.34051863426816
 11
1027.6676449506549
 21
459.09051863426816
  0
LINE
  8
_0-0_
  6
CONTINUOUS
 62
    1
 10
1037.0426449506549
 20
459.09051863426816
 11
1030.7926449506549
 21
459.09051863426816
  0
LINE
  8
_0-0_
  6
CONTINUOUS
 62
    1
 10
1030.7926449506549
 20
459.09051863426816
 11
1030.7926449506549
 21
556.34051863426816
  0
LINE
  8
_0-0_
  6
CONTINUOUS
 62
    1
 10
1030.7926449506549
 20
556.34051863426816
 11
1037.0426449506549
 21
556.34051863426816
  0
LINE
  8
_0-0_
  6
CONTINUOUS
 62
    1
 10
1037.0426449506549
 20
556.34051863426816
 11
1037.0426449506549
 21
459.09051863426816
  0
LINE
  8
_0-0_
  6
CONTINUOUS
 62
    1
 10
1046.4176449506549
 20
459.09051863426816
 11
1040.1676449506549
 21
459.09051863426816
  0
LINE
  8
_0-0_
  6
CONTINUOUS
 62
    1
 10
1040.1676449506549
 20
459.09051863426816
 11
1040.1676449506549
 21
556.34051863426816
  0
LINE
  8
_0-0_
  6
CONTINUOUS
 62
    1
 10
1040.1676449506549
 20
556.34051863426816
 11
1046.4176449506549
 21
556.34051863426816
  0
LINE
  8
_0-0_
  6
CONTINUOUS
 62
    1
 10
1046.4176449506549
 20
556.34051863426816
 11
1046.4176449506549
 21
459.09051863426816
  0
LINE
  8
_0-0_
  6
CONTINUOUS
 62
    1
 10
1055.7926449506549
 20
459.09051863426816
 11
1049.5426449506549
 21
459.09051863426816
  0
LINE
  8
_0-0_
  6
CONTINUOUS
 62
    1
 10
1049.5426449506549
 20
459.09051863426816
 11
1049.5426449506549
 21
556.34051863426816
  0
LINE
  8
_0-0_
  6
CONTINUOUS
 62
    1
 10
1049.5426449506549
 20
556.34051863426816
 11
1055.7926449506549
 21
556.34051863426816
  0
LINE
  8
_0-0_
  6
CONTINUOUS
 62
    1
 10
1055.7926449506549
 20
556.34051863426816
 11
1055.7926449506549
 21
459.09051863426816
  0
LINE
  8
_0-0_
  6
CONTINUOUS
 62
    1
 10
1065.1676449506549
 20
459.09051863426816
 11
1058.9176449506549
 21
459.09051863426816
  0
LINE
  8
_0-0_
  6
CONTINUOUS
 62
    1
 10
1058.9176449506549
 20
459.09051863426816
 11
1058.9176449506549
 21
556.34051863426816
  0
LINE
  8
_0-0_
  6
CONTINUOUS
 62
    1
 10
1058.9176449506549
 20
556.34051863426816
 11
1065.1676449506549
 21
556.34051863426816
  0
LINE
  8
_0-0_
  6
CONTINUOUS
 62
    1
 10
1065.1676449506549
 20
556.34051863426816
 11
1065.1676449506549
 21
459.09051863426816
  0
LINE
  8
_0-0_
  6
CONTINUOUS
 62
    1
 10
1074.5426449506549
 20
459.09051863426816
 11
1068.2926449506549
 21
459.09051863426816
  0
LINE
  8
_0-0_
  6
CONTINUOUS
 62
    1
 10
1068.2926449506549
 20
459.09051863426816
 11
1068.2926449506549
 21
556.34051863426816
  0
LINE
  8
_0-0_
  6
CONTINUOUS
 62
    1
 10
1068.2926449506549
 20
556.34051863426816
 11
1074.5426449506549
 21
556.34051863426816
  0
LINE
  8
_0-0_
  6
CONTINUOUS
 62
    1
 10
1074.5426449506549
 20
556.34051863426816
 11
1074.5426449506549
 21
459.09051863426816
  0
LINE
  8
_0-0_
  6
CONTINUOUS
 62
    1
 10
1083.9176449506549
 20
459.09051863426816
 11
1077.6676449506549
 21
459.09051863426816
  0
LINE
  8
_0-0_
  6
CONTINUOUS
 62
    1
 10
1077.6676449506549
 20
459.09051863426816
 11
1077.6676449506549
 21
556.34051863426816
  0
LINE
  8
_0-0_
  6
CONTINUOUS
 62
    1
 10
1077.6676449506549
 20
556.34051863426816
 11
1083.9176449506549
 21
556.34051863426816
  0
LINE
  8
_0-0_
  6
CONTINUOUS
 62
    1
 10
1083.9176449506549
 20
556.34051863426816
 11
1083.9176449506549
 21
459.09051863426816
  0
LINE
  8
_0-0_
  6
CONTINUOUS
 62
    1
 10
1093.2926449506549
 20
459.09051863426816
 11
1087.0426449506549
 21
459.09051863426816
  0
LINE
  8
_0-0_
  6
CONTINUOUS
 62
    1
 10
1087.0426449506549
 20
459.09051863426816
 11
1087.0426449506549
 21
556.34051863426816
  0
LINE
  8
_0-0_
  6
CONTINUOUS
 62
    1
 10
1087.0426449506549
 20
556.34051863426816
 11
1093.2926449506549
 21
556.34051863426816
  0
LINE
  8
_0-0_
  6
CONTINUOUS
 62
    1
 10
1093.2926449506549
 20
556.34051863426816
 11
1093.2926449506549
 21
459.09051863426816
  0
LINE
  8
_0-0_
  6
CONTINUOUS
 62
    1
 10
952.66764495065502
 20
463.15306063426783
 11
955.79264495065502
 21
463.15306063426783
  0
LINE
  8
_0-0_
  6
CONTINUOUS
 62
    1
 10
962.04264495065502
 20
463.15306063426783
 11
965.16764495065502
 21
463.15306063426783
  0
LINE
  8
_0-0_
  6
CONTINUOUS
 62
    1
 10
971.41764495065502
 20
463.15306063426783
 11
974.54264495065502
 21
463.15306063426783
  0
LINE
  8
_0-0_
  6
CONTINUOUS
 62
    1
 10
980.79264495065502
 20
463.15306063426783
 11
983.91764495065502
 21
463.15306063426783
  0
LINE
  8
_0-0_
  6
CONTINUOUS
 62
    1
 10
990.16764495065502
 20
463.15306063426783
 11
993.29264495065502
 21
463.15306063426783
  0
LINE
  8
_0-0_
  6
CONTINUOUS
 62
    1
 10
999.54264495065502
 20
463.15306063426783
 11
1002.667644950655
 21
463.15306063426783
  0
LINE
  8
_0-0_
  6
CONTINUOUS
 62
    1
 10
1008.917644950655
 20
463.15306063426783
 11
1012.042644950655
 21
463.15306063426783
  0
LINE
  8
_0-0_
  6
CONTINUOUS
 62
    1
 10
1018.292644950655
 20
463.15306063426783
 11
1021.417644950655
 21
463.15306063426783
  0
LINE
  8
_0-0_
  6
CONTINUOUS
 62
    1
 10
1027.6676449506549
 20
463.15306063426783
 11
1030.7926449506549
 21
463.15306063426783
  0
LINE
  8
_0-0_
  6
CONTINUOUS
 62
    1
 10
1037.0426449506549
 20
463.15306063426783
 11
1040.1676449506549
 21
463.15306063426783
  0
LINE
  8
_0-0_
  6
CONTINUOUS
 62
    1
 10
1046.4176449506549
 20
463.15306063426783
 11
1049.5426449506549
 21
463.15306063426783
  0
LINE
  8
_0-0_
  6
CONTINUOUS
 62
    1
 10
1055.7926449506549
 20
463.15306063426783
 11
1058.9176449506549
 21
463.15306063426783
  0
LINE
  8
_0-0_
  6
CONTINUOUS
 62
    1
 10
1065.1676449506549
 20
463.15306063426783
 11
1068.2926449506549
 21
463.15306063426783
  0
LINE
  8
_0-0_
  6
CONTINUOUS
 62
    1
 10
952.66764495065502
 20
552.288890634268
 11
955.79264495065502
 21
552.288890634268
  0
LINE
  8
_0-0_
  6
CONTINUOUS
 62
    1
 10
962.04264495065502
 20
552.288890634268
 11
965.16764495065502
 21
552.288890634268
  0
LINE
  8
_0-0_
  6
CONTINUOUS
 62
    1
 10
971.41764495065502
 20
552.288890634268
 11
974.54264495065502
 21
552.288890634268
  0
LINE
  8
_0-0_
  6
CONTINUOUS
 62
    1
 10
980.79264495065502
 20
552.288890634268
 11
983.91764495065502
 21
552.288890634268
  0
LINE
  8
_0-0_
  6
CONTINUOUS
 62
    1
 10
990.16764495065502
 20
552.288890634268
 11
993.29264495065502
 21
552.288890634268
  0
LINE
  8
_0-0_
  6
CONTINUOUS
 62
    1
 10
999.54264495065502
 20
552.288890634268
 11
1002.667644950655
 21
552.288890634268
  0
LINE
  8
_0-0_
  6
CONTINUOUS
 62
    1
 10
1008.917644950655
 20
552.288890634268
 11
1012.042644950655
 21
552.288890634268
  0
LINE
  8
_0-0_
  6
CONTINUOUS
 62
    1
 10
1018.292644950655
 20
552.288890634268
 11
1021.417644950655
 21
552.288890634268
  0
LINE
  8
_0-0_
  6
CONTINUOUS
 62
    1
 10
1027.6676449506549
 20
552.288890634268
 11
1030.7926449506549
 21
552.288890634268
  0
LINE
  8
_0-0_
  6
CONTINUOUS
 62
    1
 10
1037.0426449506549
 20
552.288890634268
 11
1040.1676449506549
 21
552.288890634268
  0
LINE
  8
_0-0_
  6
CONTINUOUS
 62
    1
 10
1046.4176449506549
 20
552.288890634268
 11
1049.5426449506549
 21
552.288890634268
  0
LINE
  8
_0-0_
  6
CONTINUOUS
 62
    1
 10
1055.7926449506549
 20
552.288890634268
 11
1058.9176449506549
 21
552.288890634268
  0
LINE
  8
_0-0_
  6
CONTINUOUS
 62
    1
 10
1083.9176449506549
 20
552.288890634268
 11
1087.0426449506549
 21
552.288890634268
  0
LINE
  8
_0-0_
  6
CONTINUOUS
 62
    1
 10
1065.1676449506549
 20
552.288890634268
 11
1068.2926449506549
 21
552.288890634268
  0
LINE
  8
_0-0_
  6
CONTINUOUS
 62
    1
 10
1074.5426449506549
 20
552.288890634268
 11
1077.6676449506549
 21
552.288890634268
  0
LINE
  8
_0-0_
  6
CONTINUOUS
 62
    1
 10
1074.5426449506549
 20
463.15306063426783
 11
1077.6676449506549
 21
463.15306063426783
  0
LINE
  8
_0-0_
  6
CONTINUOUS
 62
    1
 10
1083.9176449506549
 20
463.15306063426783
 11
1087.0426449506549
 21
463.15306063426783
  0
LINE
  8
_0-0_
  6
CONTINUOUS
 62
    1
 10
918.29264495065502
 20
556.34051863426816
 11
924.54264495065502
 21
556.34051863426816
  0
LINE
  8
_0-0_
  6
CONTINUOUS
 62
    1
 10
933.91764495065502
 20
459.09051863426816
 11
927.66764495065502
 21
459.09051863426816
  0
LINE
  8
_0-0_
  6
CONTINUOUS
 62
    1
 10
927.66764495065502
 20
459.09051863426816
 11
927.66764495065502
 21
556.34051863426816
  0
LINE
  8
_0-0_
  6
CONTINUOUS
 62
    1
 10
927.66764495065502
 20
556.34051863426816
 11
933.91764495065502
 21
556.34051863426816
  0
LINE
  8
_0-0_
  6
CONTINUOUS
 62
    1
 10
933.91764495065502
 20
556.34051863426816
 11
933.91764495065502
 21
459.09051863426816
  0
LINE
  8
_0-0_
  6
CONTINUOUS
 62
    1
 10
943.29264495065502
 20
459.09051863426816
 11
937.04264495065502
 21
459.09051863426816
  0
LINE
  8
_0-0_
  6
CONTINUOUS
 62
    1
 10
937.04264495065502
 20
459.09051863426816
 11
937.04264495065502
 21
556.34051863426816
  0
LINE
  8
_0-0_
  6
CONTINUOUS
 62
    1
 10
937.04264495065502
 20
556.34051863426816
 11
943.29264495065502
 21
556.34051863426816
  0
LINE
  8
_0-0_
  6
CONTINUOUS
 62
    1
 10
943.29264495065502
 20
556.34051863426816
 11
943.29264495065502
 21
459.09051863426816
  0
LINE
  8
_0-0_
  6
CONTINUOUS
 62
    1
 10
946.41764495065502
 20
459.09051863426816
 11
946.41764495065502
 21
556.34051863426816
  0
LINE
  8
_0-0_
  6
CONTINUOUS
 62
    1
 10
924.54264495065502
 20
463.15306063426783
 11
927.66764495065502
 21
463.15306063426783
  0
LINE
  8
_0-0_
  6
CONTINUOUS
 62
    1
 10
933.91764495065502
 20
463.15306063426783
 11
937.04264495065502
 21
463.15306063426783
  0
LINE
  8
_0-0_
  6
CONTINUOUS
 62
    1
 10
943.29264495065502
 20
463.15306063426783
 11
946.41764495065502
 21
463.15306063426783
  0
LINE
  8
_0-0_
  6
CONTINUOUS
 62
    1
 10
915.16764495065502
 20
552.288890634268
 11
918.29264495065502
 21
552.288890634268
  0
LINE
  8
_0-0_
  6
CONTINUOUS
 62
    1
 10
924.54264495065502
 20
552.288890634268
 11
927.66764495065502
 21
552.288890634268
  0
LINE
  8
_0-0_
  6
CONTINUOUS
 62
    1
 10
933.91764495065502
 20
552.288890634268
 11
937.04264495065502
 21
552.288890634268
  0
LINE
  8
_0-0_
  6
CONTINUOUS
 62
    1
 10
943.29264495065502
 20
552.288890634268
 11
946.41764495065502
 21
552.288890634268
  0
LINE
  8
_0-0_
  6
CONTINUOUS
 62
    1
 10
1102.9181294540585
 20
459.09051863426816
 11
1176.1544632413179
 21
468.24506035767467
  0
LINE
  8
_0-0_
  6
CONTINUOUS
 62
    1
 10
1094.8560289506549
 20
459.09051863426816
 11
1094.8560289506549
 21
556.34051863426816
  0
LINE
  8
_0-0_
  6
CONTINUOUS
 62
    1
 10
1100.0426449506549
 20
556.34051863426816
 11
1100.0426449506549
 21
702.71551863426816
  0
LINE
  8
_0-0_
  6
CONTINUOUS
 62
    1
 10
1102.8247428316099
 20
460.59051863426816
 11
1175.4883269593156
 21
469.67346665023092
  0
LINE
  8
_0-0_
  6
CONTINUOUS
 62
    1
 10
1101.5426449506549
 20
554.84051863426816
 11
1101.5426449506549
 21
702.71551863426816
  0
LINE
  8
_0-0_
  6
CONTINUOUS
 62
    1
 10
1101.5426449506549
 20
702.71551863426816
 11
1100.0426449506549
 21
702.71551863426816
  0
LINE
  8
_0-0_
  6
CONTINUOUS
 62
    1
 10
1093.2935199506546
 20
550.09048163426837
 11
1094.8560289506549
 21
550.09048163426837
  0
LINE
  8
_0-0_
  6
CONTINUOUS
 62
    1
 10
1094.8560289506549
 20
459.09051863426816
 11
1102.9181294540585
 21
459.09051863426816
  0
LINE
  8
_0-0_
  6
CONTINUOUS
 62
    1
 10
1096.3560289506549
 20
554.84051863426816
 11
1101.5426449506549
 21
554.84051863426816
  0
LINE
  8
_0-0_
  6
CONTINUOUS
 62
    1
 10
1093.2926449506549
 20
460.59051863426816
 11
1094.8560289506549
 21
460.59051863426816
  0
LINE
  8
_0-0_
  6
CONTINUOUS
 62
    1
 10
1096.3560289506549
 20
460.59051863426816
 11
1102.8247428316099
 21
460.59051863426816
  0
LINE
  8
_0-0_
  6
CONTINUOUS
 62
    7
 10
1269.3339849506556
 20
523.20634263268153
 11
1270.1433909506559
 21
523.29001663268195
  0
LINE
  8
_0-0_
  6
CONTINUOUS
 62
    7
 10
1270.1433909506559
 20
523.29001663268195
 11
1270.1433909506559
 21
519.68476463268166
  0
LINE
  8
_0-0_
  6
CONTINUOUS
 62
    7
 10
1270.1433909506559
 20
519.68476463268166
 11
1270.1433909506559
 21
518.48301463268149
  0
LINE
  8
_0-0_
  6
CONTINUOUS
 62
    7
 10
1270.1433909506559
 20
518.48301463268149
 11
1270.1433909506559
 21
518.08243063268151
  0
LINE
  8
_0-0_
  6
CONTINUOUS
 62
    7
 10
1270.1433909506559
 20
518.08243063268151
 11
1270.1433909506559
 21
517.68184763268096
  0
LINE
  8
_0-0_
  6
CONTINUOUS
 62
    7
 10
1270.1433909506559
 20
517.68184763268096
 11
1270.1433909506559
 21
516.88068063268133
  0
LINE
  8
_0-0_
  6
CONTINUOUS
 62
    7
 10
1270.1433909506559
 20
516.88068063268133
 11
1269.7428079506553
 21
516.88068063268133
  0
LINE
  8
_0-0_
  6
CONTINUOUS
 62
    7
 10
1269.7428079506553
 20
516.88068063268133
 11
1269.7428079506553
 21
516.48009663268135
  0
LINE
  8
_0-0_
  6
CONTINUOUS
 62
    7
 10
1269.7428079506553
 20
516.48009663268135
 11
1269.3422239506554
 21
516.07951363268171
  0
LINE
  8
_0-0_
  6
CONTINUOUS
 62
    7
 10
1269.3422239506554
 20
516.07951363268171
 11
1269.3422239506554
 21
515.67892963268082
  0
LINE
  8
_0-0_
  6
CONTINUOUS
 62
    7
 10
1269.3422239506554
 20
515.67892963268082
 11
1269.3422239506554
 21
515.27834663268209
  0
LINE
  8
_0-0_
  6
CONTINUOUS
 62
    7
 10
1269.3422239506554
 20
515.27834663268209
 11
1269.3422239506554
 21
514.8777626326812
  0
LINE
  8
_0-0_
  6
CONTINUOUS
 62
    7
 10
1269.3422239506554
 20
514.8777626326812
 11
1269.3422239506554
 21
514.47717863268213
  0
LINE
  8
_0-0_
  6
CONTINUOUS
 62
    7
 10
1269.3422239506554
 20
514.47717863268213
 11
1268.9416409506557
 21
514.47717863268213
  0
LINE
  8
_0-0_
  6
CONTINUOUS
 62
    7
 10
1268.9416409506557
 20
514.47717863268213
 11
1268.5410569506557
 21
513.67601163268159
  0
LINE
  8
_0-0_
  6
CONTINUOUS
 62
    7
 10
1268.5410569506557
 20
513.67601163268159
 11
1268.1404739506552
 21
513.67601163268159
  0
LINE
  8
_0-0_
  6
CONTINUOUS
 62
    7
 10
1268.1404739506552
 20
513.67601163268159
 11
1267.3393069506556
 21
513.27542863268195
  0
LINE
  8
_0-0_
  6
CONTINUOUS
 62
    7
 10
1267.3393069506556
 20
513.27542863268195
 11
1266.9387229506556
 21
512.87484463268106
  0
LINE
  8
_0-0_
  6
CONTINUOUS
 62
    7
 10
1266.9387229506556
 20
512.87484463268106
 11
1266.9387229506556
 21
512.47426163268142
  0
LINE
  8
_0-0_
  6
CONTINUOUS
 62
    7
 10
1266.9387229506556
 20
512.47426163268142
 11
1266.5381399506559
 21
512.47426163268142
  0
LINE
  8
_0-0_
  6
CONTINUOUS
 62
    7
 10
1266.5381399506559
 20
512.47426163268142
 11
1266.5381399506559
 21
512.07367763268144
  0
LINE
  8
_0-0_
  6
CONTINUOUS
 62
    7
 10
1266.5381399506559
 20
512.07367763268144
 11
1266.137555950656
 21
511.6730946326818
  0
LINE
  8
_0-0_
  6
CONTINUOUS
 62
    7
 10
1266.137555950656
 20
511.6730946326818
 11
1266.137555950656
 21
511.27251063268181
  0
LINE
  8
_0-0_
  6
CONTINUOUS
 62
    7
 10
1266.137555950656
 20
511.27251063268181
 11
1265.7369729506554
 21
510.87192763268126
  0
LINE
  8
_0-0_
  6
CONTINUOUS
 62
    7
 10
1265.7369729506554
 20
510.87192763268126
 11
1265.7369729506554
 21
510.47134363268128
  0
LINE
  8
_0-0_
  6
CONTINUOUS
 62
    7
 10
1265.7369729506554
 20
510.47134363268128
 11
1265.3363889506554
 21
510.07076063268164
  0
LINE
  8
_0-0_
  6
CONTINUOUS
 62
    7
 10
1265.3363889506554
 20
510.07076063268164
 11
1265.3363889506554
 21
509.67017663268166
  0
LINE
  8
_0-0_
  6
CONTINUOUS
 62
    7
 10
1265.3363889506554
 20
509.67017663268166
 11
1265.3363889506554
 21
508.86900963268113
  0
LINE
  8
_0-0_
  6
CONTINUOUS
 62
    7
 10
1265.3363889506554
 20
508.86900963268113
 11
1265.3363889506554
 21
508.46842663268148
  0
LINE
  8
_0-0_
  6
CONTINUOUS
 62
    7
 10
1265.3363889506554
 20
508.46842663268148
 11
1265.3363889506554
 21
508.0678426326815
  0
LINE
  8
_0-0_
  6
CONTINUOUS
 62
    7
 10
1265.3363889506554
 20
508.0678426326815
 11
1265.3363889506554
 21
507.66725963268095
  0
LINE
  8
_0-0_
  6
CONTINUOUS
 62
    7
 10
1265.3363889506554
 20
507.66725963268095
 11
1264.9358049506554
 21
507.26667563268188
  0
LINE
  8
_0-0_
  6
CONTINUOUS
 62
    7
 10
1264.9358049506554
 20
507.26667563268188
 11
1264.5352219506558
 21
507.26667563268188
  0
LINE
  8
_0-0_
  6
CONTINUOUS
 62
    7
 10
1264.5352219506558
 20
507.26667563268188
 11
1264.1346379506558
 21
506.86609263268133
  0
LINE
  8
_0-0_
  6
CONTINUOUS
 62
    7
 10
1264.1346379506558
 20
506.86609263268133
 11
1263.7340549506553
 21
506.86609263268133
  0
LINE
  8
_0-0_
  6
CONTINUOUS
 62
    7
 10
1263.7340549506553
 20
506.86609263268133
 11
1263.7340549506553
 21
506.46550863268226
  0
LINE
  8
_0-0_
  6
CONTINUOUS
 62
    7
 10
1263.7340549506553
 20
506.46550863268226
 11
1263.3334709506553
 21
506.06492563268171
  0
LINE
  8
_0-0_
  6
CONTINUOUS
 62
    7
 10
1263.3334709506553
 20
506.06492563268171
 11
1263.3334709506553
 21
505.66434163268173
  0
LINE
  8
_0-0_
  6
CONTINUOUS
 62
    7
 10
1263.3334709506553
 20
505.66434163268173
 11
1262.9328879506556
 21
505.66434163268173
  0
LINE
  8
_0-0_
  6
CONTINUOUS
 62
    7
 10
1262.9328879506556
 20
505.66434163268173
 11
1262.9328879506556
 21
505.26375763268175
  0
LINE
  8
_0-0_
  6
CONTINUOUS
 62
    7
 10
1262.9328879506556
 20
505.26375763268175
 11
1262.5323039506557
 21
504.86317463268119
  0
LINE
  8
_0-0_
  6
CONTINUOUS
 62
    7
 10
1262.5323039506557
 20
504.86317463268119
 11
1262.5323039506557
 21
504.46259063268212
  0
LINE
  8
_0-0_
  6
CONTINUOUS
 62
    7
 10
1262.5323039506557
 20
504.46259063268212
 11
1262.5323039506557
 21
504.06200763268157
  0
LINE
  8
_0-0_
  6
CONTINUOUS
 62
    7
 10
1262.5323039506557
 20
504.06200763268157
 11
1262.1317209506551
 21
503.26084063268195
  0
LINE
  8
_0-0_
  6
CONTINUOUS
 62
    7
 10
1262.1317209506551
 20
503.26084063268195
 11
1262.1317209506551
 21
502.45967363268142
  0
LINE
  8
_0-0_
  6
CONTINUOUS
 62
    7
 10
1262.1317209506551
 20
502.45967363268142
 11
1261.7311369506551
 21
502.45967363268142
  0
LINE
  8
_0-0_
  6
CONTINUOUS
 62
    7
 10
1261.7311369506551
 20
502.45967363268142
 11
1261.7311369506551
 21
501.65850663268088
  0
LINE
  8
_0-0_
  6
CONTINUOUS
 62
    7
 10
1261.7311369506551
 20
501.65850663268088
 11
1261.3305539506555
 21
500.85733963268126
  0
LINE
  8
_0-0_
  6
CONTINUOUS
 62
    7
 10
1261.3305539506555
 20
500.85733963268126
 11
1260.9299699506555
 21
500.85733963268126
  0
LINE
  8
_0-0_
  6
CONTINUOUS
 62
    7
 10
1260.9299699506555
 20
500.85733963268126
 11
1260.5293869506559
 21
500.05617263268164
  0
LINE
  8
_0-0_
  6
CONTINUOUS
 62
    7
 10
1260.5293869506559
 20
500.05617263268164
 11
1260.5293869506559
 21
499.65558863268166
  0
LINE
  8
_0-0_
  6
CONTINUOUS
 62
    7
 10
1260.5293869506559
 20
499.65558863268166
 11
1260.5293869506559
 21
499.25500563268201
  0
LINE
  8
_0-0_
  6
CONTINUOUS
 62
    7
 10
1260.5293869506559
 20
499.25500563268201
 11
1260.5293869506559
 21
498.85442163268112
  0
LINE
  8
_0-0_
  6
CONTINUOUS
 62
    7
 10
1260.5293869506559
 20
498.85442163268112
 11
1260.5293869506559
 21
498.45383863268148
  0
LINE
  8
_0-0_
  6
CONTINUOUS
 62
    7
 10
1260.5293869506559
 20
498.45383863268148
 11
1260.1288029506559
 21
497.65267163268095
  0
LINE
  8
_0-0_
  6
CONTINUOUS
 62
    7
 10
1260.1288029506559
 20
497.65267163268095
 11
1259.3276359506553
 21
497.65267163268095
  0
LINE
  8
_0-0_
  6
CONTINUOUS
 62
    7
 10
1259.3276359506553
 20
497.65267163268095
 11
1259.3276359506553
 21
497.25208763268188
  0
LINE
  8
_0-0_
  6
CONTINUOUS
 62
    7
 10
1259.3276359506553
 20
497.25208763268188
 11
1258.9270529506557
 21
497.25208763268188
  0
LINE
  8
_0-0_
  6
CONTINUOUS
 62
    7
 10
1258.9270529506557
 20
497.25208763268188
 11
1258.5264689506557
 21
496.45092063268135
  0
LINE
  8
_0-0_
  6
CONTINUOUS
 62
    7
 10
1258.5264689506557
 20
496.45092063268135
 11
1258.5264689506557
 21
496.05033663268136
  0
LINE
  8
_0-0_
  6
CONTINUOUS
 62
    7
 10
1258.5264689506557
 20
496.05033663268136
 11
1258.1258859506552
 21
495.64975363268172
  0
LINE
  8
_0-0_
  6
CONTINUOUS
 62
    7
 10
1258.1258859506552
 20
495.64975363268172
 11
1257.7253019506552
 21
495.24916963268174
  0
LINE
  8
_0-0_
  6
CONTINUOUS
 62
    7
 10
1257.7253019506552
 20
495.24916963268174
 11
1257.7253019506552
 21
494.84858663268119
  0
LINE
  8
_0-0_
  6
CONTINUOUS
 62
    7
 10
1257.7253019506552
 20
494.84858663268119
 11
1257.7253019506552
 21
494.44800263268212
  0
LINE
  8
_0-0_
  6
CONTINUOUS
 62
    7
 10
1257.7253019506552
 20
494.44800263268212
 11
1257.3247189506556
 21
494.04741963268157
  0
LINE
  8
_0-0_
  6
CONTINUOUS
 62
    7
 10
1257.3247189506556
 20
494.04741963268157
 11
1257.3247189506556
 21
493.64683563268159
  0
LINE
  8
_0-0_
  6
CONTINUOUS
 62
    7
 10
1257.3247189506556
 20
493.64683563268159
 11
1257.3247189506556
 21
492.84566863268105
  0
LINE
  8
_0-0_
  6
CONTINUOUS
 62
    7
 10
1257.3247189506556
 20
492.84566863268105
 11
1256.9241349506556
 21
492.44508563268141
  0
LINE
  8
_0-0_
  6
CONTINUOUS
 62
    7
 10
1256.9241349506556
 20
492.44508563268141
 11
1256.9241349506556
 21
492.04450163268143
  0
LINE
  8
_0-0_
  6
CONTINUOUS
 62
    7
 10
1256.9241349506556
 20
492.04450163268143
 11
1256.1229679506559
 21
491.24333463268181
  0
LINE
  8
_0-0_
  6
CONTINUOUS
 62
    7
 10
1256.1229679506559
 20
491.24333463268181
 11
1255.3218009506554
 21
491.24333463268181
  0
LINE
  8
_0-0_
  6
CONTINUOUS
 62
    7
 10
1255.3218009506554
 20
491.24333463268181
 11
1254.9212169506554
 21
490.84275163268126
  0
LINE
  8
_0-0_
  6
CONTINUOUS
 62
    7
 10
1254.9212169506554
 20
490.84275163268126
 11
1254.5206339506558
 21
490.44216763268219
  0
LINE
  8
_0-0_
  6
CONTINUOUS
 62
    7
 10
1254.5206339506558
 20
490.44216763268219
 11
1254.1200499506558
 21
489.64100063268165
  0
LINE
  8
_0-0_
  6
CONTINUOUS
 62
    7
 10
1254.1200499506558
 20
489.64100063268165
 11
1253.7194669506553
 21
489.64100063268165
  0
LINE
  8
_0-0_
  6
CONTINUOUS
 62
    7
 10
1253.7194669506553
 20
489.64100063268165
 11
1253.3188829506553
 21
489.24041763268201
  0
LINE
  8
_0-0_
  6
CONTINUOUS
 62
    7
 10
1253.3188829506553
 20
489.24041763268201
 11
1252.9182999506556
 21
488.83983363268112
  0
LINE
  8
_0-0_
  6
CONTINUOUS
 62
    7
 10
1252.9182999506556
 20
488.83983363268112
 11
1252.5177159506557
 21
488.43925063268148
  0
LINE
  8
_0-0_
  6
CONTINUOUS
 62
    7
 10
1252.5177159506557
 20
488.43925063268148
 11
1252.5177159506557
 21
488.0386666326815
  0
LINE
  8
_0-0_
  6
CONTINUOUS
 62
    7
 10
1252.5177159506557
 20
488.0386666326815
 11
1252.1171329506551
 21
487.63808263268152
  0
LINE
  8
_0-0_
  6
CONTINUOUS
 62
    7
 10
1252.1171329506551
 20
487.63808263268152
 11
1251.3159659506555
 21
487.23749963268187
  0
LINE
  8
_0-0_
  6
CONTINUOUS
 62
    7
 10
1251.3159659506555
 20
487.23749963268187
 11
1250.9153819506555
 21
486.83691563268098
  0
LINE
  8
_0-0_
  6
CONTINUOUS
 62
    7
 10
1250.9153819506555
 20
486.83691563268098
 11
1250.5147989506559
 21
486.43633263268134
  0
LINE
  8
_0-0_
  6
CONTINUOUS
 62
    7
 10
1250.5147989506559
 20
486.43633263268134
 11
1250.1142149506559
 21
486.43633263268134
  0
LINE
  8
_0-0_
  6
CONTINUOUS
 62
    7
 10
1250.1142149506559
 20
486.43633263268134
 11
1250.1142149506559
 21
486.03574863268136
  0
LINE
  8
_0-0_
  6
CONTINUOUS
 62
    7
 10
1250.1142149506559
 20
486.03574863268136
 11
1249.7136319506553
 21
485.63516563268172
  0
LINE
  8
_0-0_
  6
CONTINUOUS
 62
    7
 10
1249.7136319506553
 20
485.63516563268172
 11
1249.7136319506553
 21
485.23458163268174
  0
LINE
  8
_0-0_
  6
CONTINUOUS
 62
    7
 10
1249.7136319506553
 20
485.23458163268174
 11
1249.7136319506553
 21
484.83399863268119
  0
LINE
  8
_0-0_
  6
CONTINUOUS
 62
    7
 10
1249.7136319506553
 20
484.83399863268119
 11
1249.3130479506553
 21
484.83399863268119
  0
LINE
  8
_0-0_
  6
CONTINUOUS
 62
    7
 10
1249.3130479506553
 20
484.83399863268119
 11
1249.3130479506553
 21
484.43341463268212
  0
LINE
  8
_0-0_
  6
CONTINUOUS
 62
    7
 10
1249.3130479506553
 20
484.43341463268212
 11
1249.3130479506553
 21
484.03283163268156
  0
LINE
  8
_0-0_
  6
CONTINUOUS
 62
    7
 10
1249.3130479506553
 20
484.03283163268156
 11
1248.9124649506557
 21
483.63224763268158
  0
LINE
  8
_0-0_
  6
CONTINUOUS
 62
    7
 10
1248.9124649506557
 20
483.63224763268158
 11
1251.1938059506556
 21
483.5905556326818
  0
LINE
  8
_0-0_
  6
CONTINUOUS
 62
    7
 10
1269.3339849506556
 20
523.20634263268153
 11
1347.5190180510272
 21
571.09107763268207
  0
LINE
  8
_0-0_
  6
CONTINUOUS
 62
    7
 10
1196.8950007408657
 20
490.18715216201349
 11
1269.3339849506556
 21
523.20634263268153
  0
ARC
  8
_0-0_
  6
CONTINUOUS
 62
    7
 10
1201.0426449506558
 20
481.087863865175
 40
10
 50
114.50448182831144
 51
180
  0
LINE
  8
_0-0_
  6
CONTINUOUS
 62
    1
 10
1187.5426449506558
 20
480.86676192790424
 11
1175.4883269593156
 21
469.67346665023092
  0
LINE
  8
_0-0_
  6
CONTINUOUS
 62
    1
 10
1189.0426449506558
 20
480.21265765920202
 11
1176.1544632413179
 21
468.24506035767467
  0
ARC
  8
_0-0_
  6
CONTINUOUS
 62
    1
 10
1201.0426449506558
 20
481.087863865175
 40
13.5
 50
114.50448182831113
 51
180
  0
ARC
  8
_0-0_
  6
CONTINUOUS
 62
    1
 10
1201.0426449506558
 20
481.087863865175
 40
12
 50
114.50448182831245
 51
180
  0
LINE
  8
_0-0_
  6
CONTINUOUS
 62
    1
 10
1241.9062207682528
 20
514.55065388766093
 11
1242.5174053328765
 21
513.1807639058527
  0
LINE
  8
_0-0_
  6
CONTINUOUS
 62
    1
 10
1195.4433252674389
 20
493.37190306590696
 11
1241.9062207682528
 21
514.55065388766093
  0
LINE
  8
_0-0_
  6
CONTINUOUS
 62
    1
 10
1196.0654718989072
 20
492.00700982138119
 11
1242.5174053328765
 21
513.1807639058527
  0
LINE
  8
_0-0_
  6
CONTINUOUS
 62
    2
 10
1032.5226449506781
 20
451.34051863426635
 11
909.97601259510441
 21
451.34051863426635
  0
LINE
  8
_0-0_
  6
CONTINUOUS
 62
    7
 10
1395.7656927625203
 20
571.09107763268207
 11
1469.3741161372045
 21
497.48265425799786
  0
LINE
  8
_0-0_
  6
CONTINUOUS
 62
    7
 10
1381.6235571387906
 20
571.09107763268207
 11
1469.3741161372045
 21
483.34051863426816
  0
LINE
  8
_0-0_
  6
CONTINUOUS
 62
    7
 10
1469.3741161372045
 20
297.34051863268201
 11
1298.0426449506549
 21
297.34051863268201
  0
LINE
  8
_0-0_
  6
CONTINUOUS
 62
    7
 10
1195.0426449506558
 20
483.34051863426816
 11
1469.3741161372045
 21
483.34051863426816
  0
LINE
  8
_0-0_
  6
CONTINUOUS
 62
    7
 10
1195.0426449506558
 20
477.34051863426816
 11
1298.0426449506567
 21
477.34051863426816
  0
LINE
  8
_0-0_
  6
CONTINUOUS
 62
    7
 10
1195.0426449506558
 20
477.34051863426816
 11
1469.3741161372045
 21
477.34051863426816
  0
POINT
  8
_0-0_
 62
    7
 10
1231.2989100492086
 20
498.6643701483938
  0
POINT
  8
_0-0_
 62
    7
 10
1240.4086484579611
 20
496.12559059185628
  0
POINT
  8
_0-0_
 62
    7
 10
1223.6825713795961
 20
492.54143121792117
  0
POINT
  8
_0-0_
 62
    7
 10
1253.5505661623911
 20
503.44324931364122
  0
POINT
  8
_0-0_
 62
    7
 10
1244.2914877797239
 20
493.28813108749114
  0
POINT
  8
_0-0_
 62
    7
 10
1234.8830694231438
 20
489.4052917657275
  0
POINT
  8
_0-0_
 62
    7
 10
1209.4952738577686
 20
487.0158521831047
  0
POINT
  8
_0-0_
 62
    7
 10
1207.2551742490587
 20
490.30133160921127
  0
POINT
  8
_0-0_
 62
    7
 10
1215.020852892585
 20
486.56783226136235
  0
POINT
  8
_0-0_
 62
    7
 10
1223.2345514578537
 20
497.17097040925478
  0
POINT
  8
_0-0_
 62
    7
 10
1218.9036922143487
 20
497.76833030491002
  0
POINT
  8
_0-0_
 62
    7
 10
1262.5109645972288
 20
516.58516701807116
  0
POINT
  8
_0-0_
 62
    7
 10
1249.2197069188851
 20
508.67014840063007
  0
POINT
  8
_0-0_
 62
    7
 10
1233.5390096579185
 20
504.18994918321118
  0
POINT
  8
_0-0_
 62
    7
 10
1248.3236670754013
 20
496.12559059185628
  0
POINT
  8
_0-0_
 62
    7
 10
1257.8814254058962
 20
504.93664905278115
  0
POINT
  8
_0-0_
 62
    7
 10
1268.93258347553
 20
521.21470620940386
  0
POINT
  8
_0-0_
 62
    7
 10
1247.1289472840899
 20
487.0158521831047
  0
POINT
  8
_0-0_
 62
    7
 10
1232.7923097883486
 20
484.32773265265246
  0
POINT
  8
_0-0_
 62
    7
 10
1224.5786112230799
 20
484.62641260048099
  0
POINT
  8
_0-0_
 62
    7
 10
1243.5447879101548
 20
509.11816832237241
  0
POINT
  8
_0-0_
 62
    7
 10
1244.2914877797239
 20
502.09918954841601
  0
POINT
  8
_0-0_
 62
    7
 10
1255.4919858232724
 20
515.24110725284504
  0
POINT
  8
_0-0_
 62
    7
 10
1256.8360455884977
 20
494.78153082663107
  0
POINT
  8
_0-0_
 62
    7
 10
1263.7056843885412
 20
508.67014840063007
  0
POINT
  8
_0-0_
 62
    7
 10
1262.2122846494012
 20
509.56618824411476
  0
POINT
  8
_0-0_
 62
    7
 10
1266.5431438929063
 20
515.83846714850119
  0
POINT
  8
_0-0_
 62
    7
 10
1226.2213509361336
 20
490.89869150486743
  0
POINT
  8
_0-0_
 62
    7
 10
1222.9358715100261
 20
488.35991194832991
  0
POINT
  8
_0-0_
 62
    7
 10
1215.6182127882412
 20
495.08021077445869
  0
POINT
  8
_0-0_
 62
    7
 10
1210.5406536751661
 20
492.84011116574879
  0
POINT
  8
_0-0_
 62
    7
 10
1211.5860334925637
 20
487.0158521831047
  0
POINT
  8
_0-0_
 62
    7
 10
1201.5802552403275
 20
489.85331168746984
  0
POINT
  8
_0-0_
 62
    7
 10
1227.6346374556224
 20
499.63633610945658
  0
POINT
  8
_0-0_
 62
    7
 10
1229.6980413568781
 20
493.5320995682398
  0
POINT
  8
_0-0_
 62
    7
 10
1235.888253060647
 20
502.81741712389271
  0
POINT
  8
_0-0_
 62
    7
 10
1237.1778804989326
 20
497.91683285840941
  0
POINT
  8
_0-0_
 62
    7
 10
1233.4809485091819
 20
494.47782635631597
  0
POINT
  8
_0-0_
 62
    7
 10
1237.0919053363805
 20
490.26504339125063
  0
POINT
  8
_0-0_
 62
    7
 10
1239.1553092376362
 20
486.3101859138435
  0
POINT
  8
_0-0_
 62
    7
 10
1244.2278438282246
 20
491.4686956669841
  0
POINT
  8
_0-0_
 62
    7
 10
1241.9924896018638
 20
499.89426159711388
  0
POINT
  8
_0-0_
 62
    7
 10
1241.0467628137876
 20
504.70887070004505
  0
POINT
  8
_0-0_
 62
    7
 10
1243.8839431780152
 20
509.26555431531892
  0
POINT
  8
_0-0_
 62
    7
 10
1250.1601300443363
 20
504.19301972473045
  0
POINT
  8
_0-0_
 62
    7
 10
1248.5266019558421
 20
500.92596354774128
  0
POINT
  8
_0-0_
 62
    7
 10
1244.8296699660914
 20
508.06190203958636
  0
POINT
  8
_0-0_
 62
    7
 10
1248.7845274434985
 20
512.87651114251753
  0
POINT
  8
_0-0_
 62
    7
 10
1253.5131613838776
 20
510.12530594084205
  0
POINT
  8
_0-0_
 62
    7
 10
1255.2326646349247
 20
505.31069683791088
  0
POINT
  8
_0-0_
 62
    7
 10
1253.7710868715349
 20
498.77658448393254
  0
POINT
  8
_0-0_
 62
    7
 10
1249.128428093708
 20
493.61807473079193
  0
POINT
  8
_0-0_
 62
    7
 10
1249.128428093708
 20
488.02968916488976
  0
POINT
  8
_0-0_
 62
    7
 10
1255.8344907727906
 20
492.2424721299551
  0
POINT
  8
_0-0_
 62
    7
 10
1256.264366585553
 20
498.86255964648558
  0
POINT
  8
_0-0_
 62
    7
 10
1256.9521678859719
 20
509.35152947787105
  0
POINT
  8
_0-0_
 62
    7
 10
1258.2417953242566
 20
515.97161699440153
  0
POINT
  8
_0-0_
 62
    7
 10
1260.133248900408
 20
513.73626276804066
  0
POINT
  8
_0-0_
 62
    7
 10
1261.68080182635
 20
512.87651114251753
  0
POINT
  8
_0-0_
 62
    7
 10
1264.6899325156828
 20
518.4648967084197
  0
POINT
  8
_0-0_
 62
    7
 10
1264.6899325156828
 20
513.30638695527909
  0
POINT
  8
_0-0_
 62
    7
 10
1268.6447899930899
 20
518.12099605821027
  0
POINT
  8
_0-0_
 62
    7
 10
1261.8527521514552
 20
506.42837395109132
  0
POINT
  8
_0-0_
 62
    7
 10
1259.1875221123328
 20
500.83998838518914
  0
POINT
  8
_0-0_
 62
    7
 10
1257.038143048524
 20
500.41011257242758
  0
POINT
  8
_0-0_
 62
    7
 10
1253.6851117089827
 20
493.7900250558971
  0
POINT
  8
_0-0_
 62
    7
 10
1253.083285571116
 20
490.6949192040131
  0
POINT
  8
_0-0_
 62
    7
 10
1248.0107509805275
 20
490.4369937163558
  0
POINT
  8
_0-0_
 62
    7
 10
1244.3997941533289
 20
487.94371400233763
  0
POINT
  8
_0-0_
 62
    7
 10
1247.3229496801086
 20
484.93458331300576
  0
POINT
  8
_0-0_
 62
    7
 10
1242.164439926968
 20
483.90288136237746
  0
POINT
  8
_0-0_
 62
    7
 10
1240.3589615133687
 20
489.23334144062324
  0
POINT
  8
_0-0_
 62
    7
 10
1238.4675079372173
 20
494.47782635631597
  0
POINT
  8
_0-0_
 62
    7
 10
1234.6846007849144
 20
491.03881985422163
  0
POINT
  8
_0-0_
 62
    7
 10
1231.0736439577158
 20
488.8894407904138
  0
POINT
  8
_0-0_
 62
    7
 10
1230.47181781985
 20
485.53640945087159
  0
POINT
  8
_0-0_
 62
    7
 10
1221.0145499390919
 20
485.79433493852889
  0
POINT
  8
_0-0_
 62
    7
 10
1218.7791957127311
 20
491.12479501677467
  0
POINT
  8
_0-0_
 62
    7
 10
1214.6523879102187
 20
489.49126692827963
  0
POINT
  8
_0-0_
 62
    7
 10
1217.919444087207
 20
485.96628526363406
  0
POINT
  8
_0-0_
 62
    7
 10
1226.6029355049941
 20
495.68147863204854
  0
POINT
  8
_0-0_
 62
    7
 10
1225.9151342045752
 20
501.44181452305588
  0
POINT
  8
_0-0_
 62
    7
 10
1210.869480757915
 20
494.90770216907754
  0
POINT
  8
_0-0_
 62
    7
 10
1205.3670703545649
 20
493.18819891803037
  0
LINE
  8
_0-0_
  6
CONTINUOUS
 62
    4
 10
1191.7104454786277
 20
501.56126253306161
 11
1238.1733409794415
 21
522.74001335481557
  0
LINE
  8
_0-0_
  6
DASHED2
 62
    5
 10
1194.1990320045015
 20
496.10168955495851
 11
1240.6619275053154
 21
517.28044037671248
  0
LINE
  8
_0-0_
  6
DASHED2
 62
    5
 10
1240.6619275053154
 20
517.28044037671248
 11
1249.0713641611319
 21
517.28044037671248
  0
LINE
  8
_0-0_
  6
DASHED2
 62
    5
 10
1267.9231834184957
 20
525.86023120134746
 11
1289.3821374601384
 21
539.00285309346896
  0
LINE
  8
_0-0_
  6
DASHED2
 62
    5
 10
1249.0763682418965
 20
517.26946219940533
 11
1267.9231834184957
 21
525.86023120134746
  0
LINE
  8
_0-0_
  6
CONTINUOUS
 62
    4
 10
1096.5245798571696
 20
460.88245736801332
 11
1096.3560289506549
 21
460.59051863426816
  0
ARC
  8
_0-0_
  6
CONTINUOUS
 62
    4
 10
1113.8450879328584
 20
450.88245736801423
 40
20
 50
97.125016348901255
 51
150.00000000000267
  0
LINE
  8
_0-0_
  6
CONTINUOUS
 62
    3
 10
1395.7656927625203
 20
577.09107763268207
 11
1469.3741161372045
 21
577.09107763268207
  0
LINE
  8
_0-0_
  6
CONTINUOUS
 62
    3
 10
1395.7656927625203
 20
571.09107763268207
 11
1395.7656927625203
 21
577.09107763268207
  0
LINE
  8
_0-0_
  6
DASHED2
 62
    5
 10
1395.7656927625203
 20
580.09107763268207
 11
1445.7656927625203
 21
580.09107763268207
  0
LINE
  8
_0-0_
  6
DASHED2
 62
    5
 10
1395.7656927625203
 20
580.09107763268207
 11
1389.7656927625203
 21
574.09107763268207
  0
LINE
  8
_0-0_
  6
DASHED2
 62
    5
 10
1347.5190180510272
 20
574.09107763268207
 11
1389.7656927625203
 21
574.09107763268207
  0
LINE
  8
_0-0_
  6
CONTINUOUS
 62
    4
 10
1258.6471965628061
 20
528.2259664243295
 11
1265.6011051618443
 21
531.39570209983617
  0
LINE
  8
_0-0_
  6
CONTINUOUS
 62
    4
 10
1238.1733409794415
 20
522.74001335481557
 11
1258.6471965628061
 21
528.2259664243295
  0
LINE
  8
_0-0_
  6
CONTINUOUS
 62
    4
 10
1111.364393241075
 20
470.72801490228744
 11
1171.4915092672991
 21
478.24390440556476
  0
LINE
  8
_0-0_
  6
CONTINUOUS
 62
    4
 10
1340.1741708799982
 20
577.1465154843811
 11
1264.6334330642721
 21
530.88128966594581
  0
ARC
  8
_0-0_
  6
CONTINUOUS
 62
    4
 10
1350.6198417386277
 20
560.09107763268207
 40
20
 50
90
 51
121.48555206568794
  0
LINE
  8
_0-0_
  6
CONTINUOUS
 62
    4
 10
1401.1246766111426
 20
586.09107763268207
 11
1469.3741161372045
 21
586.09107763268207
  0
ARC
  8
_0-0_
  6
CONTINUOUS
 62
    4
 10
1401.1246766111426
 20
566.09107763268207
 40
20
 50
90
 51
120.00000000000416
  0
LINE
  8
_0-0_
  6
CONTINUOUS
 62
    4
 10
1390.0144040684854
 20
582.77056955699322
 11
1391.1246766111417
 21
583.41158570837001
  0
LINE
  8
_0-0_
  6
CONTINUOUS
 62
    4
 10
1380.0144040684845
 20
580.09107763268207
 11
1350.6198417386277
 21
580.09107763268207
  0
ARC
  8
_0-0_
  6
CONTINUOUS
 62
    4
 10
1380.0144040684845
 20
600.09107763268207
 40
20
 50
270
 51
300.00000000000318
  0
LINE
  8
_0-0_
  6
DASHED2
 62
    5
 10
1104.5426449506549
 20
654.71551863426816
 11
1104.5426449506549
 21
702.71551863426816
  0
LINE
  8
_0-0_
  6
DASHED2
 62
    5
 10
1104.5426449506549
 20
702.71551863426816
 11
1101.3161494535552
 21
708.30397276563804
  0
LINE
  8
_0-0_
  6
DASHED2
 62
    5
 10
1101.0426449506549
 20
708.30397276563804
 11
1101.0426449506549
 21
751.39588748590745
  0
LINE
  8
_0-0_
  6
CONTINUOUS
 62
    4
 10
1104.0426449506549
 20
717.45718838506968
 11
1104.0426449506549
 21
751.39588748590745
  0
ARC
  8
_0-0_
  6
CONTINUOUS
 62
    4
 10
1114.0426449506549
 20
717.45718838506968
 40
10
 50
180
 51
210.00000000000287
  0
LINE
  8
_0-0_
  6
CONTINUOUS
 62
    4
 10
1106.2028989884984
 20
711.03602670995701
 11
1105.3823909128105
 21
712.45718838506968
  0
ARC
  8
_0-0_
  6
CONTINUOUS
 62
    4
 10
1097.5426449506549
 20
706.0360267099561
 40
10
 50
0
 51
30.000000000005588
  0
LINE
  8
_0-0_
  6
CONTINUOUS
 62
    4
 10
1107.5426449506549
 20
556.84051863426816
 11
1107.5426449506549
 21
706.0360267099561
  0
ARC
  8
_0-0_
  6
CONTINUOUS
 62
    4
 10
1102.5426449506549
 20
556.84051863426816
 40
5
 50
270
 51
0
  0
LINE
  8
_0-0_
  6
CONTINUOUS
 62
    4
 10
1096.6447040852499
 20
554.34051863426816
 11
1096.3560289506549
 21
554.84051863426816
  0
LINE
  8
_0-0_
  6
CONTINUOUS
 62
    4
 10
1100.9748311041722
 20
551.84051863426816
 11
1102.5426449506549
 21
551.84051863426816
  0
ARC
  8
_0-0_
  6
CONTINUOUS
 62
    4
 10
1100.9748311041722
 20
556.84051863426816
 40
5
 50
210.00000000000273
 51
270
  0
LINE
  8
_0-0_
  6
CONTINUOUS
 62
    7
 10
1199.0844592571548
 20
247.34051863268201
 11
1429.0844508647206
 21
477.34051024024961
  0
LINE
  8
_0-0_
  6
CONTINUOUS
 62
    7
 10
1206.1555270690187
 20
247.34051863268201
 11
1436.1555190213849
 21
477.34051058504633
  0
LINE
  8
_0-0_
  6
CONTINUOUS
 62
    7
 10
1213.2265948808827
 20
247.34051863268201
 11
1443.2265871780446
 21
477.34051092984305
  0
LINE
  8
_0-0_
  6
CONTINUOUS
 62
    7
 10
1298.0426449506549
 20
297.34051863268201
 11
1298.0426449506549
 21
247.34051863268201
  0
LINE
  8
_0-0_
  6
CONTINUOUS
 62
    7
 10
986.95242490119028
 20
247.34051863268201
 11
1210.9524249027745
 21
471.34051863426816
  0
LINE
  8
_0-0_
  6
CONTINUOUS
 62
    7
 10
979.88135708932543
 20
247.34051863268201
 11
1203.8813570909088
 21
471.34051863426816
  0
LINE
  8
_0-0_
  6
CONTINUOUS
 62
    7
 10
972.81028927745967
 20
247.34051863268201
 11
1196.8102892790448
 21
471.34051863426816
  0
LINE
  8
_0-0_
  6
CONTINUOUS
 62
    7
 10
948.04264495065502
 20
247.34051863268201
 11
948.04264495065502
 21
451.34051863426635
  0
LINE
  8
_0-0_
  6
CONTINUOUS
 62
    1
 10
1125.7560205417312
 20
482.81042059918423
 11
1125.8016076012336
 21
482.30089645043176
  0
LINE
  8
_0-0_
  6
CONTINUOUS
 62
    1
 10
1187.5426449506558
 20
481.087863865175
 11
1187.5426449506558
 21
480.86676192790424
  0
LINE
  8
_0-0_
  6
CONTINUOUS
 62
    1
 10
1189.0426449506558
 20
481.087863865175
 11
1189.0426449506558
 21
480.21265765920202
  0
LINE
  8
_0-0_
  6
CONTINUOUS
 62
    7
 10
1191.0426449506558
 20
481.087863865175
 11
1191.0426449506558
 21
479.34051863426816
  0
LINE
  8
_0-0_
  6
CONTINUOUS
 62
    7
 10
1195.0426449506558
 20
483.34051863426816
 11
1195.0426449506558
 21
477.34051863426816
  0
LINE
  8
_0-0_
  6
CONTINUOUS
 62
    4
 10
1178.9089954692799
 20
485.13157016454738
 11
1171.4915092672991
 21
478.24390440556476
  0
LINE
  8
_0-0_
  6
CONTINUOUS
 62
    7
 10
1194.0426449506558
 20
479.34051863426816
 11
1195.0426449506558
 21
477.34051863426816
  0
LINE
  8
_0-0_
  6
CONTINUOUS
 62
    7
 10
1194.0426449506558
 20
479.34051863426816
 11
1191.0426449506558
 21
479.34051863426816
  0
POINT
  8
_0-0_
 62
    7
 10
1199.8463824312175
 20
487.26513342864405
  0
POINT
  8
_0-0_
 62
    7
 10
1205.8993054272041
 20
484.43666473893086
  0
POINT
  8
_0-0_
 62
    7
 10
1195.0379856587051
 20
485.68119096240503
  0
LINE
  8
_0-0_
  6
CONTINUOUS
 62
    1
 10
1105.1818917913497
 20
491.95666702054154
 11
1102.1221871508587
 21
526.84274744688014
  0
LINE
  8
_0-0_
  6
CONTINUOUS
 62
    1
 10
1102.1221871508587
 20
526.84274744688014
 11
1112.0939080265771
 21
527.71732321647801
  0
LINE
  8
_0-0_
  6
CONTINUOUS
 62
    1
 10
1112.0939080265771
 20
527.71732321647801
 11
1115.153612667068
 21
492.83124279013941
  0
LINE
  8
_0-0_
  6
CONTINUOUS
 62
    1
 10
1115.153612667068
 20
492.83124279013941
 11
1105.1818917913497
 21
491.95666702054154
  0
LINE
  8
_0-0_
  6
CONTINUOUS
 62
    1
 10
1125.4038546229194
 20
479.7529254261201
 11
1115.6494421954294
 21
591.63852610017625
  0
ARC
  8
_0-0_
  6
CONTINUOUS
 62
    1
 10
1113.4710707819959
 20
591.09298469242754
 40
2.2456441041343567
 50
14.059722461920325
 51
89.171855351702504
  0
LINE
  8
_0-0_
  6
CONTINUOUS
 62
    1
 10
1113.5035278566666
 20
593.33839422762071
 11
1111.0129942607882
 21
593.12104104086325
  0
LINE
  8
_0-0_
  6
CONTINUOUS
 62
    1
 10
1111.0129942607882
 20
593.12104104086325
 11
1112.4201749040594
 21
576.8818925829803
  0
LINE
  8
_0-0_
  6
CONTINUOUS
 62
    1
 10
1112.4201749040594
 20
576.8818925829803
 11
1108.3623572647739
 21
571.61917313327581
  0
LINE
  8
_0-0_
  6
CONTINUOUS
 62
    1
 10
1108.3623572647739
 20
571.61917313327581
 11
1111.789248389201
 21
561.10730758898194
  0
LINE
  8
_0-0_
  6
CONTINUOUS
 62
    1
 10
1111.789248389201
 20
561.10730758898194
 11
1109.2969759678281
 21
560.90987867099125
  0
LINE
  8
_0-0_
  6
CONTINUOUS
 62
    1
 10
1109.2969759678281
 20
560.90987867099125
 11
1112.7247365050043
 21
550.3880509923149
  0
LINE
  8
_0-0_
  6
CONTINUOUS
 62
    1
 10
1112.7247365050043
 20
550.3880509923149
 11
1110.2324640836314
 21
550.19062207432512
  0
LINE
  8
_0-0_
  6
CONTINUOUS
 62
    1
 10
1110.2324640836314
 20
550.19062207432512
 11
1113.6593552080594
 21
539.67875653003125
  0
LINE
  8
_0-0_
  6
CONTINUOUS
 62
    1
 10
1113.6593552080594
 20
539.67875653003125
 11
1111.1670827866865
 21
539.48132761204056
  0
LINE
  8
_0-0_
  6
CONTINUOUS
 62
    1
 10
1111.1670827866865
 20
539.48132761204056
 11
1114.5939739111136
 21
528.9694620677476
  0
LINE
  8
_0-0_
  6
CONTINUOUS
 62
    1
 10
1114.5939739111136
 20
528.9694620677476
 11
1112.102570902488
 21
528.76207101537443
  0
LINE
  8
_0-0_
  6
CONTINUOUS
 62
    1
 10
1112.102570902488
 20
528.76207101537443
 11
1115.5294620269169
 21
518.25020547108056
  0
LINE
  8
_0-0_
  6
CONTINUOUS
 62
    1
 10
1115.5294620269169
 20
518.25020547108056
 11
1113.037189605544
 21
518.05277655309078
  0
LINE
  8
_0-0_
  6
CONTINUOUS
 62
    1
 10
1113.037189605544
 20
518.05277655309078
 11
1116.464080729972
 21
507.54091100879691
  0
LINE
  8
_0-0_
  6
CONTINUOUS
 62
    1
 10
1116.464080729972
 20
507.54091100879691
 11
1113.9718083085991
 21
507.34348209080713
  0
LINE
  8
_0-0_
  6
CONTINUOUS
 62
    1
 10
1113.9718083085991
 20
507.34348209080713
 11
1117.3986994330271
 21
496.83161654651326
  0
LINE
  8
_0-0_
  6
CONTINUOUS
 62
    1
 10
1117.3986994330271
 20
496.83161654651326
 11
1114.9081658371479
 21
496.6142633597558
  0
LINE
  8
_0-0_
  6
CONTINUOUS
 62
    1
 10
1114.9081658371479
 20
496.6142633597558
 11
1116.1227354447465
 21
482.69716162597911
  0
LINE
  8
_0-0_
  6
CONTINUOUS
 62
    1
 10
1116.1227354447465
 20
482.69716162597911
 11
1125.0786942555314
 21
483.4787636855574
  0
LINE
  8
_0-0_
  6
PHANTOM2
 62
    1
 10
1121.0929710893752
 20
483.14096072112829
 11
1111.5106301613832
 21
593.28492670356377
  0
ARC
  8
_0-0_
  6
CONTINUOUS
 62
    1
 10
1122.5734155959499
 20
476.0299309615059
 40
7.270069277438469
 50
42.86600595034556
 51
122.06151136844527
  0
ARC
  8
_0-0_
  6
CONTINUOUS
 62
    1
 10
1123.2613256057703
 20
477.72050330541811
 40
6.3767291535609196
 50
135.4855367215483
 51
204.37928148607415
  0
ARC
  8
_0-0_
  6
CONTINUOUS
 62
    1
 10
1121.509819085144
 20
477.48199515072542
 40
4.7101785115785608
 50
210.54307609254218
 51
295.76621056385727
  0
ARC
  8
_0-0_
  6
CONTINUOUS
 62
    1
 10
1121.4267329228542
 20
477.22130064514408
 40
4.5154426438159447
 50
298.15429995830164
 51
23.377434429616709
  0
LINE
  8
_0-0_
  6
CONTINUOUS
 62
    1
 10
1125.5715072537778
 20
479.01296691298217
 11
1125.4494416824218
 21
479.24340127736764
  0
LINE
  8
_0-0_
  6
CONTINUOUS
 62
    1
 10
1125.4494416824218
 20
479.24340127736764
 11
1127.9019884965328
 21
480.97565822268029
  0
LINE
  8
_0-0_
  6
CONTINUOUS
 62
    1
 10
1124.6375261116664
 20
482.96879369380099
 11
1128.2165197506547
 21
474.73282353042146
  0
LINE
  8
_0-0_
  6
CONTINUOUS
 62
    1
 10
1128.2165197506547
 20
474.73282353042146
 11
1138.9379552974151
 21
479.39189208718949
  0
LINE
  8
_0-0_
  6
CONTINUOUS
 62
    1
 10
1138.9379552974151
 20
479.39189208718949
 11
1137.9415762219733
 21
481.68475683200381
  0
LINE
  8
_0-0_
  6
CONTINUOUS
 62
    1
 10
1137.9415762219733
 20
481.68475683200381
 11
1149.3292183209214
 21
483.90748205709338
  0
LINE
  8
_0-0_
  6
CONTINUOUS
 62
    1
 10
1149.3292183209214
 20
483.90748205709338
 11
1148.3144963275217
 21
486.19237576930504
  0
LINE
  8
_0-0_
  6
CONTINUOUS
 62
    1
 10
1148.3144963275217
 20
486.19237576930504
 11
1159.7085584477563
 21
488.41789085580444
  0
LINE
  8
_0-0_
  6
CONTINUOUS
 62
    1
 10
1159.7085584477563
 20
488.41789085580444
 11
1158.6929193084579
 21
490.70238601638562
  0
LINE
  8
_0-0_
  6
CONTINUOUS
 62
    1
 10
1158.6929193084579
 20
490.70238601638562
 11
1170.0814785533048
 21
492.92550979310386
  0
LINE
  8
_0-0_
  6
CONTINUOUS
 62
    1
 10
1170.0814785533048
 20
492.92550979310386
 11
1169.0667565599042
 21
495.21040350531644
  0
LINE
  8
_0-0_
  6
CONTINUOUS
 62
    1
 10
1169.0667565599042
 20
495.21040350531644
 11
1180.4580672424445
 21
497.43472293692525
  0
LINE
  8
_0-0_
  6
CONTINUOUS
 62
    1
 10
1180.4580672424445
 20
497.43472293692525
 11
1179.4433452490439
 21
499.71961664913692
  0
LINE
  8
_0-0_
  6
CONTINUOUS
 62
    1
 10
1179.4433452490439
 20
499.71961664913692
 11
1190.8328216397886
 21
501.94313897748657
  0
LINE
  8
_0-0_
  6
CONTINUOUS
 62
    1
 10
1190.8328216397886
 20
501.94313897748657
 11
1193.9586883974644
 21
508.72048956700587
  0
LINE
  8
_0-0_
  6
CONTINUOUS
 62
    1
 10
1193.9586883974644
 20
508.72048956700587
 11
1199.143314158443
 21
510.97350193239458
  0
LINE
  8
_0-0_
  6
CONTINUOUS
 62
    1
 10
1199.143314158443
 20
510.97350193239458
 11
1198.1935945044788
 21
513.10128518706938
  0
ARC
  8
_0-0_
  6
CONTINUOUS
 62
    1
 10
1196.4981705938808
 20
511.95387680977024
 40
2.0471952083092857
 50
34.088878017290625
 51
119.31201248860569
  0
LINE
  8
_0-0_
  6
CONTINUOUS
 62
    1
 10
1195.4959349049886
 20
513.73896275863467
 11
1124.6375261116664
 21
482.96879369380099
  0
LINE
  8
_0-0_
  6
CONTINUOUS
 62
    1
 10
1121.0535025158933
 20
477.51625946379522
 11
1120.7901978330265
 21
478.12146244130076
  0
ARC
  8
_0-0_
  6
CONTINUOUS
 62
    1
 10
1120.8914344298446
 20
478.33081750756014
 40
0.2325476129837481
 50
102.69424842668572
 51
244.19325580219004
  0
ARC
  8
_0-0_
  6
CONTINUOUS
 62
    1
 10
1120.8111730942283
 20
478.14835832798803
 40
0.4103598571650413
 50
21.23659972647059
 51
85.925235789600791
  0
LINE
  8
_0-0_
  6
CONTINUOUS
 62
    1
 10
1121.1936664846962
 20
478.29699889654353
 11
1121.4569711675631
 21
477.69179591903981
  0
LINE
  8
_0-0_
  6
CONTINUOUS
 62
    1
 10
1121.4569711675631
 20
477.69179591903981
 11
1121.7504631859119
 21
477.5686600787451
  0
LINE
  8
_0-0_
  6
CONTINUOUS
 62
    1
 10
1121.7504631859119
 20
477.5686600787451
 11
1122.3556661634157
 21
477.83196476161197
  0
ARC
  8
_0-0_
  6
CONTINUOUS
 62
    1
 10
1122.569955230184
 20
477.72776789047134
 40
0.2382788116725091
 50
14.100838136092838
 51
154.0689189303275
  0
LINE
  8
_0-0_
  6
CONTINUOUS
 62
    1
 10
1122.8010543322916
 20
477.7858195665633
 11
1122.5312026186602
 21
477.42849610994222
  0
LINE
  8
_0-0_
  6
CONTINUOUS
 62
    1
 10
1122.5312026186602
 20
477.42849610994222
 11
1121.9259996411565
 21
477.16519142707534
  0
LINE
  8
_0-0_
  6
CONTINUOUS
 62
    1
 10
1121.9259996411565
 20
477.16519142707534
 11
1121.8120335429439
 21
476.87568887361726
  0
LINE
  8
_0-0_
  6
CONTINUOUS
 62
    1
 10
1121.8120335429439
 20
476.87568887361726
 11
1122.0753382258117
 21
476.27048589611354
  0
ARC
  8
_0-0_
  6
CONTINUOUS
 62
    1
 10
1121.9708168252464
 20
476.06150835292215
 40
0.2336585901151666
 50
283.45971171746646
 51
63.427792511701043
  0
ARC
  8
_0-0_
  6
CONTINUOUS
 62
    1
 10
1122.0723127328029
 20
476.26791951410655
 40
0.436203358027735
 50
203.36176751361967
 51
263.8000680029815
  0
LINE
  8
_0-0_
  6
CONTINUOUS
 62
    1
 10
1121.6718695741411
 20
476.09494944086896
 11
1121.4085648912751
 21
476.70015241837268
  0
LINE
  8
_0-0_
  6
CONTINUOUS
 62
    1
 10
1121.4085648912751
 20
476.70015241837268
 11
1121.1150728729253
 21
476.82328825866921
  0
LINE
  8
_0-0_
  6
CONTINUOUS
 62
    1
 10
1121.1150728729253
 20
476.82328825866921
 11
1120.5098698954207
 21
476.55998357580233
  0
LINE
  8
_0-0_
  6
CONTINUOUS
 62
    1
 10
1120.5098698954207
 20
476.55998357580233
 11
1120.0644817265456
 21
476.606128770851
  0
ARC
  8
_0-0_
  6
CONTINUOUS
 62
    1
 10
1120.4815390953599
 20
476.57172396078772
 40
0.4184740611286684
 50
110.59547330807652
 51
175.28410937120674
  0
LINE
  8
_0-0_
  6
CONTINUOUS
 62
    1
 10
1120.3343334401761
 20
476.96345222747209
 11
1120.9395364176808
 21
477.22675691033896
  0
LINE
  8
_0-0_
  6
CONTINUOUS
 62
    1
 10
1120.9395364176808
 20
477.22675691033896
 11
1121.0535025158933
 21
477.51625946379522
  0
ARC
  8
_0-0_
  6
CONTINUOUS
 62
    1
 10
1121.552433090229
 20
477.42720691893669
 40
2.1786771916595677
 50
199.01844326041433
 51
288.19295989919073
  0
ARC
  8
_0-0_
  6
CONTINUOUS
 62
    1
 10
1121.6836766024417
 20
477.04861655856098
 40
2.2159132402684385
 50
109.40510300975393
 51
188.60060842785364
  0
ARC
  8
_0-0_
  6
CONTINUOUS
 62
    1
 10
1121.2788308157851
 20
476.94765573428162
 40
2.2159132402680246
 50
19.405103009738948
 51
98.600608427838679
  0
LINE
  8
_0-0_
  6
CONTINUOUS
 62
    1
 10
1123.3688648288371
 20
477.68388213470666
 11
1122.2326557402503
 21
475.35744088098568
  0
LINE
  8
_0-0_
  6
PHANTOM2
 62
    1
 10
1126.1990323127584
 20
479.27509657790893
 11
1193.9586883974644
 21
508.72048956700587
  0
LINE
  8
_0-0_
  6
CONTINUOUS
 62
    1
 10
1125.4038546229194
 20
479.7529254261201
 11
1125.4494416824218
 21
479.24340127736764
  0
LINE
  8
_0-0_
  6
CONTINUOUS
 62
    1
 10
1116.1227354447465
 20
482.69716162597911
 11
1116.9445443839068
 21
476.84817900048279
  0
LINE
  8
_0-0_
  6
DASHED1
 62
    1
 10
974.30236539303507
 20
553.4997072337103
 11
974.30236539303507
 21
550.87462193381748
  0
LINE
  8
_0-0_
  6
DASHED1
 62
    1
 10
974.30236539303507
 20
465.29970723371002
 11
974.30236539303507
 21
467.92479253360375
  0
LINE
  8
_0-0_
  6
DASHED1
 62
    1
 10
974.30236539303519
 20
467.92479253360318
 11
1005.2985907771917
 21
471.15971453477169
  0
LINE
  8
_0-0_
  6
DASHED1
 62
    1
 10
1005.2985907771917
 20
471.15971453477169
 11
1033.3272991367448
 21
475.5565393637275
  0
LINE
  8
_0-0_
  6
DASHED1
 62
    1
 10
1033.3272991367448
 20
475.5565393637275
 11
1057.5368523514003
 21
480.98167172294342
  0
LINE
  8
_0-0_
  6
DASHED1
 62
    1
 10
1057.5368523514003
 20
480.98167172294342
 11
1077.1916553973558
 21
487.2702717109342
  0
LINE
  8
_0-0_
  6
DASHED1
 62
    1
 10
1077.1916553973558
 20
487.2702717109342
 11
1091.69450702987
 21
494.23126339924977
  0
LINE
  8
_0-0_
  6
DASHED1
 62
    1
 10
1091.69450702987
 20
494.23126339924977
 11
1096.3560289506552
 21
497.47878135545511
  0
LINE
  8
_0-0_
  6
DASHED1
 62
    1
 10
1096.3560289506552
 20
521.32063311196475
 11
1084.2886942148289
 21
528.51309147217557
  0
LINE
  8
_0-0_
  6
DASHED1
 62
    1
 10
1084.2886942148289
 20
528.51309147217557
 11
1066.8537681323673
 21
535.12479932413964
  0
LINE
  8
_0-0_
  6
DASHED1
 62
    1
 10
1066.8537681323673
 20
535.12479932413964
 11
1044.5810021097882
 21
540.95486327046081
  0
LINE
  8
_0-0_
  6
DASHED1
 62
    1
 10
1044.5810021097882
 20
540.95486327046081
 11
1018.1471428721236
 21
545.82613976828463
  0
LINE
  8
_0-0_
  6
DASHED1
 62
    1
 10
1018.1471428721236
 20
545.82613976828463
 11
988.35536985613226
 21
549.59061754620973
  0
LINE
  8
_0-0_
  6
DASHED1
 62
    1
 10
988.35536985613226
 20
549.59061754620973
 11
974.30236539303519
 21
550.87462193381668
  0
LINE
  8
_0-0_
  6
DASHED1
 62
    1
 10
974.30236539303519
 20
465.29970723370991
 11
1005.8520160934889
 21
468.69230510743188
  0
LINE
  8
_0-0_
  6
DASHED1
 62
    1
 10
1005.8520160934889
 20
468.69230510743188
 11
1034.4173342211502
 21
473.32177679582139
  0
LINE
  8
_0-0_
  6
DASHED1
 62
    1
 10
1034.4173342211502
 20
473.32177679582139
 11
1059.1303770394584
 21
479.04745814425246
  0
LINE
  8
_0-0_
  6
DASHED1
 62
    1
 10
1059.1303770394584
 20
479.04745814425246
 11
1079.2402512477825
 21
485.69537722228756
  0
LINE
  8
_0-0_
  6
DASHED1
 62
    1
 10
1079.2402512477825
 20
485.69537722228756
 11
1094.1359284943899
 21
493.06354037275003
  0
LINE
  8
_0-0_
  6
DASHED1
 62
    1
 10
1094.1359284943899
 20
493.06354037275003
 11
1096.3560289506549
 21
494.54045880212129
  0
LINE
  8
_0-0_
  6
DASHED1
 62
    1
 10
1096.3560289506549
 20
524.25895566529857
 11
1082.5171487081423
 21
531.74022030969672
  0
LINE
  8
_0-0_
  6
DASHED1
 62
    1
 10
1082.5171487081423
 20
531.74022030969672
 11
1063.3645046327697
 21
538.54267976912604
  0
LINE
  8
_0-0_
  6
DASHED1
 62
    1
 10
1063.3645046327697
 20
538.54267976912604
 11
1039.4800401230621
 21
544.45964475512233
  0
LINE
  8
_0-0_
  6
DASHED1
 62
    1
 10
1039.4800401230621
 20
544.45964475512233
 11
1011.5894725470248
 21
549.31133128071508
  0
LINE
  8
_0-0_
  6
DASHED1
 62
    1
 10
1011.5894725470248
 20
549.31133128071508
 11
980.54024268714727
 21
552.95032330589572
  0
LINE
  8
_0-0_
  6
DASHED1
 62
    1
 10
980.54024268714727
 20
552.95032330589572
 11
974.30236539303519
 21
553.49970723370996
  0
LINE
  8
_0-0_
  6
CONTINUOUS
 62
    1
 10
1096.3560289506552
 20
497.47878135545511
 11
1102.6891124802644
 21
505.03345101619709
  0
LINE
  8
_0-0_
  6
CONTINUOUS
 62
    1
 10
1102.6891124802644
 20
505.03345101619709
 11
1103.0955172653041
 21
512.72078716267595
  0
LINE
  8
_0-0_
  6
CONTINUOUS
 62
    1
 10
1103.0955172653041
 20
512.72078716267595
 11
1097.5628949020318
 21
520.30721397606078
  0
LINE
  8
_0-0_
  6
CONTINUOUS
 62
    1
 10
1097.5628949020318
 20
520.30721397606078
 11
1096.3560289506552
 21
521.32063311196475
  0
LINE
  8
_0-0_
  6
CONTINUOUS
 62
    1
 10
1096.3560289506549
 20
494.54045880212129
 11
1104.2834725716912
 21
502.20024567803853
  0
LINE
  8
_0-0_
  6
CONTINUOUS
 62
    1
 10
1102.8538893384532
 20
518.50003977936899
 11
1096.3560289506549
 21
524.25895566529857
  0
LINE
  8
_0-0_
  6
CONTINUOUS
 62
    7
 10
1119.6230587879645
 20
519.28676196063248
 11
1173.6465197161633
 21
612.85814108898489
  0
POINT
  8
_0-0_
 62
    7
 10
1119.6230587879645
 20
519.28676196063248
  0
LINE
  8
_0-0_
  6
CONTINUOUS
 62
    7
 10
1100.6880154998835
 20
643.05700441408976
 11
1150.7125317108939
 21
729.70200811561176
  0
POINT
  8
_0-0_
 62
    7
 10
1100.6880154998835
 20
643.05700441408976
  0
LINE
  8
_0-0_
  6
CONTINUOUS
 62
    2
 10
906.41550759510312
 20
510.73865113426723
 11
903.19214334510264
 21
513.58373488426719
  0
LINE
  8
_0-0_
  6
CONTINUOUS
 62
    2
 10
913.53681684510332
 20
453.73865113426609
 11
909.97601259510441
 21
451.34051863426635
  0
LINE
  8
_0-0_
  6
CONTINUOUS
 62
    2
 10
916.7601810951038
 20
456.58373488426582
 11
913.53681684510332
 21
453.73865113426609
  0
LINE
  8
_0-0_
  6
CONTINUOUS
 62
    2
 10
919.58609859510318
 20
459.82348663426706
 11
916.7601810951038
 21
456.58373488426582
  0
LINE
  8
_0-0_
  6
CONTINUOUS
 62
    2
 10
921.96634734510383
 20
463.40277313426554
 11
919.58609859510318
 21
459.82348663426706
  0
LINE
  8
_0-0_
  6
CONTINUOUS
 62
    2
 10
923.86105584510381
 20
467.26164463426699
 11
921.96634734510383
 21
463.40277313426554
  0
LINE
  8
_0-0_
  6
CONTINUOUS
 62
    2
 10
925.23779109510463
 20
471.33416638426525
 11
923.86105584510381
 21
467.26164463426699
  0
LINE
  8
_0-0_
  6
CONTINUOUS
 62
    2
 10
926.0731688451034
 20
475.5506701342656
 11
925.23779109510463
 21
471.33416638426525
  0
LINE
  8
_0-0_
  6
CONTINUOUS
 62
    2
 10
926.35325259510421
 20
479.84051863426771
 11
926.0731688451034
 21
475.5506701342656
  0
LINE
  8
_0-0_
  6
CONTINUOUS
 62
    2
 10
926.0731688451034
 20
484.13035288426613
 11
926.35325259510421
 21
479.84051863426771
  0
LINE
  8
_0-0_
  6
CONTINUOUS
 62
    2
 10
925.23779109510463
 20
488.34685663426649
 11
926.0731688451034
 21
484.13035288426613
  0
LINE
  8
_0-0_
  6
CONTINUOUS
 62
    2
 10
923.86105584510381
 20
492.41937838426725
 11
925.23779109510463
 21
488.34685663426649
  0
LINE
  8
_0-0_
  6
CONTINUOUS
 62
    2
 10
921.96634734510383
 20
496.27824988426619
 11
923.86105584510381
 21
492.41937838426725
  0
LINE
  8
_0-0_
  6
CONTINUOUS
 62
    2
 10
919.58609859510318
 20
499.85753638426718
 11
921.96634734510383
 21
496.27824988426619
  0
LINE
  8
_0-0_
  6
CONTINUOUS
 62
    2
 10
913.53681684510332
 20
505.94237188426564
 11
916.7601810951038
 21
503.09728813426591
  0
LINE
  8
_0-0_
  6
CONTINUOUS
 62
    2
 10
909.97601259510441
 20
508.34051863426498
 11
913.53681684510332
 21
505.94237188426564
  0
LINE
  8
_0-0_
  6
CONTINUOUS
 62
    2
 10
906.41550759510312
 20
505.94237188426564
 11
909.97629759510539
 21
508.34051863426498
  0
LINE
  8
_0-0_
  6
CONTINUOUS
 62
    2
 10
903.19214334510264
 20
503.09728813426591
 11
906.41550759510312
 21
505.94237188426564
  0
LINE
  8
_0-0_
  6
CONTINUOUS
 62
    2
 10
900.36622584510326
 20
499.85753638426718
 11
903.19214334510264
 21
503.09728813426591
  0
LINE
  8
_0-0_
  6
CONTINUOUS
 62
    2
 10
897.98597709510261
 20
496.27824988426619
 11
900.36622584510326
 21
499.85753638426718
  0
LINE
  8
_0-0_
  6
CONTINUOUS
 62
    2
 10
896.09126859510536
 20
492.41937838426725
 11
897.98597709510261
 21
496.27824988426619
  0
LINE
  8
_0-0_
  6
CONTINUOUS
 62
    2
 10
894.71453334510363
 20
488.34685663426649
 11
896.09126859510536
 21
492.41937838426725
  0
LINE
  8
_0-0_
  6
CONTINUOUS
 62
    2
 10
893.87915559510577
 20
484.13035288426613
 11
894.71453334510363
 21
488.34685663426649
  0
LINE
  8
_0-0_
  6
CONTINUOUS
 62
    2
 10
893.59905759510468
 20
479.84051863426771
 11
893.87915559510577
 21
484.13035288426613
  0
LINE
  8
_0-0_
  6
CONTINUOUS
 62
    2
 10
893.87915559510577
 20
475.5506701342656
 11
893.59905759510468
 21
479.84051863426771
  0
LINE
  8
_0-0_
  6
CONTINUOUS
 62
    2
 10
894.71453334510363
 20
471.33416638426525
 11
893.87915559510577
 21
475.5506701342656
  0
LINE
  8
_0-0_
  6
CONTINUOUS
 62
    2
 10
896.09126859510536
 20
467.26164463426699
 11
894.71453334510363
 21
471.33416638426525
  0
LINE
  8
_0-0_
  6
CONTINUOUS
 62
    2
 10
897.98597709510261
 20
463.40277313426554
 11
896.09126859510536
 21
467.26164463426699
  0
LINE
  8
_0-0_
  6
CONTINUOUS
 62
    2
 10
900.36622584510326
 20
459.82348663426706
 11
897.98597709510261
 21
463.40277313426554
  0
LINE
  8
_0-0_
  6
CONTINUOUS
 62
    2
 10
903.19214334510264
 20
456.58373488426582
 11
900.36622584510326
 21
459.82348663426706
  0
LINE
  8
_0-0_
  6
CONTINUOUS
 62
    2
 10
906.41550759510312
 20
453.73865113426609
 11
903.19214334510264
 21
456.58373488426582
  0
LINE
  8
_0-0_
  6
CONTINUOUS
 62
    2
 10
909.97629759510539
 20
451.34051863426635
 11
906.41550759510312
 21
453.73865113426609
  0
LINE
  8
_0-0_
  6
CONTINUOUS
 62
    2
 10
906.41550759510312
 20
562.94237188426564
 11
909.97629759510539
 21
565.34051863426771
  0
LINE
  8
_0-0_
  6
CONTINUOUS
 62
    2
 10
903.19214334510264
 20
560.09728813426591
 11
906.41550759510312
 21
562.94237188426564
  0
LINE
  8
_0-0_
  6
CONTINUOUS
 62
    2
 10
900.36622584510326
 20
556.85753638426718
 11
903.19214334510264
 21
560.09728813426591
  0
LINE
  8
_0-0_
  6
CONTINUOUS
 62
    2
 10
897.98597709510261
 20
553.27824988426619
 11
900.36622584510326
 21
556.85753638426718
  0
LINE
  8
_0-0_
  6
CONTINUOUS
 62
    2
 10
896.09126859510536
 20
549.41937838426725
 11
897.98597709510261
 21
553.27824988426619
  0
LINE
  8
_0-0_
  6
CONTINUOUS
 62
    2
 10
894.71453334510363
 20
545.34685663426649
 11
896.09126859510536
 21
549.41937838426725
  0
LINE
  8
_0-0_
  6
CONTINUOUS
 62
    2
 10
893.87915559510577
 20
541.13035288426613
 11
894.71453334510363
 21
545.34685663426649
  0
LINE
  8
_0-0_
  6
CONTINUOUS
 62
    2
 10
893.59905759510468
 20
536.84051863426771
 11
893.87915559510577
 21
541.13035288426613
  0
LINE
  8
_0-0_
  6
CONTINUOUS
 62
    2
 10
893.87915559510577
 20
532.55067013426697
 11
893.59905759510468
 21
536.84051863426771
  0
LINE
  8
_0-0_
  6
CONTINUOUS
 62
    2
 10
894.71453334510363
 20
528.33416638426661
 11
893.87915559510577
 21
532.55067013426697
  0
LINE
  8
_0-0_
  6
CONTINUOUS
 62
    2
 10
896.09126859510536
 20
524.26164463426562
 11
894.71453334510363
 21
528.33416638426661
  0
LINE
  8
_0-0_
  6
CONTINUOUS
 62
    2
 10
897.98597709510261
 20
520.40277313426691
 11
896.09126859510536
 21
524.26164463426562
  0
LINE
  8
_0-0_
  6
CONTINUOUS
 62
    2
 10
900.36622584510326
 20
516.82348663426569
 11
897.98597709510261
 21
520.40277313426691
  0
LINE
  8
_0-0_
  6
CONTINUOUS
 62
    2
 10
903.19214334510264
 20
513.58373488426719
 11
900.36622584510326
 21
516.82348663426569
  0
LINE
  8
_0-0_
  6
CONTINUOUS
 62
    2
 10
909.97629759510539
 20
508.34051863426498
 11
906.41550759510312
 21
510.73865113426723
  0
LINE
  8
_0-0_
  6
CONTINUOUS
 62
    2
 10
1032.5226449506781
 20
565.34051863426635
 11
909.97629759510357
 21
565.34051863426635
  0
LINE
  8
_0-0_
  6
CONTINUOUS
 62
    2
 10
1076.6226449506557
 20
558.74051863426598
 11
902.00868270694821
 21
558.74051863426598
  0
LINE
  8
_0-0_
  6
CONTINUOUS
 62
    2
 10
1076.6226449506557
 20
457.94051863426671
 11
917.943654163014
 21
457.94051863426671
  0
LINE
  8
_0-0_
  6
CONTINUOUS
 62
    1
 10
908.91764495065502
 20
556.34051863426816
 11
915.16764495065502
 21
556.34051863426816
  0
LINE
  8
_0-0_
  6
CONTINUOUS
 62
    1
 10
905.79264495065502
 20
552.288890634268
 11
908.91764495065502
 21
552.288890634268
  0
LINE
  8
_0-0_
  6
CONTINUOUS
 62
    1
 10
896.41764495065502
 20
550.08409510280512
 11
896.41764495065502
 21
523.59692791572775
  0
LINE
  8
_0-0_
  6
CONTINUOUS
 62
    1
 10
897.50020103841791
 20
552.288890634268
 11
899.54264495065502
 21
552.288890634268
  0
LINE
  8
_0-0_
  6
CONTINUOUS
 62
    1
 10
900.02240568620721
 20
556.34051863426816
 11
905.79264495065502
 21
556.34051863426816
  0
LINE
  8
_0-0_
  6
CONTINUOUS
 62
    1
 10
899.54264495065502
 20
518.06194205921088
 11
899.54264495065502
 21
555.61908095932199
  0
LINE
  8
_0-0_
  6
CONTINUOUS
 62
    1
 10
905.79264495065502
 20
556.34051863426816
 11
905.79264495065502
 21
511.28841723290202
  0
LINE
  8
_0-0_
  6
CONTINUOUS
 62
    1
 10
908.91764495065502
 20
509.05350348112984
 11
908.91764495065502
 21
556.34051863426816
  0
LINE
  8
_0-0_
  6
CONTINUOUS
 62
    1
 10
915.16764495065502
 20
556.34051863426816
 11
915.16764495065502
 21
504.50293092063657
  0
LINE
  8
_0-0_
  6
CONTINUOUS
 62
    1
 10
918.29264495065502
 20
501.34040653463217
 11
918.29264495065502
 21
556.34051863426816
  0
LINE
  8
_0-0_
  6
CONTINUOUS
 62
    1
 10
924.54264495065502
 20
556.34051863426816
 11
924.54264495065502
 21
490.40316905359214
  0
LINE
  8
_0-0_
  6
CONTINUOUS
 62
    1
 10
924.54264495065502
 20
469.27785396494073
 11
924.54264495065502
 21
459.09051863426816
  0
LINE
  8
_0-0_
  6
CONTINUOUS
 62
    1
 10
924.54264495065502
 20
459.09051863426816
 11
918.94675729429684
 21
459.09051863426816
  0
TEXT
  8
_0-0_
 62
    7
 10
1156.7610031395889
 20
714.86896840218787
 40
30
 41
1
 50
0
  1
改修用ﾄﾞﾚﾝ
  0
TEXT
  8
_0-0_
 62
    7
 10
1174.655662067632
 20
598.55368536991023
 40
30
 41
1
 50
0
  1
ﾄﾞﾚﾝｷｬｯﾌﾟ
  0
LINE
  8
_0-0_
  6
CONTINUOUS
 62
    7
 10
1368.8188756825894
 20
578.09070799213259
 11
1408.7151792085206
 21
647.19313273323473
  0
POINT
  8
_0-0_
 62
    7
 10
1368.8188756825894
 20
578.09070799213259
  0
TEXT
  8
_0-0_
 62
    7
 10
1410.287723536876
 20
634.38092240728815
 40
30
 41
1
 50
0
  1
防水層
  0
LINE
  8
_0-0_
  6
CONTINUOUS
 62
    7
 10
672.13606690525205
 20
820.44381216958413
 11
1706.8525777203668
 21
820.44381216958413
  0
TEXT
  8
_0-0_
 62
    7
 10
720.59855107381111
 20
746.30791273190994
 40
30
 41
1
 50
0
  1
横型
  0
TEXT
  8
_0-0_
 62
    7
 10
723.87259461542465
 20
1397.8425775129269
 40
30
 41
1
 50
0
  1
縦型
  0
LINE
  8
_0-0_
  6
CONTINUOUS
 62
    7
 10
884.02481336558878
 20
1252.5651888241164
 11
983.07582977895083
 21
1252.5651888241164
  0
LINE
  8
_0-0_
  6
CONTINUOUS
 62
    7
 10
1396.02881586289
 20
1252.5651888241155
 11
1495.0798322762521
 21
1252.5651888241155
  0
LINE
  8
_0-0_
  6
CONTINUOUS
 62
    7
 10
1437.2044227625183
 20
1252.5651888241155
 11
1489.4732753235539
 21
1200.2963362630799
  0
LINE
  8
_0-0_
  6
CONTINUOUS
 62
    7
 10
1347.5190180510272
 20
571.09107763268207
 11
1469.3741161372045
 21
571.09107763268207
  0
LINE
  8
_0-0_
  6
CONTINUOUS
 62
    7
 10
1388.6946249506555
 20
571.09107763268207
 11
1469.3741161372045
 21
490.41158644613301
  0
LINE
  8
_0-0_
  6
CONTINUOUS
 62
    7
 10
672.13606690525205
 20
1633.3565543671132
 11
1706.8525777203668
 21
1633.3565543671132
  0
LINE
  8
_0-0_
  6
CONTINUOUS
 62
    7
 10
672.13606690525205
 20
1553.3565543671132
 11
1706.8525777203668
 21
1553.3565543671132
  0
LINE
  8
_0-0_
  6
CONTINUOUS
 62
    7
 10
672.13606690525205
 20
1473.3565543671132
 11
1706.8525777203668
 21
1473.3565543671132
  0
LINE
  8
_0-0_
  6
CONTINUOUS
 62
    7
 10
1189.4943223128093
 20
1633.3565543671132
 11
1189.4943223128093
 21
1473.3565543671132
  0
TEXT
  8
_0-0_
 62
    7
 10
696.13606690525205
 20
1497.3565543671132
 40
20
 41
1
 50
0
  1
施工部位：改修用ドレン
  0
TEXT
  8
_0-0_
 62
    7
 10
1213.4943223128093
 20
1577.3565543671132
 40
20
 41
1
 50
0
  1
構造：ＲＣ造
  0
TEXT
  8
_0-0_
 62
    7
 10
1213.4943223128093
 20
1497.3565543671132
 40
20
 41
1
 50
0
  1
下地：保護コンクリート
  0
TEXT
  8
_0-0_
 62
    7
 10
696.13606690525205
 20
1577.3565543671132
 40
20
 41
1
 50
0
  1
図面番号：dr-kaishu
  0
ENDSEC
  0
EOF
