  0
SECTION
  2
HEADER
  9
$ACADVER
  1
AC1009
  9
$INSBASE
 10
0
 20
0
 30
0
  9
$EXTMIN
 10
0
 20
0
  9
$EXTMAX
 10
2378
 20
1682
  9
$LIMMIN
 10
0
 20
0
  9
$LIMMAX
 10
2378
 20
1682
  9
$LTSCALE
 40
1
  0
ENDSEC
  0
SECTION
  2
TABLES
  0
TABLE
  2
LTYPE
 70
     9
  0
LTYPE
  2
CONTINUOUS
 70
    64
  3
実線
 72
    65
 73
     0
 40
0.0
  0
LTYPE
  2
DASHED1
 70
    64
  3
--  --  --  --  --  --  --  --  
 72
    65
 73
     2
 40
2.5
 49
1.25
 49
-1.25
  0
LTYPE
  2
DASHED2
 70
    64
  3
----    ----    ----    ----    
 72
    65
 73
     2
 40
5.0
 49
2.5
 49
-2.5
  0
LTYPE
  2
DASHED3
 70
    64
  3
------  ------  ------  ------  
 72
    65
 73
     2
 40
5.0
 49
3.75
 49
-1.25
  0
LTYPE
  2
CENTER1
 70
    64
  3
----- - ----- - ----- - ----- - 
 72
    65
 73
     4
 40
10.0
 49
6.25
 49
-1.25
 49
1.25
 49
-1.25
  0
LTYPE
  2
CENTER2
 70
    64
  3
----------  --  ----------  --  
 72
    65
 73
     4
 40
20.0
 49
12.5
 49
-2.5
 49
2.5
 49
-2.5
  0
LTYPE
  2
PHANTOM1
 70
    64
  3
--- - - --- - - --- - - --- - - 
 72
    65
 73
     6
 40
10.0
 49
3.25
 49
-1.25
 49
1.25
 49
-1.25
 49
1.25
 49
-1.25
  0
LTYPE
  2
PHANTOM2
 70
    64
  3
--------  -  -  --------  -  -  
 72
    65
 73
     6
 40
20.0
 49
10.0
 49
-2.5
 49
1.25
 49
-2.5
 49
1.25
 49
-2.5
  0
LTYPE
  2
DOT
 70
    64
  3
-   -   -   -   -   -   -   -   
 72
    65
 73
     2
 40
2.5
 49
0.625
 49
-1.875
  0
LTYPE
  2
DUMMY
 70
    64
  3
ダミー
 72
    65
 73
     0
 40
0.0
  0
LTYPE
  2
RAND1
 70
    64
  3
ランダム線1
 72
    65
 73
     4
 40
10.0
 49
1.0
 49
-2.0
 49
3.0
 49
-4.0
  0
LTYPE
  2
RAND2
 70
    64
  3
ランダム線2
 72
    65
 73
     4
 40
14.0
 49
2.0
 49
-3.0
 49
4.0
 49
-5.0
  0
LTYPE
  2
RAND3
 70
    64
  3
ランダム線3
 72
    65
 73
     4
 40
18.0
 49
3.0
 49
-4.0
 49
5.0
 49
-6.0
  0
LTYPE
  2
RAND4
 70
    64
  3
ランダム線4
 72
    65
 73
     4
 40
22.0
 49
4.0
 49
-5.0
 49
6.0
 49
-7.0
  0
LTYPE
  2
RAND5
 70
    64
  3
ランダム線5
 72
    65
 73
     4
 40
26.0
 49
5.0
 49
-6.0
 49
7.0
 49
-8.0
  0
LTYPE
  2
LONG1
 70
    64
  3
----------  --  ----------  --  
 72
    65
 73
     4
 40
40.0
 49
32.5
 49
-2.5
 49
2.5
 49
-2.5
  0
LTYPE
  2
LONG2
 70
    64
  3
--------  -  -  --------  -  -  
 72
    65
 73
     6
 40
40.0
 49
30.0
 49
-2.5
 49
1.25
 49
-2.5
 49
1.25
 49
-2.5
  0
LTYPE
  2
LONG3
 70
    64
  3
+++++++++++++++..+++++++++++++++
 72
    65
 73
     2
 40
40.0
 49
37.5
 49
-2.5
  0
LTYPE
  2
LONG4
 70
    64
  3
+++++++++++++++..+++++++++++++++
 72
    65
 73
     2
 40
80.0
 49
75.0
 49
-5.0
  0
LTYPE
  2
LONG5
 70
    64
  3
----------  --  ----------  --  
 72
    65
 73
     4
 40
60.0
 49
37.5
 49
-7.5
 49
7.5
 49
-7.5
  0
LTYPE
  2
dashed
 70
   64
  3
-------   -------------   ------
 72
   65
 73
    2
 40
7.5
 49
6
 49
-1.5
  0
LTYPE
  2
dashed_spaced
 70
   64
  3
----        --------        ----
 72
   65
 73
    2
 40
12
 49
6
 49
-6
  0
LTYPE
  2
long_dashed_dotted
 70
   64
  3
------------- --- --------------
 72
   65
 73
    4
 40
15.25
 49
12
 49
-1.5
 49
0.25
 49
-1.5
  0
LTYPE
  2
long_dashed_double-dotted
 70
   64
  3
----------- --- --- ------------
 72
   65
 73
    6
 40
17
 49
12
 49
-1.5
 49
0.25
 49
-1.5
 49
0.25
 49
-1.5
  0
LTYPE
  2
long_dashed_triplicate-dotted
 70
   64
  3
--------- --- --- --- ----------
 72
   65
 73
    8
 40
18.75
 49
12
 49
-1.5
 49
0.25
 49
-1.5
 49
0.25
 49
-1.5
 49
0.25
 49
-1.5
  0
LTYPE
  2
dotted
 70
   64
  3
   -       -       -       -    
 72
   65
 73
    2
 40
1.75
 49
0.25
 49
-1.5
  0
LTYPE
  2
chain
 70
   64
  3
-------------- -- --------------
 72
   65
 73
    4
 40
18.5
 49
12
 49
-1.5
 49
3.5
 49
-1.5
  0
LTYPE
  2
chain_double_dash
 70
   64
  3
------------ -- -- -------------
 72
   65
 73
    6
 40
23.5
 49
12
 49
-1.5
 49
3.5
 49
-1.5
 49
3.5
 49
-1.5
  0
LTYPE
  2
dashed_dotted
 70
   64
  3
-----------     -     ----------
 72
   65
 73
    4
 40
9.25
 49
6
 49
-1.5
 49
0.25
 49
-1.5
  0
LTYPE
  2
double-dashed_dotted
 70
   64
  3
------   -----------   -   -----
 72
   65
 73
    6
 40
16.75
 49
6
 49
-1.5
 49
6
 49
-1.5
 49
0.25
 49
-1.5
  0
LTYPE
  2
dashed_double-dotted
 70
   64
  3
---------    -    -    ---------
 72
   65
 73
    6
 40
11
 49
6
 49
-1.5
 49
0.25
 49
-1.5
 49
0.25
 49
-1.5
  0
LTYPE
  2
double-dashed_double-dotted
 70
   64
  3
-----   ---------   -   -   ----
 72
   65
 73
    8
 40
18.5
 49
6
 49
-1.5
 49
6
 49
-1.5
 49
0.25
 49
-1.5
 49
0.25
 49
-1.5
  0
LTYPE
  2
dashed_triplicate-dotted
 70
   64
  3
-------    -    -    -    ------
 72
   65
 73
    8
 40
12.75
 49
6
 49
-1.5
 49
0.25
 49
-1.5
 49
0.25
 49
-1.5
 49
0.25
 49
-1.5
  0
LTYPE
  2
double-dashed_triplicate-dotted
 70
   64
  3
-----  ---------  -  -  -  -----
 72
   65
 73
   10
 40
20.25
 49
6
 49
-1.5
 49
6
 49
-1.5
 49
0.25
 49
-1.5
 49
0.25
 49
-1.5
 49
0.25
 49
-1.5
  0
LTYPE
  2
undefined
 70
   64
  3
--------------------------------
 72
   65
 73
    0
 40
0
  0
ENDTAB
  0
TABLE
  2
STYLE
  5
3
100
AcDbSymbolTable
 70
     1
  0
STYLE
  5
10
100
AcDbSymbolTableRecord
100
AcDbTextStyleTableRecord
  2
STANDARD
 70
     0
 40
0.0
 41
1.0
 50
0.0
 71
     0
 42
0.2
  3
txt
  4
bigfont.shx
  0
STYLE
  5
26
100
AcDbSymbolTableRecord
100
AcDbTextStyleTableRecord
  2
TATEGAKI
 70
    68
 40
0.0
 41
1.0
 50
0.0
 71
     0
 42
1.0
  3
txt
  4
bigfont.shx
  0
ENDTAB
  0
TABLE
  2
LAYER
 70
    2
  0
LAYER
  2
_0-0_
 70
   64
 62
    7
  6
CONTINUOUS
  0
LAYER
  2
ADD_LINE
 70
   64
 62
    7
  6
CONTINUOUS
  0
ENDTAB
  0
ENDSEC
  0
SECTION
  2
BLOCKS
  0
ENDSEC
  0
SECTION
  2
ENTITIES
  0
TEXT
  8
_0-0_
 62
    7
 10
1144.5082818392607
 20
1273.2860059795414
 40
24
 41
1
 50
0
  1
Ａ
  0
LINE
  8
_0-0_
  6
CONTINUOUS
 62
    7
 10
672.13606690525205
 20
1633.3565543671141
 11
672.13606690525205
 21
167.53106997205509
  0
LINE
  8
_0-0_
  6
CONTINUOUS
 62
    7
 10
1364.0145711507271
 20
745.97909039324736
 11
1485.1534388798705
 21
745.97909039324736
  0
LINE
  8
_0-0_
  6
CONTINUOUS
 62
    7
 10
672.13606690525205
 20
167.53106997205509
 11
1706.852577720369
 21
167.53106997205509
  0
LINE
  8
_0-0_
  6
CONTINUOUS
 62
    7
 10
1706.852577720369
 20
1633.3565543671141
 11
1706.852577720369
 21
167.53106997205509
  0
LINE
  8
_0-0_
  6
CONTINUOUS
 62
    7
 10
672.13606690525205
 20
567.53106997205691
 11
1706.852577720369
 21
567.53106997205691
  0
LINE
  8
_0-0_
  6
CONTINUOUS
 62
    4
 10
1022.1358914942851
 20
1228.4634664655898
 11
1014.014571150727
 21
1220.3421461220298
  0
LINE
  8
_0-0_
  6
CONTINUOUS
 62
    7
 10
1009.014571150727
 20
1275.9973581089764
 11
1009.014571150727
 21
1230.4634664655898
  0
LINE
  8
_0-0_
  6
CONTINUOUS
 62
    7
 10
1024.6211728685253
 20
1222.4634664655898
 11
1153.4079694329289
 21
1222.4634664655898
  0
LINE
  8
_0-0_
  6
CONTINUOUS
 62
    4
 10
1155.8932508071689
 20
1228.4634664655898
 11
1170.0145711507271
 21
1214.3421461220307
  0
LINE
  8
_0-0_
  6
CONTINUOUS
 62
    7
 10
1153.4079694329289
 20
1222.4634664655898
 11
1164.0145711507271
 21
1211.8568647477916
  0
LINE
  8
_0-0_
  6
CONTINUOUS
 62
    7
 10
1024.6211728685253
 20
1222.4634664655898
 11
1014.014571150727
 21
1211.8568647477916
  0
LINE
  8
_0-0_
  6
CONTINUOUS
 62
    4
 10
1014.014571150727
 20
1211.8568647477916
 11
1014.014571150727
 21
1220.3421461220298
  0
LINE
  8
_0-0_
  6
CONTINUOUS
 62
    7
 10
1016.014571150727
 20
1308.8731058924861
 11
1018.014571150727
 21
1309.8731058924861
  0
LINE
  8
_0-0_
  6
CONTINUOUS
 62
    7
 10
1016.014571150727
 20
1308.8731058924861
 11
1016.014571150727
 21
1275.9973581089764
  0
LINE
  8
_0-0_
  6
CONTINUOUS
 62
    7
 10
1016.014571150727
 20
1315.8731058924861
 11
1016.014571150727
 21
1309.8731058924861
  0
LINE
  8
_0-0_
  6
CONTINUOUS
 62
    7
 10
1018.014571150727
 20
1309.8731058924861
 11
1016.014571150727
 21
1309.8731058924861
  0
LINE
  8
_0-0_
  6
CONTINUOUS
 62
    7
 10
1002.014571150727
 20
1300.9159380067115
 11
1002.014571150727
 21
1277.9973581089764
  0
LINE
  8
_0-0_
  6
CONTINUOUS
 62
    7
 10
1002.014571150727
 20
1300.9159380067115
 11
988.78006883014893
 21
1300.9159380067115
  0
LINE
  8
_0-0_
  6
CONTINUOUS
 62
    7
 10
991.78006883014893
 20
1287.9973581089764
 11
991.78006883014893
 21
1295.9973581089764
  0
LINE
  8
_0-0_
  6
CONTINUOUS
 62
    7
 10
965.54556650957454
 20
1286.9973581089764
 11
963.54556650957454
 21
1286.9973581089764
  0
LINE
  8
_0-0_
  6
CONTINUOUS
 62
    7
 10
965.54556650957454
 20
1277.9973581089764
 11
965.54556650957454
 21
1286.9973581089764
  0
LINE
  8
_0-0_
  6
CONTINUOUS
 62
    7
 10
963.54556650957454
 20
1275.9973581089764
 11
963.54556650957454
 21
1286.9973581089764
  0
LINE
  8
_0-0_
  6
CONTINUOUS
 62
    7
 10
963.54556650957454
 20
1275.9973581089764
 11
1014.014571150727
 21
1275.9973581089764
  0
LINE
  8
_0-0_
  6
CONTINUOUS
 62
    7
 10
1014.014571150727
 20
1277.9973581089764
 11
965.54556650957454
 21
1277.9973581089764
  0
LINE
  8
_0-0_
  6
CONTINUOUS
 62
    7
 10
958.0196963423208
 20
1275.9973581089764
 11
958.0196963423208
 21
1285.9973581089764
  0
LINE
  8
_0-0_
  6
CONTINUOUS
 62
    7
 10
956.0196963423208
 20
1273.9973581089764
 11
956.0196963423208
 21
1285.9973581089764
  0
LINE
  8
_0-0_
  6
CONTINUOUS
 62
    7
 10
958.0196963423208
 20
1285.9973581089764
 11
956.0196963423208
 21
1285.9973581089764
  0
LINE
  8
_0-0_
  6
CONTINUOUS
 62
    7
 10
994.84812740824998
 20
1332.8731058924861
 11
1137.1003627517516
 21
1332.8731058924861
  0
LINE
  8
_0-0_
  6
CONTINUOUS
 62
    7
 10
991.98226884243047
 20
1327.8731058924861
 11
1134.2136114058035
 21
1327.8731058924861
  0
LINE
  8
_0-0_
  6
CONTINUOUS
 62
    7
 10
1007.014571150727
 20
1273.9973581089764
 11
956.0196963423208
 21
1273.9973581089764
  0
LINE
  8
_0-0_
  6
CONTINUOUS
 62
    7
 10
1009.014571150727
 20
1275.9973581089764
 11
958.0196963423208
 21
1275.9973581089764
  0
LINE
  8
_0-0_
  6
CONTINUOUS
 62
    7
 10
999.01457115072697
 20
1277.9973581089764
 11
999.01457115072697
 21
1275.9973581089764
  0
LINE
  8
_0-0_
  6
CONTINUOUS
 62
    7
 10
1007.014571150727
 20
1273.9973581089764
 11
1007.014571150727
 21
1228.4634664655898
  0
LINE
  8
_0-0_
  6
CONTINUOUS
 62
    7
 10
1121.4857808382171
 20
1228.4634664655898
 11
1007.014571150727
 21
1228.4634664655898
  0
LINE
  8
_0-0_
  6
CONTINUOUS
 62
    7
 10
1121.4857808382171
 20
1230.4634664655898
 11
1121.4857808382171
 21
1228.4634664655898
  0
LINE
  8
_0-0_
  6
CONTINUOUS
 62
    7
 10
1100.5982689906618
 20
1230.4634664655898
 11
1112.5982689906618
 21
1230.4634664655898
  0
LINE
  8
_0-0_
  6
CONTINUOUS
 62
    7
 10
1112.5982689906618
 20
1248.0472819099343
 11
1112.5982689906618
 21
1230.4634664655898
  0
LINE
  8
_0-0_
  6
CONTINUOUS
 62
    7
 10
1016.014571150727
 20
1273.9268057481561
 11
1110.5982689906618
 21
1248.5831802947962
  0
LINE
  8
_0-0_
  6
CONTINUOUS
 62
    7
 10
1110.5982689906618
 20
1248.5831802947962
 11
1110.5982689906618
 21
1232.4634664655898
  0
LINE
  8
_0-0_
  6
CONTINUOUS
 62
    7
 10
1100.5982689906618
 20
1232.4634664655898
 11
1100.5982689906618
 21
1230.4634664655898
  0
LINE
  8
_0-0_
  6
CONTINUOUS
 62
    7
 10
1110.5982689906618
 20
1232.4634664655898
 11
1100.5982689906618
 21
1232.4634664655898
  0
LINE
  8
_0-0_
  6
CONTINUOUS
 62
    7
 10
1026.0145711507271
 20
1232.4634664655898
 11
1026.0145711507271
 21
1230.4634664655898
  0
LINE
  8
_0-0_
  6
CONTINUOUS
 62
    7
 10
1026.0145711507271
 20
1230.4634664655898
 11
1014.014571150727
 21
1230.4634664655898
  0
LINE
  8
_0-0_
  6
CONTINUOUS
 62
    7
 10
1026.0145711507271
 20
1232.4634664655898
 11
1016.014571150727
 21
1232.4634664655898
  0
LINE
  8
_0-0_
  6
CONTINUOUS
 62
    7
 10
1014.014571150727
 20
1275.9973581089764
 11
1014.014571150727
 21
1230.4634664655898
  0
LINE
  8
_0-0_
  6
CONTINUOUS
 62
    7
 10
1016.014571150727
 20
1273.9268057481561
 11
1016.014571150727
 21
1232.4634664655898
  0
LINE
  8
_0-0_
  6
CONTINUOUS
 62
    1
 10
1037.6642130326713
 20
1293.2320897411084
 11
1044.3604127113126
 21
1293.8179313016956
  0
LINE
  8
_0-0_
  6
CONTINUOUS
 62
    1
 10
1031.8145711507264
 20
1306.7737901163594
 11
1038.0644886794857
 21
1307.3205870480981
  0
LINE
  8
_0-0_
  6
CONTINUOUS
 62
    1
 10
1044.0305204258425
 20
1315.8731058924861
 11
1044.8145711507264
 21
1315.9417014425428
  0
LINE
  8
_0-0_
  6
CONTINUOUS
 62
    1
 10
1044.8145711507264
 20
1298.3865498497901
 11
1044.8145711507264
 21
1298.4052367617862
  0
LINE
  8
_0-0_
  6
CONTINUOUS
 62
    1
 10
1031.8145711507264
 20
1294.7279520658378
 11
1044.8145711507264
 21
1295.8653046916754
  0
LINE
  8
_0-0_
  6
CONTINUOUS
 62
    1
 10
1031.8145711507264
 20
1328.8578265423123
 11
1044.8145711507264
 21
1329.995179168149
  0
LINE
  8
_0-0_
  6
CONTINUOUS
 62
    1
 10
1031.8145711507264
 20
1326.8501868672258
 11
1044.8145711507264
 21
1327.9875394930625
  0
LINE
  8
_0-0_
  6
CONTINUOUS
 62
    1
 10
1031.8145711507264
 20
1304.766150441272
 11
1044.8145711507264
 21
1305.9035030671087
  0
LINE
  8
_0-0_
  6
CONTINUOUS
 62
    1
 10
1031.8145711507264
 20
1316.8119884917917
 11
1044.8145711507264
 21
1317.9493411176293
  0
LINE
  8
_0-0_
  6
CONTINUOUS
 62
    1
 10
1031.8145711507264
 20
1318.8196281668791
 11
1044.8145711507264
 21
1319.9569807927166
  0
LINE
  8
_0-0_
  6
CONTINUOUS
 62
    1
 10
1031.8145711507264
 20
1320.8272678419655
 11
1044.8145711507264
 21
1321.9646204678022
  0
LINE
  8
_0-0_
  6
CONTINUOUS
 62
    1
 10
1031.8145711507264
 20
1322.834907517052
 11
1044.8145711507264
 21
1323.9722601428887
  0
LINE
  8
_0-0_
  6
CONTINUOUS
 62
    1
 10
1031.8145711507264
 20
1324.8425471921394
 11
1044.8145711507264
 21
1325.979899817976
  0
LINE
  8
_0-0_
  6
CONTINUOUS
 62
    1
 10
1031.8145711507264
 20
1330.8654662173997
 11
1044.8145711507264
 21
1332.0028188432364
  0
LINE
  8
_0-0_
  6
CONTINUOUS
 62
    1
 10
1031.8145711507264
 20
1302.7585107661855
 11
1044.8145711507264
 21
1303.8958633920222
  0
LINE
  8
_0-0_
  6
CONTINUOUS
 62
    1
 10
1031.8145711507264
 20
1300.750871091099
 11
1044.8145711507264
 21
1301.8882237169357
  0
LINE
  8
_0-0_
  6
CONTINUOUS
 62
    1
 10
1031.8145711507264
 20
1298.7432314160117
 11
1044.8145711507264
 21
1299.8805840418493
  0
LINE
  8
_0-0_
  6
CONTINUOUS
 62
    1
 10
1031.8145711507264
 20
1296.7355917409243
 11
1044.8145711507264
 21
1297.8729443667619
  0
LINE
  8
_0-0_
  6
CONTINUOUS
 62
    7
 10
1016.014571150727
 20
1315.8731058924861
 11
1060.6145711507256
 21
1315.8731058924861
  0
LINE
  8
_0-0_
  6
CONTINUOUS
 62
    7
 10
1014.014571150727
 20
1317.8731058924861
 11
1062.6145711507256
 21
1317.8731058924861
  0
LINE
  8
_0-0_
  6
CONTINUOUS
 62
    1
 10
1032.8545711507236
 20
1293.2320897411084
 11
1031.8145711507264
 21
1294.2720897411075
  0
LINE
  8
_0-0_
  6
CONTINUOUS
 62
    1
 10
1043.7745711507255
 20
1293.2320897411084
 11
1044.8145711507264
 21
1294.2720897411093
  0
LINE
  8
_0-0_
  6
CONTINUOUS
 62
    1
 10
1044.8145711507264
 20
1294.2720897411093
 11
1044.8145711507264
 21
1307.319105892486
  0
LINE
  8
_0-0_
  6
CONTINUOUS
 62
    1
 10
1031.8145711507264
 20
1307.319105892486
 11
1031.8145711507264
 21
1294.2720897411075
  0
LINE
  8
_0-0_
  6
CONTINUOUS
 62
    1
 10
1032.8545711507236
 20
1293.2320897411084
 11
1043.7745711507255
 21
1293.2320897411084
  0
LINE
  8
_0-0_
  6
CONTINUOUS
 62
    1
 10
1043.7745711507255
 20
1307.319105892486
 11
1043.7745711507255
 21
1293.2320897411084
  0
LINE
  8
_0-0_
  6
CONTINUOUS
 62
    1
 10
1032.8545711507236
 20
1307.319105892486
 11
1032.8545711507236
 21
1293.2320897411084
  0
LINE
  8
_0-0_
  6
CONTINUOUS
 62
    1
 10
1044.8145711507264
 20
1315.8731058924861
 11
1044.8145711507264
 21
1332.8731058924861
  0
LINE
  8
_0-0_
  6
CONTINUOUS
 62
    1
 10
1043.7745711507255
 20
1332.8731058924861
 11
1043.7745711507255
 21
1315.8731058924861
  0
LINE
  8
_0-0_
  6
CONTINUOUS
 62
    1
 10
1032.8545711507236
 20
1332.8731058924861
 11
1032.8545711507236
 21
1315.8731058924861
  0
LINE
  8
_0-0_
  6
CONTINUOUS
 62
    1
 10
1031.8145711507264
 20
1332.8731058924861
 11
1031.8145711507264
 21
1315.8731058924861
  0
LINE
  8
_0-0_
  6
CONTINUOUS
 62
    1
 10
1051.0740120998148
 20
1315.8731058924861
 11
1025.5551302016343
 21
1315.8731058924861
  0
LINE
  8
_0-0_
  6
CONTINUOUS
 62
    1
 10
1051.0740120998148
 20
1308.3060520846077
 11
1051.0740120998148
 21
1315.8731058924861
  0
LINE
  8
_0-0_
  6
CONTINUOUS
 62
    1
 10
1049.3645711507256
 20
1307.319105892486
 11
1051.0740120998148
 21
1308.3060520846077
  0
LINE
  8
_0-0_
  6
CONTINUOUS
 62
    1
 10
1027.2645711507271
 20
1307.319105892486
 11
1049.3645711507256
 21
1307.319105892486
  0
LINE
  8
_0-0_
  6
CONTINUOUS
 62
    1
 10
1025.5551302016343
 20
1308.3060520846077
 11
1027.2645711507271
 21
1307.319105892486
  0
LINE
  8
_0-0_
  6
CONTINUOUS
 62
    1
 10
1025.5551302016343
 20
1315.8731058924861
 11
1025.5551302016343
 21
1308.3060520846077
  0
LINE
  8
_0-0_
  6
CONTINUOUS
 62
    1
 10
1044.6942916252724
 20
1308.3060520846077
 11
1049.3645711507256
 21
1307.319105892486
  0
ARC
  8
_0-0_
  6
CONTINUOUS
 62
    1
 10
1038.3145711507264
 20
1328.4321597003648
 40
21.113053807878593
 50
252.41204622600637
 51
287.5879537739936
  0
LINE
  8
_0-0_
  6
CONTINUOUS
 62
    1
 10
1027.2645711507271
 20
1307.319105892486
 11
1031.9348506761803
 21
1308.3060520846077
  0
LINE
  8
_0-0_
  6
CONTINUOUS
 62
    1
 10
1044.6942916252724
 20
1308.3060520846077
 11
1044.6942916252724
 21
1315.8731058924861
  0
LINE
  8
_0-0_
  6
CONTINUOUS
 62
    1
 10
1031.9348506761803
 20
1315.8731058924861
 11
1031.9348506761803
 21
1308.3060520846077
  0
LINE
  8
_0-0_
  6
CONTINUOUS
 62
    7
 10
1062.6145711507256
 20
1317.8731058924861
 11
1062.6145711507256
 21
1307.8731058924861
  0
LINE
  8
_0-0_
  6
CONTINUOUS
 62
    7
 10
1060.6145711507256
 20
1315.8731058924861
 11
1060.6145711507256
 21
1309.8731058924861
  0
LINE
  8
_0-0_
  6
CONTINUOUS
 62
    7
 10
1058.6145711507256
 20
1309.8731058924861
 11
1060.6145711507256
 21
1309.8731058924861
  0
LINE
  8
_0-0_
  6
CONTINUOUS
 62
    7
 10
1062.6145711507256
 20
1307.8731058924861
 11
1058.6145711507256
 21
1309.8731058924861
  0
LINE
  8
_0-0_
  6
CONTINUOUS
 62
    7
 10
1052.6145711507256
 20
1327.8731058924861
 11
1052.6145711507256
 21
1317.8731058924861
  0
LINE
  8
_0-0_
  6
CONTINUOUS
 62
    7
 10
1024.0145711507271
 20
1327.8731058924861
 11
1024.0145711507271
 21
1317.8731058924861
  0
LINE
  8
_0-0_
  6
CONTINUOUS
 62
    1
 10
1031.9348506761803
 20
1344.3661597003641
 11
1027.2645711507271
 21
1345.3531058924857
  0
LINE
  8
_0-0_
  6
CONTINUOUS
 62
    1
 10
1051.0740120998148
 20
1344.3661597003641
 11
1025.5551302016343
 21
1344.3661597003641
  0
LINE
  8
_0-0_
  6
CONTINUOUS
 62
    1
 10
1027.2645711507271
 20
1345.3531058924857
 11
1025.5551302016343
 21
1344.3661597003641
  0
LINE
  8
_0-0_
  6
CONTINUOUS
 62
    1
 10
1031.9348506761803
 20
1344.3661597003641
 11
1031.9348506761803
 21
1334.953105892487
  0
LINE
  8
_0-0_
  6
CONTINUOUS
 62
    1
 10
1025.5551302016343
 20
1344.3661597003641
 11
1025.5551302016343
 21
1334.953105892487
  0
LINE
  8
_0-0_
  6
CONTINUOUS
 62
    1
 10
1024.0145711507271
 20
1334.953105892487
 11
1024.0145711507271
 21
1332.8731058924861
  0
LINE
  8
_0-0_
  6
CONTINUOUS
 62
    1
 10
1031.4895711507256
 20
1332.8731058924861
 11
1031.4895711507256
 21
1334.953105892487
  0
LINE
  8
_0-0_
  6
CONTINUOUS
 62
    1
 10
1024.0145711507271
 20
1334.953105892487
 11
1052.6145711507256
 21
1334.953105892487
  0
LINE
  8
_0-0_
  6
CONTINUOUS
 62
    1
 10
1052.6145711507256
 20
1332.8731058924861
 11
1024.0145711507271
 21
1332.8731058924861
  0
LINE
  8
_0-0_
  6
CONTINUOUS
 62
    1
 10
1052.6145711507256
 20
1334.953105892487
 11
1052.6145711507256
 21
1332.8731058924861
  0
LINE
  8
_0-0_
  6
CONTINUOUS
 62
    1
 10
1051.0740120998148
 20
1344.3661597003641
 11
1049.3645711507256
 21
1345.3531058924857
  0
LINE
  8
_0-0_
  6
CONTINUOUS
 62
    1
 10
1051.0740120998148
 20
1334.953105892487
 11
1051.0740120998148
 21
1344.3661597003641
  0
LINE
  8
_0-0_
  6
CONTINUOUS
 62
    1
 10
1025.5551302016343
 20
1334.953105892487
 11
1051.0740120998148
 21
1334.953105892487
  0
LINE
  8
_0-0_
  6
CONTINUOUS
 62
    1
 10
1049.3645711507256
 20
1345.3531058924857
 11
1027.2645711507271
 21
1345.3531058924857
  0
LINE
  8
_0-0_
  6
CONTINUOUS
 62
    1
 10
1049.3645711507256
 20
1345.3531058924857
 11
1044.6942916252724
 21
1344.3661597003641
  0
LINE
  8
_0-0_
  6
CONTINUOUS
 62
    1
 10
1044.6942916252724
 20
1334.953105892487
 11
1044.6942916252724
 21
1344.3661597003641
  0
LINE
  8
_0-0_
  6
CONTINUOUS
 62
    1
 10
1045.1395711507271
 20
1332.8731058924861
 11
1045.1395711507271
 21
1334.953105892487
  0
ARC
  8
_0-0_
  6
CONTINUOUS
 62
    1
 10
1038.3145711507264
 20
1324.240052084607
 40
21.113053807878593
 50
72.412046226006396
 51
107.5879537739936
  0
LINE
  8
_0-0_
  6
CONTINUOUS
 62
    7
 10
1137.1003627517516
 20
1332.8731058924861
 11
1158.5437384247257
 21
1295.7320897411084
  0
LINE
  8
_0-0_
  6
CONTINUOUS
 62
    7
 10
1134.2136114058035
 20
1327.8731058924861
 11
1154.2136114058035
 21
1293.2320897411084
  0
LINE
  8
_0-0_
  6
CONTINUOUS
 62
    7
 10
1014.014571150727
 20
1317.8731058924861
 11
1014.014571150727
 21
1277.9973581089764
  0
LINE
  8
_0-0_
  6
CONTINUOUS
 62
    2
 10
980.95460363106247
 20
1273.5036888814441
 11
974.70460363106247
 21
1273.5036888814441
  0
LINE
  8
_0-0_
  6
CONTINUOUS
 62
    7
 10
1112.5982689906618
 20
1248.0472819099343
 11
1192.8286722907128
 21
1226.5496101372621
  0
LINE
  8
_0-0_
  6
CONTINUOUS
 62
    7
 10
1192.8286722907128
 20
1226.5496101372621
 11
1192.8286722907128
 21
1196.5496101372621
  0
LINE
  8
_0-0_
  6
CONTINUOUS
 62
    7
 10
1016.014571150727
 20
1275.9973581089764
 11
1194.8286722907128
 21
1228.0842641132197
  0
LINE
  8
_0-0_
  6
CONTINUOUS
 62
    7
 10
1194.8286722907128
 20
1228.0842641132197
 11
1194.8286722907128
 21
1196.5496101372621
  0
LINE
  8
_0-0_
  6
CONTINUOUS
 62
    7
 10
1192.8286722907128
 20
1196.5496101372621
 11
1194.8286722907128
 21
1196.5496101372621
  0
LINE
  8
_0-0_
  6
CONTINUOUS
 62
    1
 10
1045.6939773018553
 20
1243.3346081888906
 11
1045.6939773018553
 21
1165.7605554304057
  0
LINE
  8
_0-0_
  6
CONTINUOUS
 62
    1
 10
1058.6939773018553
 20
1165.7605554304066
 11
1058.6939773018553
 21
1243.3346081888906
  0
ARC
  8
_0-0_
  6
CONTINUOUS
 62
    1
 10
1048.9439773018553
 20
1241.3346081888906
 40
3.8160843806184368
 50
31.607502246248899
 51
148.39249775375112
  0
ARC
  8
_0-0_
  6
CONTINUOUS
 62
    1
 10
1055.4439773018553
 20
1245.3346081888906
 40
3.8160843806184368
 50
211.60750224624888
 51
328.39249775375112
  0
ARC
  8
_0-0_
  6
CONTINUOUS
 62
    1
 10
1055.4439773018553
 20
1241.3346081888906
 40
3.8160843806184368
 50
31.607502246248899
 51
148.39249775375112
  0
LINE
  8
_0-0_
  6
CONTINUOUS
 62
    1
 10
1057.653977301858
 20
1242.2235954920354
 11
1057.653977301858
 21
1164.7205554304066
  0
ARC
  8
_0-0_
  6
CONTINUOUS
 62
    1
 10
1048.9439773018553
 20
1163.7605554304057
 40
3.8160843806184368
 50
31.607502246248899
 51
148.39249775375112
  0
ARC
  8
_0-0_
  6
CONTINUOUS
 62
    1
 10
1055.4439773018553
 20
1167.7605554304057
 40
3.8160843806184368
 50
211.60750224624888
 51
328.39249775376271
  0
ARC
  8
_0-0_
  6
CONTINUOUS
 62
    1
 10
1048.9439773018553
 20
1167.7605554304057
 40
3.8160843806184368
 50
211.60750224624888
 51
328.39249775375112
  0
LINE
  8
_0-0_
  6
CONTINUOUS
 62
    1
 10
1046.7339773018562
 20
1244.3746081888896
 11
1046.7339773018562
 21
1166.8715681272608
  0
LINE
  8
_0-0_
  6
CONTINUOUS
 62
    7
 10
1009.014571150727
 20
1230.4634664655898
 11
1121.4857808382171
 21
1230.4634664655898
  0
LINE
  8
_0-0_
  6
CONTINUOUS
 62
    7
 10
1164.0145711507271
 20
1211.8568647477916
 11
1164.0145711507271
 21
925.97909039324736
  0
CIRCLE
  8
_0-0_
  6
CONTINUOUS
 62
    7
 10
1181.1866654095143
 20
1217.6163840630818
 40
11.642006881197926
  0
LINE
  8
_0-0_
  6
CONTINUOUS
 62
    2
 10
1192.8286722907128
 20
1196.5496101372623
 11
1192.8286722907128
 21
1196.5496101372623
  0
LINE
  8
_0-0_
  6
CONTINUOUS
 62
    2
 10
1192.8286722907128
 20
1196.5496101372623
 11
1187.690346425311
 21
1197.4774681105971
  0
LINE
  8
_0-0_
  6
CONTINUOUS
 62
    2
 10
1187.690346425311
 20
1197.4774681105971
 11
1182.361548531888
 21
1197.8558732827598
  0
LINE
  8
_0-0_
  6
CONTINUOUS
 62
    2
 10
1182.361548531888
 20
1197.8558732827598
 11
1177.0041914379335
 21
1197.6733280040767
  0
LINE
  8
_0-0_
  6
CONTINUOUS
 62
    2
 10
1177.0041914379335
 20
1197.6733280040767
 11
1171.781055727794
 21
1196.935378820468
  0
LINE
  8
_0-0_
  6
CONTINUOUS
 62
    2
 10
1171.781055727794
 20
1196.935378820468
 11
1170.0145711507271
 21
1196.5496101372623
  0
LINE
  8
_0-0_
  6
CONTINUOUS
 62
    2
 10
1191.5184206724648
 20
1196.8427307286358
 11
1192.8286722907128
 21
1198.1529823468811
  0
LINE
  8
_0-0_
  6
CONTINUOUS
 62
    2
 10
1189.1242123916804
 20
1197.2769495725963
 11
1192.8286722907128
 21
1200.9814094716278
  0
LINE
  8
_0-0_
  6
CONTINUOUS
 62
    2
 10
1186.6182462595993
 20
1197.5994105652601
 11
1192.8286722907128
 21
1203.8098365963735
  0
LINE
  8
_0-0_
  6
CONTINUOUS
 62
    2
 10
1183.990471689935
 20
1197.8000631203424
 11
1192.8286722907128
 21
1206.6382637211202
  0
LINE
  8
_0-0_
  6
CONTINUOUS
 62
    2
 10
1181.2260938064196
 20
1197.8641123615737
 11
1192.8286722907128
 21
1209.4666908458669
  0
LINE
  8
_0-0_
  6
CONTINUOUS
 62
    2
 10
1178.3030143479359
 20
1197.7694600278367
 11
1192.8286722907128
 21
1212.2951179706135
  0
LINE
  8
_0-0_
  6
CONTINUOUS
 62
    2
 10
1175.1868163889508
 20
1197.4816891935982
 11
1184.032750238332
 21
1206.3276230429785
  0
LINE
  8
_0-0_
  6
CONTINUOUS
 62
    2
 10
1192.4754264296193
 20
1214.7702992342658
 11
1192.8286722907128
 21
1215.1235450953584
  0
LINE
  8
_0-0_
  6
CONTINUOUS
 62
    2
 10
1171.8197097507132
 20
1196.9430096801063
 11
1180.8557803522804
 21
1205.9790802816744
  0
LINE
  8
_0-0_
  6
CONTINUOUS
 62
    2
 10
1170.0145711507271
 20
1197.9662982048651
 11
1178.3688151204374
 21
1206.3205421745763
  0
LINE
  8
_0-0_
  6
CONTINUOUS
 62
    2
 10
1170.0145711507271
 20
1200.7947253296118
 11
1176.2791279805156
 21
1207.0592821593993
  0
LINE
  8
_0-0_
  6
CONTINUOUS
 62
    2
 10
1170.0145711507271
 20
1203.6231524543566
 11
1174.4868421011001
 21
1208.0954234047306
  0
LINE
  8
_0-0_
  6
CONTINUOUS
 62
    2
 10
1170.0145711507271
 20
1206.4515795791042
 11
1172.9508793167029
 21
1209.3878877450818
  0
LINE
  8
_0-0_
  6
CONTINUOUS
 62
    2
 10
1170.0145711507234
 20
1209.280006703849
 11
1171.6596861980656
 21
1210.9251217511903
  0
LINE
  8
_0-0_
  6
CONTINUOUS
 62
    2
 10
1170.0145711507234
 20
1212.1084338285948
 11
1170.6249407383534
 21
1212.7188034162239
  0
LINE
  8
_0-0_
  6
CONTINUOUS
 62
    7
 10
1002.014571150727
 20
1302.9159380067115
 11
975.78006883014893
 21
1302.9159380067115
  0
LINE
  8
_0-0_
  6
CONTINUOUS
 62
    7
 10
988.78006883014893
 20
1300.9159380067115
 11
975.78006883014893
 21
1300.9159380067115
  0
LINE
  8
_0-0_
  6
CONTINUOUS
 62
    7
 10
975.78006883014893
 20
1302.9159380067115
 11
975.78006883014893
 21
1300.9159380067115
  0
LINE
  8
_0-0_
  6
CONTINUOUS
 62
    7
 10
1002.014571150727
 20
1302.9159380067115
 11
1002.014571150727
 21
1300.9159380067115
  0
LINE
  8
_0-0_
  6
CONTINUOUS
 62
    7
 10
1002.014571150727
 20
1317.8731058924861
 11
1014.014571150727
 21
1317.8731058924861
  0
LINE
  8
_0-0_
  6
CONTINUOUS
 62
    7
 10
1002.014571150727
 20
1277.9973581089764
 11
1002.014571150727
 21
1317.8731058924861
  0
LINE
  8
_0-0_
  6
CONTINUOUS
 62
    7
 10
1002.014571150727
 20
1317.8731058924861
 11
1014.014571150727
 21
1277.9973581089764
  0
LINE
  8
_0-0_
  6
CONTINUOUS
 62
    7
 10
1014.014571150727
 20
1317.8731058924861
 11
1002.014571150727
 21
1277.9973581089764
  0
LINE
  8
_0-0_
  6
CONTINUOUS
 62
    7
 10
991.78006883014893
 20
1282.9973581089764
 11
975.78006883014893
 21
1282.9973581089764
  0
LINE
  8
_0-0_
  6
CONTINUOUS
 62
    7
 10
975.78006883014893
 20
1282.9973581089764
 11
975.78006883014893
 21
1277.9973581089764
  0
LINE
  8
_0-0_
  6
CONTINUOUS
 62
    7
 10
991.78006883014893
 20
1287.9973581089764
 11
991.78006883014893
 21
1277.9973581089764
  0
LINE
  8
_0-0_
  6
CONTINUOUS
 62
    7
 10
986.78006883014893
 20
1287.9973581089764
 11
991.78006883014893
 21
1282.9973581089764
  0
LINE
  8
_0-0_
  6
CONTINUOUS
 62
    7
 10
991.78006883014893
 20
1287.9973581089764
 11
986.78006883014893
 21
1282.9973581089764
  0
LINE
  8
_0-0_
  6
CONTINUOUS
 62
    7
 10
991.78006883014893
 20
1295.9973581089764
 11
991.78006883014893
 21
1300.9159380067115
  0
LINE
  8
_0-0_
  6
CONTINUOUS
 62
    7
 10
986.78006883014893
 20
1300.9159380067115
 11
986.78006883014893
 21
1295.9973581089764
  0
LINE
  8
_0-0_
  6
CONTINUOUS
 62
    7
 10
986.78006883014893
 20
1287.9973581089764
 11
986.78006883014893
 21
1282.9973581089764
  0
LINE
  8
_0-0_
  6
CONTINUOUS
 62
    7
 10
986.78006883014893
 20
1300.9159380067115
 11
991.78006883014893
 21
1295.9973581089764
  0
LINE
  8
_0-0_
  6
CONTINUOUS
 62
    7
 10
986.78006883014893
 20
1295.9973581089764
 11
991.78006883014893
 21
1300.9159380067115
  0
LINE
  8
_0-0_
  6
CONTINUOUS
 62
    7
 10
1014.014571150727
 20
891.44187687453109
 11
1164.0145711507271
 21
1041.441876874532
  0
LINE
  8
_0-0_
  6
CONTINUOUS
 62
    7
 10
1014.014571150727
 20
898.51294468639594
 11
1164.0145711507271
 21
1048.5129446863959
  0
LINE
  8
_0-0_
  6
CONTINUOUS
 62
    7
 10
1014.014571150727
 20
905.5840124982617
 11
1164.0145711507271
 21
1055.5840124982617
  0
LINE
  8
_0-0_
  6
CONTINUOUS
 62
    7
 10
1014.014571150727
 20
1117.7160468542263
 11
1118.7619907620888
 21
1222.4634664655889
  0
LINE
  8
_0-0_
  6
CONTINUOUS
 62
    7
 10
1014.014571150727
 20
1124.787114666093
 11
1111.6909229502221
 21
1222.4634664655889
  0
LINE
  8
_0-0_
  6
CONTINUOUS
 62
    7
 10
1014.014571150727
 20
1131.8581824779569
 11
1104.6198551383591
 21
1222.4634664655889
  0
LINE
  8
_0-0_
  6
CONTINUOUS
 62
    4
 10
1022.1358914942851
 20
1228.4634664655898
 11
1155.8932508071689
 21
1228.4634664655898
  0
LINE
  8
_0-0_
  6
CONTINUOUS
 62
    7
 10
1185.0223697575516
 20
1200.4478690985973
 11
1258.1979702150406
 21
1327.1917269653261
  0
POINT
  8
_0-0_
 62
    7
 10
1185.0223697575516
 20
1200.4478690985973
  0
TEXT
  8
_0-0_
 62
    7
 10
1263.0785802278501
 20
1312.5849601967714
 40
30
 41
1
 50
0
  1
ｼｰﾘﾝｸﾞ
  0
LINE
  8
_0-0_
  6
CONTINUOUS
 62
    7
 10
1164.0145711507271
 20
925.97909039324736
 11
1485.1534388798705
 21
925.97909039324736
  0
ARC
  8
_0-0_
  6
CONTINUOUS
 62
    7
 10
674.23637004345994
 20
1143.4075140177658
 40
367.40986757197703
 50
30.137066432173206
 51
53.125752717063492
  0
ARC
  8
_0-0_
  6
CONTINUOUS
 62
    7
 10
674.23637004345994
 20
1143.4075140177658
 40
372.40986757197703
 50
30.580973923580547
 51
53.700633007173963
  0
LINE
  8
_0-0_
  6
CONTINUOUS
 62
    7
 10
991.78006883014893
 20
1295.9973581089764
 11
894.70460363106247
 21
1295.9973581089764
  0
LINE
  8
_0-0_
  6
CONTINUOUS
 62
    7
 10
991.78006883014893
 20
1287.9973581089764
 11
894.70460363106247
 21
1287.9973581089764
  0
LINE
  8
_0-0_
  6
CONTINUOUS
 62
    2
 10
974.70460363106247
 20
1273.5036888814441
 11
974.70460363106247
 21
685.97909039324736
  0
LINE
  8
_0-0_
  6
CONTINUOUS
 62
    2
 10
977.82960363106247
 20
1273.5036888814441
 11
977.82960363106247
 21
685.97909039324736
  0
LINE
  8
_0-0_
  6
CONTINUOUS
 62
    2
 10
980.95460363106247
 20
1273.5036888814441
 11
980.95460363106247
 21
685.97909039324736
  0
LINE
  8
_0-0_
  6
CONTINUOUS
 62
    7
 10
1020.6838190254078
 20
685.97909039324736
 11
1260.683819025408
 21
925.97909039324736
  0
LINE
  8
_0-0_
  6
CONTINUOUS
 62
    7
 10
1027.7548868372728
 20
685.97909039324736
 11
1267.754886837271
 21
925.97909039324736
  0
LINE
  8
_0-0_
  6
CONTINUOUS
 62
    7
 10
1034.8259546491377
 20
685.97909039324736
 11
1274.8259546491377
 21
925.97909039324827
  0
LINE
  8
_0-0_
  6
CONTINUOUS
 62
    7
 10
1014.014571150727
 20
1211.8568647477916
 11
1014.014571150727
 21
685.97909039324736
  0
LINE
  8
_0-0_
  6
CONTINUOUS
 62
    7
 10
1246.9579890051032
 20
685.97909039324736
 11
1485.1534388798705
 21
924.17454026801556
  0
LINE
  8
_0-0_
  6
CONTINUOUS
 62
    7
 10
1254.029056816968
 20
685.97909039324736
 11
1485.1534388798705
 21
917.10347245615162
  0
LINE
  8
_0-0_
  6
CONTINUOUS
 62
    7
 10
1261.1001246288329
 20
685.97909039324736
 11
1485.1534388798723
 21
910.03240464428677
  0
LINE
  8
_0-0_
  6
CONTINUOUS
 62
    7
 10
1364.0145711507271
 20
745.97909039324736
 11
1364.0145711507271
 21
685.97909039324736
  0
LINE
  8
_0-0_
  6
CONTINUOUS
 62
    7
 10
672.13606690525205
 20
627.53106997205691
 11
1706.852577720369
 21
627.53106997205691
  0
LINE
  8
_0-0_
  6
CONTINUOUS
 62
    7
 10
1189.4943223128107
 20
167.53106997205509
 11
1189.4943223128107
 21
627.53106997205691
  0
TEXT
  8
_0-0_
 62
    7
 10
904.48460511275914
 20
578.29759000254057
 40
40
 41
1
 50
0
  1
Ａ
  0
TEXT
  8
_0-0_
 62
    7
 10
1427.4413467979671
 20
578.64506875500524
 40
40
 41
1
 50
0
  1
Ｂ
  0
LINE
  8
_0-0_
  6
CONTINUOUS
 62
    2
 10
958.46405352648833
 20
414.22515534876698
 11
959.83738509865577
 21
415.59848692092896
  0
LINE
  8
_0-0_
  6
CONTINUOUS
 62
    2
 10
958.46405352648833
 20
407.86119431808879
 11
962.16556238301234
 21
411.56270317460553
  0
LINE
  8
_0-0_
  6
CONTINUOUS
 62
    2
 10
958.4640535264956
 20
401.49723328741061
 11
965.07074689994295
 21
408.10392666086523
  0
LINE
  8
_0-0_
  6
CONTINUOUS
 62
    2
 10
958.4640535264956
 20
395.13327225672879
 11
968.5266631648359
 21
405.1958818950709
  0
LINE
  8
_0-0_
  6
CONTINUOUS
 62
    2
 10
958.4640535264956
 20
388.76931122605424
 11
972.55930639351971
 21
402.8645640930747
  0
LINE
  8
_0-0_
  6
CONTINUOUS
 62
    2
 10
958.4640535264956
 20
382.40535019537242
 11
977.26110245834059
 21
401.20239912722286
  0
LINE
  8
_0-0_
  6
CONTINUOUS
 62
    2
 10
962.52561537646432
 20
380.10295101466659
 11
982.8567742299914
 21
400.43410986819185
  0
LINE
  8
_0-0_
  6
CONTINUOUS
 62
    2
 10
1009.000977904005
 20
420.21435251152548
 11
1009.7957810914635
 21
421.00915569898757
  0
LINE
  8
_0-0_
  6
CONTINUOUS
 62
    2
 10
970.10160531249892
 20
381.31497992002301
 11
990.00495647360765
 21
401.2183310811281
  0
LINE
  8
_0-0_
  6
CONTINUOUS
 62
    2
 10
977.11305072021639
 20
381.96246429705684
 11
1009.7957810914635
 21
414.64519466830575
  0
LINE
  8
_0-0_
  6
CONTINUOUS
 62
    2
 10
983.6899795018038
 20
382.17543204796789
 11
1009.7957810914635
 21
408.28123363762757
  0
LINE
  8
_0-0_
  6
CONTINUOUS
 62
    2
 10
989.90982973971438
 20
382.03132125519664
 11
1009.7957810914635
 21
401.91727260694574
  0
LINE
  8
_0-0_
  6
CONTINUOUS
 62
    2
 10
995.82232252145911
 20
381.57985300626137
 11
1009.7957810914635
 21
395.55331157626756
  0
LINE
  8
_0-0_
  6
CONTINUOUS
 62
    2
 10
1001.4607463186406
 20
380.85431577277018
 11
1009.7957810914635
 21
389.18935054558938
  0
LINE
  8
_0-0_
  6
CONTINUOUS
 62
    2
 10
1006.8477149504073
 20
379.87732337385501
 11
1009.7957810914635
 21
382.82538951491119
  0
LINE
  8
_0-0_
  6
CONTINUOUS
 62
    2
 10
1009.7957810914635
 20
379.2178020432699
 11
1009.7957810914635
 21
379.2178020432699
  0
LINE
  8
_0-0_
  6
CONTINUOUS
 62
    2
 10
1009.7957810914635
 20
379.2178020432699
 11
998.23454789430946
 21
381.30548248327307
  0
LINE
  8
_0-0_
  6
CONTINUOUS
 62
    2
 10
998.23454789430946
 20
381.30548248327307
 11
986.24475263410761
 21
382.15689412063921
  0
LINE
  8
_0-0_
  6
CONTINUOUS
 62
    2
 10
986.24475263410761
 20
382.15689412063921
 11
974.1906991727102
 21
381.74616724360203
  0
LINE
  8
_0-0_
  6
CONTINUOUS
 62
    2
 10
974.1906991727102
 20
381.74616724360203
 11
962.43864382489608
 21
380.08578158048249
  0
LINE
  8
_0-0_
  6
CONTINUOUS
 62
    2
 10
962.43864382489608
 20
380.08578158048249
 11
958.4640535264956
 21
379.2178020432699
  0
CIRCLE
  8
_0-0_
  6
CONTINUOUS
 62
    7
 10
983.60126560877177
 20
426.61804337636318
 40
26.194515482695333
  0
LINE
  8
_0-0_
  6
CONTINUOUS
 62
    7
 10
1009.7957810914635
 20
379.21780204326683
 11
1014.2957810914635
 21
379.21780204326683
  0
LINE
  8
_0-0_
  6
CONTINUOUS
 62
    7
 10
1014.2957810914635
 20
450.17077348917269
 11
1014.2957810914635
 21
379.21780204326683
  0
LINE
  8
_0-0_
  6
CONTINUOUS
 62
    7
 10
1009.7957810914635
 20
446.71780204326683
 11
1009.7957810914635
 21
379.21780204326683
  0
LINE
  8
_0-0_
  6
CONTINUOUS
 62
    7
 10
829.27737366634972
 20
495.08756353178001
 11
1009.7957810914635
 21
446.71780204326683
  0
LINE
  8
_0-0_
  6
CONTINUOUS
 62
    7
 10
824.77737366634972
 20
460.02397878200395
 11
802.27737366634949
 21
460.02397878200395
  0
LINE
  8
_0-0_
  6
CONTINUOUS
 62
    7
 10
802.27737366634949
 20
460.02397878200395
 11
802.27737366634949
 21
455.52397878200395
  0
LINE
  8
_0-0_
  6
CONTINUOUS
 62
    7
 10
824.77737366634972
 20
496.29333489771784
 11
824.77737366634972
 21
460.02397878200395
  0
LINE
  8
_0-0_
  6
CONTINUOUS
 62
    7
 10
829.27737366634972
 20
495.08756353178001
 11
829.27737366634972
 21
455.52397878200395
  0
LINE
  8
_0-0_
  6
CONTINUOUS
 62
    7
 10
802.27737366634949
 20
455.52397878200395
 11
829.27737366634972
 21
455.52397878200395
  0
LINE
  8
_0-0_
  6
CONTINUOUS
 62
    7
 10
849.27427532334912
 20
455.52397878200395
 11
849.27427532334912
 21
451.02397878200395
  0
LINE
  8
_0-0_
  6
CONTINUOUS
 62
    7
 10
921.0991996614506
 20
437.52397878200395
 11
944.9640535264956
 21
413.65912491695894
  0
LINE
  8
_0-0_
  6
CONTINUOUS
 62
    4
 10
926.6910827534906
 20
451.02397878200395
 11
958.4640535264956
 21
419.25100800899349
  0
LINE
  8
_0-0_
  6
CONTINUOUS
 62
    7
 10
747.14207917667966
 20
517.09564936037646
 11
824.77737366634972
 21
496.29333489771784
  0
LINE
  8
_0-0_
  6
CONTINUOUS
 62
    7
 10
747.14207917667966
 20
521.75439217222379
 11
1014.2957810914635
 21
450.17077348917269
  0
LINE
  8
_0-0_
  6
CONTINUOUS
 62
    4
 10
747.14207917667966
 20
451.02397878200395
 11
926.6910827534906
 21
451.02397878200395
  0
LINE
  8
_0-0_
  6
CONTINUOUS
 62
    7
 10
747.14207917667966
 20
455.52397878200395
 11
849.27427532334912
 21
455.52397878200395
  0
LINE
  8
_0-0_
  6
CONTINUOUS
 62
    7
 10
747.14207917667966
 20
437.52397878200395
 11
921.0991996614506
 21
437.52397878200395
  0
LINE
  8
_0-0_
  6
CONTINUOUS
 62
    7
 10
747.14207917667966
 20
373.3401154600117
 11
811.3259424986685
 21
437.52397878200031
  0
LINE
  8
_0-0_
  6
CONTINUOUS
 62
    7
 10
747.14207917667966
 20
357.43021288331988
 11
827.23584507536032
 21
437.52397878200031
  0
LINE
  8
_0-0_
  6
CONTINUOUS
 62
    7
 10
747.14207917667966
 20
341.52031030662079
 11
843.14574765205941
 21
437.52397878200031
  0
LINE
  8
_0-0_
  6
CONTINUOUS
 62
    7
 10
944.9640535264956
 20
413.65912491695894
 11
944.9640535264956
 21
200.82261105358089
  0
LINE
  8
_0-0_
  6
CONTINUOUS
 62
    4
 10
958.4640535264956
 20
419.25100800899349
 11
958.4640535264956
 21
200.82261105358089
  0
LINE
  8
_0-0_
  6
CONTINUOUS
 62
    7
 10
982.02695164696013
 20
393.6230857074454
 11
1022.4082377356266
 21
323.68064652690123
  0
TEXT
  8
_0-0_
 62
    7
 10
1025.4521623589612
 20
306.44464617921517
 40
21.617968000000001
 41
1
 50
0
  1
ｼｰﾘﾝｸﾞ
  0
POINT
  8
_0-0_
 62
    7
 10
982.02695164696013
 20
393.6230857074454
  0
LINE
  8
_0-0_
  6
CONTINUOUS
 62
    7
 10
983.8492363167901
 20
421.1188923164093
 11
1024.0265897955383
 21
490.70810985525645
  0
POINT
  8
_0-0_
 62
    7
 10
983.8492363167901
 20
421.1188923164093
  0
TEXT
  8
_0-0_
 62
    7
 10
1027.4981636816615
 20
484.40983699547837
 40
21.617968000000001
 41
1
 50
0
  1
ﾊﾞｯｸｱｯﾌﾟ材
  0
LINE
  8
_0-0_
  6
CONTINUOUS
 62
    7
 10
1356.2623985040723
 20
933.47909039324736
 11
1416.0203434946511
 21
1036.982887272836
  0
POINT
  8
_0-0_
 62
    7
 10
1356.2623985040723
 20
933.47909039324736
  0
LINE
  8
_0-0_
  6
CONTINUOUS
 62
    7
 10
1223.2988423981892
 20
967.97909039324736
 11
1261.127269522935
 21
967.97909039324736
  0
LINE
  8
_0-0_
  6
CONTINUOUS
 62
  136
 10
1166.0145711507271
 20
996.09178876545525
 11
1193.127269522935
 21
968.97909039324736
  0
LINE
  8
_0-0_
  6
CONTINUOUS
 62
    6
 10
1164.0145711507262
 20
953.45239970168609
 11
1171.5412618422883
 21
960.97909039324827
  0
LINE
  8
_0-0_
  6
CONTINUOUS
 62
    6
 10
1164.0145711507262
 20
939.31026407795457
 11
1185.6833974660199
 21
960.97909039324827
  0
LINE
  8
_0-0_
  6
CONTINUOUS
 62
    6
 10
1164.8255330897487
 20
925.97909039324645
 11
1199.8255330897487
 21
960.97909039324645
  0
LINE
  8
_0-0_
  6
CONTINUOUS
 62
    6
 10
1178.967668713482
 20
925.97909039324827
 11
1213.967668713482
 21
960.97909039324827
  0
LINE
  8
_0-0_
  6
CONTINUOUS
 62
    6
 10
1193.1098043372126
 20
925.97909039324827
 11
1228.1098043372126
 21
960.97909039324827
  0
LINE
  8
_0-0_
  6
CONTINUOUS
 62
    6
 10
1207.2519399609423
 20
925.97909039324736
 11
1242.2519399609414
 21
960.97909039324645
  0
LINE
  8
_0-0_
  6
CONTINUOUS
 62
    6
 10
1221.3940755846747
 20
925.97909039324827
 11
1256.3940755846747
 21
960.97909039324827
  0
LINE
  8
_0-0_
  6
CONTINUOUS
 62
    6
 10
1235.5362112084053
 20
925.97909039324827
 11
1270.5362112084053
 21
960.97909039324827
  0
LINE
  8
_0-0_
  6
CONTINUOUS
 62
    6
 10
1249.678346832135
 20
925.97909039324645
 11
1284.678346832135
 21
960.97909039324736
  0
LINE
  8
_0-0_
  6
CONTINUOUS
 62
    6
 10
1263.8204824558666
 20
925.97909039324736
 11
1298.8204824558675
 21
960.97909039324827
  0
LINE
  8
_0-0_
  6
CONTINUOUS
 62
    6
 10
1277.9626180795981
 20
925.97909039324827
 11
1312.9626180795981
 21
960.97909039324827
  0
LINE
  8
_0-0_
  6
CONTINUOUS
 62
    6
 10
1292.1047537033278
 20
925.97909039324736
 11
1327.1047537033278
 21
960.97909039324645
  0
LINE
  8
_0-0_
  6
CONTINUOUS
 62
    6
 10
1306.2468893270593
 20
925.97909039324827
 11
1341.2468893270593
 21
960.97909039324736
  0
LINE
  8
_0-0_
  6
CONTINUOUS
 62
    6
 10
1320.3890249507908
 20
925.97909039324827
 11
1355.3890249507908
 21
960.97909039324827
  0
LINE
  8
_0-0_
  6
CONTINUOUS
 62
    6
 10
1334.5311605745205
 20
925.97909039324736
 11
1369.5311605745205
 21
960.97909039324736
  0
LINE
  8
_0-0_
  6
CONTINUOUS
 62
    6
 10
1348.673296198252
 20
925.97909039324736
 11
1383.673296198252
 21
960.97909039324736
  0
LINE
  8
_0-0_
  6
CONTINUOUS
 62
    6
 10
1362.8154318219836
 20
925.97909039324827
 11
1397.8154318219836
 21
960.97909039324827
  0
LINE
  8
_0-0_
  6
CONTINUOUS
 62
    6
 10
1376.9575674457133
 20
925.97909039324645
 11
1411.9575674457133
 21
960.97909039324645
  0
LINE
  8
_0-0_
  6
CONTINUOUS
 62
    6
 10
1384.2278306328376
 20
960.97909039324736
 11
1419.2278306328376
 21
925.97909039324736
  0
LINE
  8
_0-0_
  6
CONTINUOUS
 62
    6
 10
1370.0856950091052
 20
960.97909039324827
 11
1405.0856950091052
 21
925.97909039324827
  0
LINE
  8
_0-0_
  6
CONTINUOUS
 62
    6
 10
1355.9435593853755
 20
960.97909039324736
 11
1390.9435593853755
 21
925.97909039324736
  0
LINE
  8
_0-0_
  6
CONTINUOUS
 62
    6
 10
1341.8014237616449
 20
960.97909039324645
 11
1376.8014237616449
 21
925.97909039324736
  0
LINE
  8
_0-0_
  6
CONTINUOUS
 62
    6
 10
1327.6592881379124
 20
960.97909039324827
 11
1362.6592881379124
 21
925.97909039324827
  0
LINE
  8
_0-0_
  6
CONTINUOUS
 62
    6
 10
1313.5171525141827
 20
960.97909039324736
 11
1348.5171525141827
 21
925.97909039324736
  0
LINE
  8
_0-0_
  6
CONTINUOUS
 62
    6
 10
1299.3750168904521
 20
960.97909039324645
 11
1334.3750168904521
 21
925.97909039324827
  0
LINE
  8
_0-0_
  6
CONTINUOUS
 62
    6
 10
1285.2328812667197
 20
960.97909039324827
 11
1320.2328812667197
 21
925.97909039324827
  0
LINE
  8
_0-0_
  6
CONTINUOUS
 62
    6
 10
1271.09074564299
 20
960.97909039324645
 11
1306.09074564299
 21
925.97909039324645
  0
LINE
  8
_0-0_
  6
CONTINUOUS
 62
    6
 10
1256.9486100192594
 20
960.97909039324645
 11
1291.9486100192594
 21
925.97909039324645
  0
LINE
  8
_0-0_
  6
CONTINUOUS
 62
    6
 10
1242.8064743955269
 20
960.97909039324827
 11
1277.8064743955269
 21
925.97909039324827
  0
LINE
  8
_0-0_
  6
CONTINUOUS
 62
    6
 10
1228.6643387717972
 20
960.97909039324645
 11
1263.6643387717972
 21
925.97909039324645
  0
LINE
  8
_0-0_
  6
CONTINUOUS
 62
    6
 10
1214.5222031480666
 20
960.97909039324645
 11
1249.5222031480666
 21
925.97909039324827
  0
LINE
  8
_0-0_
  6
CONTINUOUS
 62
    6
 10
1200.3800675243342
 20
960.97909039324827
 11
1235.3800675243342
 21
925.97909039324827
  0
LINE
  8
_0-0_
  6
CONTINUOUS
 62
    6
 10
1186.2379319006045
 20
960.97909039324645
 11
1221.2379319006045
 21
925.97909039324645
  0
LINE
  8
_0-0_
  6
CONTINUOUS
 62
    6
 10
1172.0957962768739
 20
960.97909039324645
 11
1207.0957962768739
 21
925.97909039324645
  0
LINE
  8
_0-0_
  6
CONTINUOUS
 62
    6
 10
1164.0145711507271
 20
954.91817989566175
 11
1192.9536606531415
 21
925.97909039324827
  0
LINE
  8
_0-0_
  6
CONTINUOUS
 62
    6
 10
1164.0145711507262
 20
940.77604427193205
 11
1178.8115250294109
 21
925.97909039324645
  0
LINE
  8
_0-0_
  6
CONTINUOUS
 62
    6
 10
1164.0145711507271
 20
926.63390864819962
 11
1164.6693894056793
 21
925.97909039324736
  0
LINE
  8
_0-0_
  6
CONTINUOUS
 62
    6
 10
1164.0145711507271
 20
960.97909039324736
 11
1164.0145711507271
 21
925.97909039324736
  0
LINE
  8
_0-0_
  6
CONTINUOUS
 62
    1
 10
1140.0145711507271
 20
1010.6775752030828
 11
1140.7003034569238
 21
1011.3633075092796
  0
LINE
  8
_0-0_
  6
CONTINUOUS
 62
    1
 10
1140.0145711507271
 20
1010.6775752030828
 11
1140.7003034569238
 21
1009.9918428968851
  0
LINE
  8
_0-0_
  6
DASHED1
 62
    1
 10
1140.7003034569238
 20
1011.3633075092796
 11
1141.2645711507271
 21
1011.9275752030828
  0
LINE
  8
_0-0_
  6
DASHED1
 62
    1
 10
1140.7003034569238
 20
1009.9918428968851
 11
1141.2645711507271
 21
1009.4275752030828
  0
LINE
  8
_0-0_
  6
CONTINUOUS
 62
    1
 10
1140.1698832006546
 20
1007.7140447491677
 11
1140.0522886794784
 21
1009.9578818814573
  0
LINE
  8
_0-0_
  6
CONTINUOUS
 62
    1
 10
1140.0522886794784
 20
1011.3972685247084
 11
1140.1698832006546
 21
1013.6411056569971
  0
LINE
  8
_0-0_
  6
CONTINUOUS
 62
    4
 10
1217.2704971599619
 20
977.97909039324736
 11
1224.7988423981892
 21
977.97909039324736
  0
LINE
  8
_0-0_
  6
CONTINUOUS
 62
    7
 10
1261.127269522935
 20
967.97909039324736
 11
1261.127269522935
 21
966.97909039324736
  0
LINE
  8
_0-0_
  6
CONTINUOUS
 62
    7
 10
1193.127269522935
 20
968.97909039324736
 11
1193.127269522935
 21
969.97909039324736
  0
LINE
  8
_0-0_
  6
CONTINUOUS
 62
    7
 10
1165.0145711507271
 20
1026.2633616407095
 11
1167.0145711507271
 21
1026.2633616407095
  0
LINE
  8
_0-0_
  6
CONTINUOUS
 62
    7
 10
1166.0145711507271
 20
996.09178876545525
 11
1167.0145711507271
 21
996.09178876545525
  0
LINE
  8
_0-0_
  6
CONTINUOUS
 62
    1
 10
1149.0145711507271
 20
1008.1775752030828
 11
1140.1698832006546
 21
1007.7140447491677
  0
LINE
  8
_0-0_
  6
CONTINUOUS
 62
    1
 10
1166.0145711507271
 20
1008.1775752030828
 11
1166.0145711507271
 21
1003.1775752030828
  0
LINE
  8
_0-0_
  6
CONTINUOUS
 62
    1
 10
1166.0145711507271
 20
1013.1775752030828
 11
1166.0145711507271
 21
1018.1775752030828
  0
LINE
  8
_0-0_
  6
CONTINUOUS
 62
    1
 10
1168.0145711507271
 20
1012.5024039621715
 11
1168.0145711507271
 21
1008.8527464439924
  0
LINE
  8
_0-0_
  6
CONTINUOUS
 62
    1
 10
1168.0145711507271
 20
1012.5024039621724
 11
1168.0145711507271
 21
1012.5024039621724
  0
LINE
  8
_0-0_
  6
CONTINUOUS
 62
    1
 10
1168.0145711507271
 20
1012.5024039621724
 11
1167.1365051085402
 21
1015.8781849952256
  0
LINE
  8
_0-0_
  6
CONTINUOUS
 62
    1
 10
1167.1365051085402
 20
1015.8781849952256
 11
1166.0145711507271
 21
1018.1775752030828
  0
LINE
  8
_0-0_
  6
CONTINUOUS
 62
    1
 10
1166.0145711507271
 20
1003.1775752030828
 11
1166.0145711507271
 21
1003.1775752030828
  0
LINE
  8
_0-0_
  6
CONTINUOUS
 62
    1
 10
1166.0145711507271
 20
1003.1775752030828
 11
1167.480088918333
 21
1006.4519138890294
  0
LINE
  8
_0-0_
  6
CONTINUOUS
 62
    1
 10
1167.480088918333
 20
1006.4519138890294
 11
1168.0145711507271
 21
1008.8527464439933
  0
LINE
  8
_0-0_
  6
CONTINUOUS
 62
    1
 10
1168.1828997703033
 20
1009.1988627722086
 11
1168.1828997703033
 21
1009.1988627722086
  0
LINE
  8
_0-0_
  6
CONTINUOUS
 62
    1
 10
1168.1828997703033
 20
1009.1988627722086
 11
1168.0145711507271
 21
1009.4275752030828
  0
LINE
  8
_0-0_
  6
CONTINUOUS
 62
    1
 10
1168.0145711507271
 20
1011.9275752030828
 11
1168.0145711507271
 21
1011.9275752030828
  0
LINE
  8
_0-0_
  6
CONTINUOUS
 62
    1
 10
1168.0145711507271
 20
1011.9275752030828
 11
1168.1828997703033
 21
1012.156287633957
  0
LINE
  8
_0-0_
  6
CONTINUOUS
 62
    1
 10
1168.1828997703033
 20
1009.1988627722085
 11
1168.1828997703033
 21
1009.1988627722085
  0
LINE
  8
_0-0_
  6
CONTINUOUS
 62
    1
 10
1168.1828997703033
 20
1009.1988627722085
 11
1168.2124394452039
 21
1009.4551674009909
  0
LINE
  8
_0-0_
  6
CONTINUOUS
 62
    1
 10
1168.2124394452039
 20
1009.4551674009909
 11
1168.2359669921029
 21
1009.7486142722718
  0
LINE
  8
_0-0_
  6
CONTINUOUS
 62
    1
 10
1168.2359669921029
 20
1009.7486142722718
 11
1168.2527675383935
 21
1010.0702871513583
  0
LINE
  8
_0-0_
  6
CONTINUOUS
 62
    1
 10
1168.2527675383935
 20
1010.0702871513583
 11
1168.2623306079781
 21
1010.410412170594
  0
LINE
  8
_0-0_
  6
CONTINUOUS
 62
    1
 10
1168.2623306079781
 20
1010.410412170594
 11
1168.2643656318264
 21
1010.7586548033808
  0
LINE
  8
_0-0_
  6
CONTINUOUS
 62
    1
 10
1168.2643656318264
 20
1010.7586548033808
 11
1168.2588107767688
 21
1011.1044338735408
  0
LINE
  8
_0-0_
  6
CONTINUOUS
 62
    1
 10
1168.2588107767688
 20
1011.1044338735408
 11
1168.2458348242649
 21
1011.4372430589998
  0
LINE
  8
_0-0_
  6
CONTINUOUS
 62
    1
 10
1168.2458348242649
 20
1011.4372430589998
 11
1168.2258320420658
 21
1011.7469701210673
  0
LINE
  8
_0-0_
  6
CONTINUOUS
 62
    1
 10
1168.2258320420658
 20
1011.7469701210673
 11
1168.1994102045865
 21
1012.0242041596917
  0
LINE
  8
_0-0_
  6
CONTINUOUS
 62
    1
 10
1168.1994102045865
 20
1012.0242041596917
 11
1168.1828997703033
 21
1012.156287633957
  0
LINE
  8
_0-0_
  6
DASHED1
 62
    1
 10
1168.0145711507271
 20
1011.9275752030828
 11
1141.2645711507271
 21
1011.9275752030828
  0
LINE
  8
_0-0_
  6
DASHED1
 62
    1
 10
1168.0145711507271
 20
1009.4275752030828
 11
1141.2645711507271
 21
1009.4275752030828
  0
LINE
  8
_0-0_
  6
CONTINUOUS
 62
    1
 10
1149.0145711507271
 20
1013.1775752030828
 11
1166.0145711507271
 21
1013.1775752030828
  0
LINE
  8
_0-0_
  6
CONTINUOUS
 62
    1
 10
1149.0145711507271
 20
1013.1775752030828
 11
1140.1698832006546
 21
1013.6411056569971
  0
LINE
  8
_0-0_
  6
CONTINUOUS
 62
    1
 10
1149.0145711507271
 20
1010.9275752030828
 11
1140.0522886794784
 21
1011.3972685247084
  0
LINE
  8
_0-0_
  6
CONTINUOUS
 62
    1
 10
1149.0145711507271
 20
1008.1775752030828
 11
1166.0145711507271
 21
1008.1775752030828
  0
LINE
  8
_0-0_
  6
CONTINUOUS
 62
    1
 10
1149.0145711507271
 20
1010.4275752030828
 11
1140.0522886794784
 21
1009.9578818814573
  0
LINE
  8
_0-0_
  6
CONTINUOUS
 62
    1
 10
1149.0145711507271
 20
1010.4275752030828
 11
1149.0145711507271
 21
1010.9275752030828
  0
LINE
  8
_0-0_
  6
CONTINUOUS
 62
    7
 10
1167.0145711507271
 20
996.09178876545525
 11
1167.0145711507271
 21
1002.9278567294334
  0
LINE
  8
_0-0_
  6
CONTINUOUS
 62
    7
 10
1167.0145711507271
 20
1018.4272936767304
 11
1167.0145711507271
 21
1026.2633616407095
  0
LINE
  8
_0-0_
  6
CONTINUOUS
 62
    7
 10
1167.0145711507271
 20
1002.9278567294343
 11
1167.0145711507271
 21
1002.9278567294343
  0
LINE
  8
_0-0_
  6
CONTINUOUS
 62
    7
 10
1167.0145711507271
 20
1002.9278567294343
 11
1168.4989617288611
 21
1006.3758429727911
  0
LINE
  8
_0-0_
  6
CONTINUOUS
 62
    7
 10
1168.4989617288611
 20
1006.3758429727911
 11
1169.1178685130758
 21
1009.9545351731838
  0
LINE
  8
_0-0_
  6
CONTINUOUS
 62
    7
 10
1169.1178685130758
 20
1009.9545351731838
 11
1168.8524863339146
 21
1013.5551965790091
  0
LINE
  8
_0-0_
  6
CONTINUOUS
 62
    7
 10
1168.8524863339146
 20
1013.5551965790091
 11
1167.7108786946012
 21
1017.0684229154735
  0
LINE
  8
_0-0_
  6
CONTINUOUS
 62
    7
 10
1167.7108786946012
 20
1017.0684229154735
 11
1167.0145711507271
 21
1018.4272936767313
  0
LINE
  8
_0-0_
  6
CENTER2
 62
    1
 10
1173.5047989157351
 20
1010.6775752030828
 11
1135.7277467032914
 21
1010.6775752030828
  0
LINE
  8
_0-0_
  6
CONTINUOUS
 62
    4
 10
1172.0145711507271
 20
998.57707013969434
 11
1172.0145711507271
 21
1001.7629596575955
  0
LINE
  8
_0-0_
  6
CONTINUOUS
 62
    4
 10
1172.0145711507271
 20
1001.7629596575965
 11
1172.0145711507271
 21
1001.7629596575965
  0
LINE
  8
_0-0_
  6
CONTINUOUS
 62
    4
 10
1172.0145711507271
 20
1001.7629596575965
 11
1173.5848788629226
 21
1006.0812482909107
  0
LINE
  8
_0-0_
  6
CONTINUOUS
 62
    4
 10
1173.5848788629226
 20
1006.0812482909107
 11
1174.1351697626783
 21
1010.5391939915977
  0
LINE
  8
_0-0_
  6
CONTINUOUS
 62
    4
 10
1174.1351697626783
 20
1010.5391939915977
 11
1173.6487235394661
 21
1015.0013443353713
  0
LINE
  8
_0-0_
  6
CONTINUOUS
 62
    4
 10
1173.6487235394661
 20
1015.0013443353713
 11
1172.1403206156242
 21
1019.3321191419932
  0
LINE
  8
_0-0_
  6
CONTINUOUS
 62
    4
 10
1172.1403206156242
 20
1019.3321191419932
 11
1172.0145711507271
 21
1019.5921907485691
  0
LINE
  8
_0-0_
  6
CONTINUOUS
 62
    4
 10
1172.0145711507271
 20
1019.5921907485683
 11
1172.0145711507271
 21
1027.7633616407095
  0
LINE
  8
_0-0_
  6
CONTINUOUS
 62
    4
 10
1172.0145711507271
 20
1027.7633616407095
 11
1170.0145711507271
 21
1029.7633616407095
  0
LINE
  8
_0-0_
  6
CONTINUOUS
 62
    7
 10
1223.2988423981892
 20
967.97909039324736
 11
1223.2988423981892
 21
969.97909039324736
  0
LINE
  8
_0-0_
  6
CONTINUOUS
 62
    7
 10
1193.127269522935
 20
969.97909039324736
 11
1199.9633374869131
 21
969.97909039324736
  0
LINE
  8
_0-0_
  6
CONTINUOUS
 62
    7
 10
1215.462774434211
 20
969.97909039324736
 11
1223.2988423981892
 21
969.97909039324736
  0
LINE
  8
_0-0_
  6
CONTINUOUS
 62
    7
 10
1215.4627744342101
 20
969.97909039324736
 11
1215.4627744342101
 21
969.97909039324736
  0
LINE
  8
_0-0_
  6
CONTINUOUS
 62
    7
 10
1215.4627744342101
 20
969.97909039324736
 11
1212.0147881908533
 21
971.4634809713815
  0
LINE
  8
_0-0_
  6
CONTINUOUS
 62
    7
 10
1212.0147881908533
 20
971.4634809713815
 11
1208.4360959904607
 21
972.08238775559607
  0
LINE
  8
_0-0_
  6
CONTINUOUS
 62
    7
 10
1208.4360959904607
 20
972.08238775559607
 11
1204.8354345846353
 21
971.81700557643478
  0
LINE
  8
_0-0_
  6
CONTINUOUS
 62
    7
 10
1204.8354345846353
 20
971.81700557643478
 11
1201.3222082481709
 21
970.6753979371216
  0
LINE
  8
_0-0_
  6
CONTINUOUS
 62
    7
 10
1201.3222082481709
 20
970.6753979371216
 11
1199.9633374869131
 21
969.97909039324736
  0
LINE
  8
_0-0_
  6
CONTINUOUS
 62
    4
 10
1172.0145711507271
 20
998.57707013969434
 11
1192.6125508971741
 21
977.97909039324736
  0
LINE
  8
_0-0_
  6
CONTINUOUS
 62
    4
 10
1192.6125508971741
 20
977.97909039324736
 11
1198.1556147611623
 21
977.97909039324736
  0
LINE
  8
_0-0_
  6
CONTINUOUS
 62
    4
 10
1217.2704971599617
 20
977.97909039324736
 11
1217.2704971599617
 21
977.97909039324736
  0
LINE
  8
_0-0_
  6
CONTINUOUS
 62
    4
 10
1217.2704971599617
 20
977.97909039324736
 11
1212.428857744633
 21
979.5950998569765
  0
LINE
  8
_0-0_
  6
CONTINUOUS
 62
    4
 10
1212.428857744633
 20
979.5950998569765
 11
1207.4439310784062
 21
980.098550401745
  0
LINE
  8
_0-0_
  6
CONTINUOUS
 62
    4
 10
1207.4439310784062
 20
980.098550401745
 11
1202.4671816355401
 21
979.4741449375083
  0
LINE
  8
_0-0_
  6
CONTINUOUS
 62
    4
 10
1202.4671816355401
 20
979.4741449375083
 11
1198.1556147611616
 21
977.97909039324736
  0
LINE
  8
_0-0_
  6
CONTINUOUS
 62
    4
 10
1224.7988423981892
 20
977.97909039324736
 11
1226.7988423981892
 21
975.97909039324736
  0
LINE
  8
_0-0_
  6
CONTINUOUS
 62
  136
 10
1164.0145711507271
 20
995.26336164070949
 11
1192.2988423981892
 21
966.97909039324736
  0
LINE
  8
_0-0_
  6
CONTINUOUS
 62
  136
 10
1192.2988423981892
 20
966.97909039324736
 11
1222.2988423981892
 21
966.97909039324736
  0
LINE
  8
_0-0_
  6
CONTINUOUS
 62
  136
 10
1222.2988423981892
 20
966.97909039324736
 11
1222.2988423981892
 21
968.97909039324736
  0
LINE
  8
_0-0_
  6
CONTINUOUS
 62
  136
 10
1164.0145711507271
 20
1025.2633616407095
 11
1164.0145711507271
 21
995.26336164070949
  0
LINE
  8
_0-0_
  6
CONTINUOUS
 62
  136
 10
1164.0145711507271
 20
1025.2633616407095
 11
1166.0145711507271
 21
1025.2633616407095
  0
LINE
  8
_0-0_
  6
CONTINUOUS
 62
  136
 10
1166.0145711507271
 20
1025.2633616407095
 11
1166.0145711507271
 21
996.09178876545525
  0
LINE
  8
_0-0_
  6
CONTINUOUS
 62
  136
 10
1193.127269522935
 20
968.97909039324736
 11
1222.2988423981892
 21
968.97909039324736
  0
LINE
  8
_0-0_
  6
DASHED1
 62
    1
 10
1206.4630559605616
 20
970.97909039324736
 11
1206.4630559605616
 21
900.22909039324736
  0
LINE
  8
_0-0_
  6
CONTINUOUS
 62
    1
 10
1205.8882272014721
 20
970.97909039324736
 11
1209.5378847196512
 21
970.97909039324736
  0
LINE
  8
_0-0_
  6
CONTINUOUS
 62
    1
 10
1205.8882272014721
 20
970.97909039324736
 11
1205.8882272014721
 21
970.97909039324736
  0
LINE
  8
_0-0_
  6
CONTINUOUS
 62
    1
 10
1205.8882272014721
 20
970.97909039324736
 11
1202.5124461684188
 21
970.10102435106046
  0
LINE
  8
_0-0_
  6
CONTINUOUS
 62
    1
 10
1202.5124461684188
 20
970.10102435106046
 11
1200.2130559605616
 21
968.97909039324736
  0
LINE
  8
_0-0_
  6
CONTINUOUS
 62
    1
 10
1209.191768391436
 20
971.14741901282343
 11
1209.191768391436
 21
971.14741901282343
  0
LINE
  8
_0-0_
  6
CONTINUOUS
 62
    1
 10
1209.191768391436
 20
971.14741901282343
 11
1208.9630559605616
 21
970.97909039324736
  0
LINE
  8
_0-0_
  6
CONTINUOUS
 62
    1
 10
1206.4630559605616
 20
970.97909039324736
 11
1206.4630559605616
 21
970.97909039324736
  0
LINE
  8
_0-0_
  6
CONTINUOUS
 62
    1
 10
1206.4630559605616
 20
970.97909039324736
 11
1206.2343435296873
 21
971.14741901282343
  0
LINE
  8
_0-0_
  6
CONTINUOUS
 62
    1
 10
1209.191768391436
 20
971.14741901282343
 11
1209.191768391436
 21
971.14741901282343
  0
LINE
  8
_0-0_
  6
CONTINUOUS
 62
    1
 10
1209.191768391436
 20
971.14741901282343
 11
1208.9354637626536
 21
971.1769586877241
  0
LINE
  8
_0-0_
  6
CONTINUOUS
 62
    1
 10
1208.9354637626536
 20
971.1769586877241
 11
1208.6420168913728
 21
971.20048623462321
  0
LINE
  8
_0-0_
  6
CONTINUOUS
 62
    1
 10
1208.6420168913728
 20
971.20048623462321
 11
1208.3203440122861
 21
971.21728678091392
  0
LINE
  8
_0-0_
  6
CONTINUOUS
 62
    1
 10
1208.3203440122861
 20
971.21728678091392
 11
1207.9802189930506
 21
971.22684985049852
  0
LINE
  8
_0-0_
  6
CONTINUOUS
 62
    1
 10
1207.9802189930506
 20
971.22684985049852
 11
1207.6319763602637
 21
971.22888487434682
  0
LINE
  8
_0-0_
  6
CONTINUOUS
 62
    1
 10
1207.6319763602637
 20
971.22888487434682
 11
1207.2861972901037
 21
971.22333001928905
  0
LINE
  8
_0-0_
  6
CONTINUOUS
 62
    1
 10
1207.2861972901037
 20
971.22333001928905
 11
1206.9533881046445
 21
971.21035406678527
  0
LINE
  8
_0-0_
  6
CONTINUOUS
 62
    1
 10
1206.9533881046445
 20
971.21035406678527
 11
1206.6436610425772
 21
971.19035128458597
  0
LINE
  8
_0-0_
  6
CONTINUOUS
 62
    1
 10
1206.6436610425772
 20
971.19035128458597
 11
1206.3664270039526
 21
971.16392944710663
  0
LINE
  8
_0-0_
  6
CONTINUOUS
 62
    1
 10
1206.3664270039526
 20
971.16392944710663
 11
1206.2343435296873
 21
971.14741901282355
  0
LINE
  8
_0-0_
  6
CONTINUOUS
 62
    1
 10
1205.2130559605616
 20
968.95195017504943
 11
1205.2130559605616
 21
968.97909039324736
  0
LINE
  8
_0-0_
  6
CONTINUOUS
 62
    1
 10
1215.2130559605616
 20
968.97909039324736
 11
1215.2130559605616
 21
968.97909039324736
  0
LINE
  8
_0-0_
  6
CONTINUOUS
 62
    1
 10
1215.2130559605616
 20
968.97909039324736
 11
1215.0814341799974
 21
969.05578271570835
  0
LINE
  8
_0-0_
  6
CONTINUOUS
 62
    1
 10
1215.0814341799974
 20
969.05578271570835
 11
1215.0814341799974
 21
969.05578271570835
  0
LINE
  8
_0-0_
  6
CONTINUOUS
 62
    1
 10
1215.0814341799974
 20
969.05578271570835
 11
1211.7997728872247
 21
970.48748409412906
  0
LINE
  8
_0-0_
  6
CONTINUOUS
 62
    1
 10
1211.7997728872247
 20
970.48748409412906
 11
1209.5378847196512
 21
970.97909039324736
  0
LINE
  8
_0-0_
  6
CONTINUOUS
 62
    1
 10
1215.2130559605616
 20
968.97909039324736
 11
1200.2130559605616
 21
968.97909039324736
  0
LINE
  8
_0-0_
  6
CONTINUOUS
 62
    1
 10
1210.2130559605616
 20
907.97909039324736
 11
1210.6765864144768
 21
899.13440244317485
  0
LINE
  8
_0-0_
  6
CONTINUOUS
 62
    1
 10
1207.7130559605616
 20
898.97909039324736
 11
1207.0273236543649
 21
899.66482269944413
  0
LINE
  8
_0-0_
  6
CONTINUOUS
 62
    1
 10
1207.7130559605616
 20
898.97909039324736
 11
1208.3987882667584
 21
899.66482269944413
  0
LINE
  8
_0-0_
  6
DASHED1
 62
    1
 10
1207.0273236543649
 20
899.66482269944413
 11
1206.4630559605616
 21
900.22909039324736
  0
LINE
  8
_0-0_
  6
CONTINUOUS
 62
    1
 10
1205.2130559605616
 20
907.97909039324736
 11
1204.7495255066474
 21
899.13440244317485
  0
LINE
  8
_0-0_
  6
CONTINUOUS
 62
    1
 10
1207.4630559605616
 20
907.97909039324736
 11
1206.9933626389361
 21
899.01680792199863
  0
LINE
  8
_0-0_
  6
CONTINUOUS
 62
    1
 10
1207.9630559605616
 20
907.97909039324736
 11
1208.4327492821872
 21
899.01680792199863
  0
LINE
  8
_0-0_
  6
DASHED1
 62
    1
 10
1208.3987882667584
 20
899.66482269944413
 11
1208.9630559605616
 21
900.22909039324736
  0
LINE
  8
_0-0_
  6
CONTINUOUS
 62
    1
 10
1210.6765864144768
 20
899.13440244317485
 11
1208.4327492821872
 21
899.01680792199863
  0
LINE
  8
_0-0_
  6
CONTINUOUS
 62
    1
 10
1206.9933626389361
 20
899.01680792199863
 11
1204.7495255066474
 21
899.13440244317485
  0
LINE
  8
_0-0_
  6
CONTINUOUS
 62
    1
 10
1207.9630559605616
 20
907.97909039324736
 11
1207.4630559605616
 21
907.97909039324736
  0
LINE
  8
_0-0_
  6
DASHED1
 62
    1
 10
1208.9630559605616
 20
970.97909039324736
 11
1208.9630559605616
 21
900.22909039324736
  0
LINE
  8
_0-0_
  6
CENTER2
 62
    1
 10
1207.7130559605616
 20
979.53418080474353
 11
1207.7130559605616
 21
894.44873715989183
  0
LINE
  8
_0-0_
  6
CONTINUOUS
 62
    1
 10
1210.2130559605616
 20
907.97909039324736
 11
1210.2130559605616
 21
968.97909039324736
  0
LINE
  8
_0-0_
  6
CONTINUOUS
 62
    1
 10
1205.2130559605616
 20
907.97909039324736
 11
1205.2130559605616
 21
968.97909039324736
  0
LINE
  8
_0-0_
  6
CONTINUOUS
 62
    7
 10
1165.0145711507271
 20
1026.2633616407095
 11
1165.0145711507271
 21
1064.0917887654552
  0
LINE
  8
_0-0_
  6
CONTINUOUS
 62
    7
 10
1165.0145711507271
 20
1064.0917887654552
 11
1164.0145711507271
 21
1064.0917887654552
  0
LINE
  8
_0-0_
  6
CONTINUOUS
 62
    1
 10
1212.7130559605616
 20
925.97909039324736
 11
1202.7130559605616
 21
925.97909039324736
  0
LINE
  8
_0-0_
  6
CONTINUOUS
 62
    1
 10
1202.7130559605616
 20
925.97909039324736
 11
1202.7130559605616
 21
960.97909039324736
  0
LINE
  8
_0-0_
  6
CONTINUOUS
 62
    1
 10
1202.7130559605616
 20
960.97909039324736
 11
1212.7130559605616
 21
960.97909039324736
  0
LINE
  8
_0-0_
  6
CONTINUOUS
 62
    1
 10
1212.7130559605616
 20
960.97909039324736
 11
1212.7130559605616
 21
925.97909039324736
  0
LINE
  8
_0-0_
  6
CONTINUOUS
 62
    1
 10
1203.7130559605616
 20
925.97909039324736
 11
1203.7130559605616
 21
960.97909039324736
  0
LINE
  8
_0-0_
  6
CONTINUOUS
 62
    1
 10
1211.7130559605616
 20
960.97909039324736
 11
1211.7130559605616
 21
925.97909039324736
  0
CIRCLE
  8
_0-0_
  6
DASHED2
 62
    1
 10
1192.2988423981892
 20
966.97909039324736
 40
80
  0
TEXT
  8
_0-0_
 62
    7
 10
1179.9042955631917
 20
1035.0581136290514
 40
24
 41
1
 50
0
  1
Ｂ
  0
LINE
  8
_0-0_
  6
CONTINUOUS
 62
    7
 10
1164.0145711507271
 20
925.97909039324736
 11
1425.445940150727
 21
925.97909039324736
  0
LINE
  8
_0-0_
  6
CONTINUOUS
 62
    4
 10
1170.0145711507271
 20
1214.3421461220307
 11
1170.0145711507271
 21
1029.7633616407095
  0
LINE
  8
_0-0_
  6
CONTINUOUS
 62
    4
 10
1226.7988423981892
 20
975.97909039324736
 11
1485.1534388798705
 21
975.97909039324736
  0
LINE
  8
_0-0_
  6
CONTINUOUS
 62
    3
 10
1164.0145711507271
 20
966.97909039324736
 11
1485.1534388798705
 21
966.97909039324736
  0
LINE
  8
_0-0_
  6
CONTINUOUS
 62
    6
 10
1485.1534388798705
 20
960.97909039324736
 11
1164.0145711507271
 21
960.97909039324736
  0
LINE
  8
_0-0_
  6
CONTINUOUS
 62
    6
 10
1391.0997030694448
 20
925.97909039324736
 11
1426.0997030694448
 21
960.97909039324736
  0
LINE
  8
_0-0_
  6
CONTINUOUS
 62
    6
 10
1405.2418386931754
 20
925.97909039324827
 11
1440.2418386931754
 21
960.97909039324736
  0
LINE
  8
_0-0_
  6
CONTINUOUS
 62
    6
 10
1419.383974316906
 20
925.97909039324736
 11
1454.3839743169078
 21
960.97909039324736
  0
LINE
  8
_0-0_
  6
CONTINUOUS
 62
    6
 10
1433.5261099406375
 20
925.97909039324736
 11
1468.5261099406393
 21
960.97909039324736
  0
LINE
  8
_0-0_
  6
CONTINUOUS
 62
    6
 10
1398.3699662565673
 20
960.97909039324827
 11
1433.3699662565691
 21
925.97909039324736
  0
LINE
  8
_0-0_
  6
CONTINUOUS
 62
    6
 10
1447.668245564369
 20
925.97909039324736
 11
1482.66824556437
 21
960.97909039324736
  0
LINE
  8
_0-0_
  6
CONTINUOUS
 62
    6
 10
1412.5121018802979
 20
960.97909039324827
 11
1447.5121018802997
 21
925.97909039324736
  0
LINE
  8
_0-0_
  6
CONTINUOUS
 62
    6
 10
1426.6542375040303
 20
960.97909039324736
 11
1461.732309346065
 21
925.9010185512127
  0
LINE
  8
_0-0_
  6
CONTINUOUS
 62
    6
 10
1440.7963731277619
 20
960.97909039324736
 11
1475.8744449697965
 21
925.9010185512127
  0
LINE
  8
_0-0_
  6
CONTINUOUS
 62
    6
 10
1454.9385087514925
 20
960.97909039324736
 11
1485.1534388798705
 21
930.76416026487027
  0
LINE
  8
_0-0_
  6
CONTINUOUS
 62
    6
 10
1483.2227799989555
 20
960.97909039324736
 11
1485.1534388798705
 21
959.0484315123324
  0
LINE
  8
_0-0_
  6
CONTINUOUS
 62
    6
 10
1461.8103811880997
 20
925.97909039324736
 11
1485.1534388798705
 21
949.32214808501726
  0
LINE
  8
_0-0_
  6
CONTINUOUS
 62
    6
 10
1469.080644375224
 20
960.97909039324736
 11
1485.1534388798705
 21
944.90629588860088
  0
LINE
  8
_0-0_
  6
CONTINUOUS
 62
    6
 10
1475.8744449697965
 20
925.9010185512127
 11
1485.1534388798705
 21
935.18001246128574
  0
POINT
  8
_0-0_
 62
    7
 10
1392.7127364789608
 20
348.59283847785014
  0
LINE
  8
_0-0_
  6
CONTINUOUS
 62
    7
 10
1392.7127364789608
 20
348.59283847785014
 11
1438.2354922764175
 21
427.44056441959515
  0
TEXT
  8
_0-0_
 62
    7
 10
1440.0694006275485
 20
417.58659917708542
 40
21.617968000000001
 41
1
 50
0
  1
ﾗﾝｽﾛｯｸｷｬﾝﾄ
  0
TEXT
  8
_0-0_
 62
    7
 10
1480.8941111004683
 20
387.78456053185187
 40
21.617968000000001
 41
1
 50
0
  1
FJﾃｰﾌﾟ
  0
LINE
  8
_0-0_
  6
CONTINUOUS
 62
    7
 10
1449.8418156970033
 20
347.08742727916001
 11
1478.7554611082128
 21
397.16733016340481
  0
POINT
  8
_0-0_
 62
    7
 10
1449.8418156970033
 20
347.08742727916001
  0
TEXT
  8
_0-0_
 62
    7
 10
1571.5249683503512
 20
404.06705889636692
 40
21.617968000000001
 41
1
 50
0
  1
ﾗﾝｽﾛｯｸｼｰﾄ
  0
POINT
  8
_0-0_
 62
    7
 10
1530.9205576593754
 20
346.05082128659092
  0
LINE
  8
_0-0_
  6
CONTINUOUS
 62
    7
 10
1530.9205576593754
 20
346.05082128659092
 11
1570.2892048408789
 21
414.23931843020659
  0
POINT
  8
_0-0_
 62
    7
 10
1544.4205576593736
 20
332.55082128659092
  0
TEXT
  8
_0-0_
 62
    7
 10
1579.6870399574796
 20
317.55786282111262
 40
21.617968000000001
 41
1
 50
0
  1
断熱材
  0
POINT
  8
_0-0_
 62
    7
 10
1543.7967064204672
 20
269.53506221870816
  0
LINE
  8
_0-0_
  6
CONTINUOUS
 62
    7
 10
1543.7967064204672
 20
269.53506221870816
 11
1578.3861536971976
 21
329.44574230773037
  0
TEXT
  8
_0-0_
 62
    7
 10
1569.1580748858382
 20
360.51604031341162
 40
21.617968000000001
 41
1
 50
0
  1
ﾌﾟﾗｲﾏｰ
  0
LINE
  8
_0-0_
  6
CONTINUOUS
 62
    7
 10
1544.4205576593736
 20
332.55082128659092
 11
1566.4855073223966
 21
370.76843516939812
  0
POINT
  8
_0-0_
 62
    7
 10
1278.7216138466133
 20
444.40500947037913
  0
LINE
  8
_0-0_
  6
CONTINUOUS
 62
    7
 10
1278.7216138466133
 20
444.40500947037913
 11
1440.654204955626
 21
475.47423833472681
  0
TEXT
  8
_0-0_
 62
    7
 10
1313.5760117955774
 20
528.13423702207297
 40
21.617968000000001
 41
1
 50
0
  1
ﾄｯﾌﾟｺｰﾄ
  0
TEXT
  8
_0-0_
 62
    7
 10
1315.3365308953285
 20
493.80411457693049
 40
21.617968000000001
 41
1
 50
0
  1
ｳﾚﾀﾝ防水
  0
POINT
  8
_0-0_
 62
    7
 10
1289.67935989839
 20
464.43029708606377
  0
LINE
  8
_0-0_
  6
CONTINUOUS
 62
    7
 10
1289.67935989839
 20
464.43029708606377
 11
1312.5750326420361
 21
504.08676555152965
  0
POINT
  8
_0-0_
 62
    7
 10
1285.17935989839
 20
487.31543159338003
  0
LINE
  8
_0-0_
  6
CONTINUOUS
 62
    7
 10
1285.17935989839
 20
487.31543159338003
 11
1313.339085381263
 21
536.08950685690729
  0
TEXT
  8
_0-0_
 62
    7
 10
1442.8247160576379
 20
468.02993972926674
 40
21.617968000000001
 41
1
 50
0
  1
ｱﾙﾐｻｽｱﾝｶｰ
  0
POINT
  8
_0-0_
 62
    7
 10
1369.8314020689827
 20
352.80554540062553
  0
LINE
  8
_0-0_
  6
CONTINUOUS
 62
    7
 10
1369.8314020689827
 20
352.80554540062553
 11
1440.654204955626
 21
475.47423833472681
  0
LINE
  8
_0-0_
  6
CONTINUOUS
 62
    7
 10
1208.0340048916592
 20
500.3438336847114
 11
1255.3189702051791
 21
547.62879899822951
  0
LINE
  8
_0-0_
  6
CONTINUOUS
 62
    7
 10
1208.0340048916592
 20
516.25373626140686
 11
1239.4090676284818
 21
547.62879899822951
  0
LINE
  8
_0-0_
  6
CONTINUOUS
 62
    7
 10
1208.0340048916592
 20
532.16363883810413
 11
1223.4991650517845
 21
547.62879899822951
  0
LINE
  8
_0-0_
  6
CONTINUOUS
 62
    7
 10
1415.5744827494996
 20
182.85752651154075
 11
1486.5177775245497
 21
253.80082128659092
  0
LINE
  8
_0-0_
  6
CONTINUOUS
 62
    7
 10
1399.6645801728023
 20
182.85752651154075
 11
1470.6078749478525
 21
253.80082128659092
  0
LINE
  8
_0-0_
  6
CONTINUOUS
 62
    7
 10
1383.754677596105
 20
182.85752651154075
 11
1454.6979723711543
 21
253.80082128659092
  0
LINE
  8
_0-0_
  6
CONTINUOUS
 62
    7
 10
1271.67935989839
 20
253.80082128659092
 11
1559.5309473525881
 21
253.80082128659092
  0
LINE
  8
_0-0_
  6
CONTINUOUS
 62
    6
 10
1512.6007525059817
 20
332.55082128658728
 11
1559.5309473525872
 21
285.62062643998183
  0
LINE
  8
_0-0_
  6
CONTINUOUS
 62
    6
 10
1528.0624654883491
 20
253.80082128659092
 11
1559.5309473525872
 21
285.26930315082905
  0
LINE
  8
_0-0_
  6
CONTINUOUS
 62
    6
 10
1544.4205576593736
 20
332.55082128659092
 11
1559.5309473525872
 21
317.44043159337639
  0
LINE
  8
_0-0_
  6
CONTINUOUS
 62
    6
 10
1496.2426603349545
 20
253.80082128659092
 11
1559.5309473525872
 21
317.0891083042236
  0
LINE
  8
_0-0_
  6
CONTINUOUS
 62
    6
 10
1271.67935989839
 20
253.80082128659092
 11
1559.5309473525881
 21
253.80082128659092
  0
LINE
  8
_0-0_
  6
CONTINUOUS
 62
    6
 10
1559.5309473525872
 20
332.55082128659092
 11
1271.67935989839
 21
332.55082128659092
  0
LINE
  8
_0-0_
  6
CONTINUOUS
 62
    3
 10
1271.67935989839
 20
346.05082128659092
 11
1559.5309473525872
 21
346.05082128659092
  0
LINE
  8
_0-0_
  6
CONTINUOUS
 62
    4
 10
1412.9439702051791
 20
366.30082128659092
 11
1559.5309473525872
 21
366.30082128659092
  0
LINE
  8
_0-0_
  6
CONTINUOUS
 62
    7
 10
1271.67935989839
 20
253.80082128659092
 11
1271.67935989839
 21
547.62879899822951
  0
LINE
  8
_0-0_
  6
CONTINUOUS
 62
    7
 10
1273.92935989839
 20
479.44043159338003
 11
1273.92935989839
 21
547.62879899822951
  0
LINE
  8
_0-0_
  6
CONTINUOUS
 62
    1
 10
1379.0009507205173
 20
332.55082128659092
 11
1379.0009507205173
 21
253.80082128659092
  0
LINE
  8
_0-0_
  6
CONTINUOUS
 62
    1
 10
1361.0009507205173
 20
253.80082128659092
 11
1361.0009507205173
 21
332.55082128659092
  0
LINE
  8
_0-0_
  6
CONTINUOUS
 62
    1
 10
1381.2509507205173
 20
332.55082128659092
 11
1381.2509507205173
 21
253.80082128659092
  0
LINE
  8
_0-0_
  6
CONTINUOUS
 62
    1
 10
1358.7509507205173
 20
332.55082128659092
 11
1381.2509507205173
 21
332.55082128659092
  0
LINE
  8
_0-0_
  6
CONTINUOUS
 62
    1
 10
1358.7509507205173
 20
253.80082128659092
 11
1358.7509507205173
 21
332.55082128659092
  0
LINE
  8
_0-0_
  6
CONTINUOUS
 62
    1
 10
1381.2509507205173
 20
253.80082128659092
 11
1358.7509507205173
 21
253.80082128659092
  0
LINE
  8
_0-0_
  6
CONTINUOUS
 62
    1
 10
1364.3759507205173
 20
213.30082128659092
 11
1364.3759507205173
 21
350.55082128659092
  0
LINE
  8
_0-0_
  6
CONTINUOUS
 62
    1
 10
1375.6259507205173
 20
213.30082128659092
 11
1375.6259507205173
 21
350.55082128659092
  0
LINE
  8
_0-0_
  6
CENTER2
 62
    1
 10
1370.0009507205173
 20
374.29977471245479
 11
1370.0009507205173
 21
182.85752651154075
  0
LINE
  8
_0-0_
  6
DASHED1
 62
    1
 10
1372.8134507205173
 20
355.05082128659092
 11
1372.8134507205173
 21
195.86332128659092
  0
LINE
  8
_0-0_
  6
CONTINUOUS
 62
    1
 10
1370.5634507205173
 20
213.30082128659092
 11
1369.4384507205173
 21
213.30082128659092
  0
LINE
  8
_0-0_
  6
CONTINUOUS
 62
    1
 10
1368.3816407468598
 20
193.13568572628105
 11
1363.33300719921
 21
193.40027339892663
  0
LINE
  8
_0-0_
  6
CONTINUOUS
 62
    1
 10
1376.6688942418264
 20
193.40027339892663
 11
1371.6202606941747
 21
193.13568572628105
  0
LINE
  8
_0-0_
  6
DASHED1
 62
    1
 10
1371.5438484094607
 20
194.59371897553251
 11
1372.8134507205173
 21
195.86332128659092
  0
LINE
  8
_0-0_
  6
CONTINUOUS
 62
    1
 10
1370.5634507205173
 20
213.30082128659092
 11
1371.6202606941747
 21
193.13568572628105
  0
LINE
  8
_0-0_
  6
CONTINUOUS
 62
    1
 10
1369.4384507205173
 20
213.30082128659092
 11
1368.3816407468598
 21
193.13568572628105
  0
LINE
  8
_0-0_
  6
CONTINUOUS
 62
    1
 10
1364.3759507205173
 20
213.30082128659092
 11
1363.33300719921
 21
193.40027339892663
  0
LINE
  8
_0-0_
  6
DASHED1
 62
    1
 10
1368.4580530315748
 20
194.59371897553251
 11
1367.1884507205173
 21
195.86332128659092
  0
LINE
  8
_0-0_
  6
CONTINUOUS
 62
    1
 10
1370.0009507205173
 20
193.05082128659092
 11
1371.5438484094607
 21
194.59371897553251
  0
LINE
  8
_0-0_
  6
CONTINUOUS
 62
    1
 10
1370.0009507205173
 20
193.05082128659092
 11
1368.4580530315748
 21
194.59371897553251
  0
LINE
  8
_0-0_
  6
CONTINUOUS
 62
    1
 10
1375.6259507205173
 20
213.30082128659092
 11
1376.6688942418264
 21
193.40027339892663
  0
LINE
  8
_0-0_
  6
CONTINUOUS
 62
    1
 10
1386.8759507205173
 20
350.55082128659092
 11
1353.1259507205173
 21
350.55082128659092
  0
LINE
  8
_0-0_
  6
CONTINUOUS
 62
    1
 10
1386.5798017142477
 20
350.72337901212819
 11
1386.5798017142477
 21
350.72337901212819
  0
LINE
  8
_0-0_
  6
CONTINUOUS
 62
    1
 10
1386.5798017142477
 20
350.72337901212819
 11
1379.1960638055089
 21
353.94470711357468
  0
LINE
  8
_0-0_
  6
CONTINUOUS
 62
    1
 10
1379.1960638055089
 20
353.94470711357468
 11
1374.1068154284687
 21
355.05082128659092
  0
LINE
  8
_0-0_
  6
CONTINUOUS
 62
    1
 10
1386.8759507205173
 20
350.55082128659092
 11
1386.8759507205173
 21
350.55082128659092
  0
LINE
  8
_0-0_
  6
CONTINUOUS
 62
    1
 10
1386.8759507205173
 20
350.55082128659092
 11
1386.5798017142477
 21
350.72337901212819
  0
LINE
  8
_0-0_
  6
CONTINUOUS
 62
    1
 10
1364.3759507205173
 20
350.48975579564399
 11
1364.3759507205173
 21
350.55082128659092
  0
LINE
  8
_0-0_
  6
CONTINUOUS
 62
    1
 10
1373.3280536899845
 20
355.42956068063717
 11
1373.3280536899845
 21
355.42956068063717
  0
LINE
  8
_0-0_
  6
CONTINUOUS
 62
    1
 10
1373.3280536899845
 20
355.42956068063717
 11
1372.751368275224
 21
355.4960249491636
  0
LINE
  8
_0-0_
  6
CONTINUOUS
 62
    1
 10
1372.751368275224
 20
355.4960249491636
 11
1372.0911128148423
 21
355.5489619296867
  0
LINE
  8
_0-0_
  6
CONTINUOUS
 62
    1
 10
1372.0911128148423
 20
355.5489619296867
 11
1371.3673488368975
 21
355.5867631588406
  0
LINE
  8
_0-0_
  6
CONTINUOUS
 62
    1
 10
1371.3673488368975
 20
355.5867631588406
 11
1370.6020675436173
 21
355.60828006540589
  0
LINE
  8
_0-0_
  6
CONTINUOUS
 62
    1
 10
1370.6020675436173
 20
355.60828006540589
 11
1369.8185216198469
 21
355.61285886906467
  0
LINE
  8
_0-0_
  6
CONTINUOUS
 62
    1
 10
1369.8185216198469
 20
355.61285886906467
 11
1369.0405187119868
 21
355.60036044518472
  0
LINE
  8
_0-0_
  6
CONTINUOUS
 62
    1
 10
1369.0405187119868
 20
355.60036044518472
 11
1368.2916980447039
 21
355.57116455205113
  0
LINE
  8
_0-0_
  6
CONTINUOUS
 62
    1
 10
1368.2916980447039
 20
355.57116455205113
 11
1367.5948121550521
 21
355.52615829210288
  0
LINE
  8
_0-0_
  6
CONTINUOUS
 62
    1
 10
1367.5948121550521
 20
355.52615829210288
 11
1366.971035568147
 21
355.46670915777435
  0
LINE
  8
_0-0_
  6
CONTINUOUS
 62
    1
 10
1366.971035568147
 20
355.46670915777435
 11
1366.6738477510503
 21
355.42956068063722
  0
LINE
  8
_0-0_
  6
CONTINUOUS
 62
    1
 10
1367.1884507205173
 20
355.05082128659092
 11
1367.1884507205173
 21
355.05082128659092
  0
LINE
  8
_0-0_
  6
CONTINUOUS
 62
    1
 10
1367.1884507205173
 20
355.05082128659092
 11
1366.6738477510503
 21
355.42956068063717
  0
LINE
  8
_0-0_
  6
CONTINUOUS
 62
    1
 10
1373.3280536899842
 20
355.42956068063717
 11
1373.3280536899842
 21
355.42956068063717
  0
LINE
  8
_0-0_
  6
CONTINUOUS
 62
    1
 10
1373.3280536899842
 20
355.42956068063717
 11
1372.8134507205173
 21
355.05082128659092
  0
LINE
  8
_0-0_
  6
CONTINUOUS
 62
    1
 10
1365.8950860125658
 20
355.05082128659092
 11
1365.8950860125658
 21
355.05082128659092
  0
LINE
  8
_0-0_
  6
CONTINUOUS
 62
    1
 10
1365.8950860125658
 20
355.05082128659092
 11
1358.2995786881959
 21
353.07517269167039
  0
LINE
  8
_0-0_
  6
CONTINUOUS
 62
    1
 10
1358.2995786881959
 20
353.07517269167039
 11
1353.1259507205173
 21
350.55082128659092
  0
LINE
  8
_0-0_
  6
CONTINUOUS
 62
    1
 10
1365.8950860125656
 20
355.05082128659092
 11
1374.106815428469
 21
355.05082128659092
  0
LINE
  8
_0-0_
  6
DASHED1
 62
    1
 10
1367.1884507205173
 20
355.05082128659092
 11
1367.1884507205173
 21
195.86332128659092
  0
LINE
  8
_0-0_
  6
CONTINUOUS
 62
  136
 10
1337.1829312358573
 20
350.55082128659092
 11
1402.8189702051791
 21
350.55082128659092
  0
LINE
  8
_0-0_
  6
CONTINUOUS
 62
  136
 10
1276.17935989839
 20
477.19043159338003
 11
1276.17935989839
 21
411.55439262405821
  0
LINE
  8
_0-0_
  6
CONTINUOUS
 62
  136
 10
1271.67935989839
 20
477.19043159338003
 11
1276.17935989839
 21
477.19043159338003
  0
LINE
  8
_0-0_
  6
CONTINUOUS
 62
  136
 10
1271.67935989839
 20
477.19043159338003
 11
1271.67935989839
 21
409.69043159338003
  0
LINE
  8
_0-0_
  6
CONTINUOUS
 62
  136
 10
1402.8189702051791
 20
346.05082128659092
 11
1402.8189702051791
 21
350.55082128659092
  0
LINE
  8
_0-0_
  6
CONTINUOUS
 62
  136
 10
1335.3189702051791
 20
346.05082128659092
 11
1402.8189702051791
 21
346.05082128659092
  0
LINE
  8
_0-0_
  6
CONTINUOUS
 62
  136
 10
1271.67935989839
 20
409.69043159338003
 11
1335.3189702051791
 21
346.05082128659092
  0
LINE
  8
_0-0_
  6
CONTINUOUS
 62
    4
 10
1408.4439702051791
 20
370.80082128659092
 11
1412.9439702051791
 21
366.30082128659092
  0
LINE
  8
_0-0_
  6
CONTINUOUS
 62
    4
 10
1391.5051934191672
 20
370.80082128659092
 11
1391.5051934191672
 21
370.80082128659092
  0
LINE
  8
_0-0_
  6
CONTINUOUS
 62
    4
 10
1391.5051934191672
 20
370.80082128659092
 11
1380.611504734678
 21
374.43684257998143
  0
LINE
  8
_0-0_
  6
CONTINUOUS
 62
    4
 10
1380.611504734678
 20
374.43684257998143
 11
1369.3954197356677
 21
375.56960630571052
  0
LINE
  8
_0-0_
  6
CONTINUOUS
 62
    4
 10
1369.3954197356677
 20
375.56960630571052
 11
1358.1977334892188
 21
374.16469401117814
  0
LINE
  8
_0-0_
  6
CONTINUOUS
 62
    4
 10
1358.1977334892188
 20
374.16469401117814
 11
1348.4967080218673
 21
370.80082128659092
  0
LINE
  8
_0-0_
  6
CONTINUOUS
 62
    4
 10
1336.0248143278955
 20
370.80082128659092
 11
1348.4967080218689
 21
370.80082128659092
  0
LINE
  8
_0-0_
  6
CONTINUOUS
 62
    4
 10
1289.67935989839
 20
417.1462757160964
 11
1336.0248143278955
 21
370.80082128659092
  0
LINE
  8
_0-0_
  6
CONTINUOUS
 62
    7
 10
1387.4378172862264
 20
352.80082128659092
 11
1387.4378172862264
 21
352.80082128659092
  0
LINE
  8
_0-0_
  6
CONTINUOUS
 62
    7
 10
1387.4378172862264
 20
352.80082128659092
 11
1379.6798482386735
 21
356.1407000873927
  0
LINE
  8
_0-0_
  6
CONTINUOUS
 62
    7
 10
1379.6798482386735
 20
356.1407000873927
 11
1371.62779078779
 21
357.53324035187563
  0
LINE
  8
_0-0_
  6
CONTINUOUS
 62
    7
 10
1371.62779078779
 20
357.53324035187563
 11
1363.5263026246832
 21
356.9361304487627
  0
LINE
  8
_0-0_
  6
CONTINUOUS
 62
    7
 10
1363.5263026246832
 20
356.9361304487627
 11
1355.6215433676382
 21
354.36751326030793
  0
LINE
  8
_0-0_
  6
CONTINUOUS
 62
    7
 10
1355.6215433676382
 20
354.36751326030793
 11
1352.5640841548081
 21
352.80082128659092
  0
LINE
  8
_0-0_
  6
CONTINUOUS
 62
    7
 10
1387.4378172862284
 20
352.80082128659092
 11
1405.0689702051791
 21
352.80082128659092
  0
LINE
  8
_0-0_
  6
CONTINUOUS
 62
    7
 10
1337.1829312358573
 20
352.80082128659092
 11
1352.5640841548079
 21
352.80082128659092
  0
LINE
  8
_0-0_
  6
CONTINUOUS
 62
    7
 10
1405.0689702051791
 20
348.30082128659092
 11
1405.0689702051791
 21
352.80082128659092
  0
LINE
  8
_0-0_
  6
CONTINUOUS
 62
    4
 10
1289.67935989839
 20
482.81543159338003
 11
1285.17935989839
 21
487.31543159338003
  0
LINE
  8
_0-0_
  6
CONTINUOUS
 62
    4
 10
1289.67935989839
 20
464.43029708606196
 11
1289.67935989839
 21
482.81543159338003
  0
LINE
  8
_0-0_
  6
CONTINUOUS
 62
    4
 10
1289.6793598983891
 20
424.31452713137497
 11
1289.6793598983891
 21
424.31452713137497
  0
LINE
  8
_0-0_
  6
CONTINUOUS
 62
    4
 10
1289.6793598983891
 20
424.31452713137497
 11
1293.212552250829
 21
434.03067655633197
  0
LINE
  8
_0-0_
  6
CONTINUOUS
 62
    4
 10
1293.212552250829
 20
434.03067655633197
 11
1294.4507067752795
 21
444.06105438287756
  0
LINE
  8
_0-0_
  6
CONTINUOUS
 62
    4
 10
1294.4507067752795
 20
444.06105438287756
 11
1293.3562027730516
 21
454.10089265636827
  0
LINE
  8
_0-0_
  6
CONTINUOUS
 62
    4
 10
1293.3562027730516
 20
454.10089265636827
 11
1289.9622961944074
 21
463.84513597126733
  0
LINE
  8
_0-0_
  6
CONTINUOUS
 62
    4
 10
1289.9622961944074
 20
463.84513597126733
 11
1289.6793598983891
 21
464.43029708606326
  0
LINE
  8
_0-0_
  6
CONTINUOUS
 62
    4
 10
1289.67935989839
 20
417.1462757160964
 11
1289.67935989839
 21
424.31452713137446
  0
LINE
  8
_0-0_
  6
CENTER2
 62
    1
 10
1293.0323723696579
 20
444.37241210871912
 11
1208.0340048916592
 21
444.37241210871912
  0
LINE
  8
_0-0_
  6
CONTINUOUS
 62
    7
 10
1278.4293598983891
 20
426.93554554300999
 11
1278.4293598983891
 21
426.93554554300999
  0
LINE
  8
_0-0_
  6
CONTINUOUS
 62
    7
 10
1278.4293598983891
 20
426.93554554300999
 11
1281.7692386991907
 21
434.69351459056281
  0
LINE
  8
_0-0_
  6
CONTINUOUS
 62
    7
 10
1281.7692386991907
 20
434.69351459056281
 11
1283.1617789636737
 21
442.74557204144639
  0
LINE
  8
_0-0_
  6
CONTINUOUS
 62
    7
 10
1283.1617789636737
 20
442.74557204144639
 11
1282.5646690605608
 21
450.84706020455326
  0
LINE
  8
_0-0_
  6
CONTINUOUS
 62
    7
 10
1282.5646690605608
 20
450.84706020455326
 11
1279.9960518721061
 21
458.75181946159819
  0
LINE
  8
_0-0_
  6
CONTINUOUS
 62
    7
 10
1279.9960518721061
 20
458.75181946159819
 11
1278.4293598983891
 21
461.80927867442824
  0
LINE
  8
_0-0_
  6
CONTINUOUS
 62
    7
 10
1278.42935989839
 20
461.80927867442847
 11
1278.42935989839
 21
479.44043159338003
  0
LINE
  8
_0-0_
  6
CONTINUOUS
 62
    7
 10
1278.42935989839
 20
411.55439262405821
 11
1278.42935989839
 21
426.93554554300977
  0
LINE
  8
_0-0_
  6
CONTINUOUS
 62
    1
 10
1237.9293598983891
 20
443.80991210871912
 11
1237.9293598983891
 21
444.93491210871912
  0
LINE
  8
_0-0_
  6
CONTINUOUS
 62
    1
 10
1237.9293598983891
 20
443.80991210871912
 11
1217.7642243380801
 21
442.75310213505986
  0
LINE
  8
_0-0_
  6
CONTINUOUS
 62
    1
 10
1237.9293598983891
 20
438.74741210871912
 11
1276.17935989839
 21
438.74741210871912
  0
LINE
  8
_0-0_
  6
CONTINUOUS
 62
    1
 10
1237.9293598983891
 20
444.93491210871912
 11
1217.7642243380801
 21
445.99172208237474
  0
LINE
  8
_0-0_
  6
CONTINUOUS
 62
    1
 10
1237.9293598983891
 20
449.99741210871912
 11
1218.0288120107266
 21
451.04035563002731
  0
LINE
  8
_0-0_
  6
CONTINUOUS
 62
    1
 10
1237.9293598983891
 20
449.99741210871912
 11
1276.17935989839
 21
449.99741210871912
  0
LINE
  8
_0-0_
  6
DASHED1
 62
    1
 10
1280.67935989839
 20
441.55991210871912
 11
1220.4918598983891
 21
441.55991210871912
  0
LINE
  8
_0-0_
  6
DASHED1
 62
    1
 10
1280.67935989839
 20
447.18491210871912
 11
1220.4918598983891
 21
447.18491210871912
  0
LINE
  8
_0-0_
  6
CONTINUOUS
 62
    1
 10
1281.0580992924363
 20
441.04530913925191
 11
1281.0580992924363
 21
441.04530913925191
  0
LINE
  8
_0-0_
  6
CONTINUOUS
 62
    1
 10
1281.0580992924363
 20
441.04530913925191
 11
1281.1245635609628
 21
441.62199455401236
  0
LINE
  8
_0-0_
  6
CONTINUOUS
 62
    1
 10
1281.1245635609628
 20
441.62199455401236
 11
1281.1775005414856
 21
442.28225001439415
  0
LINE
  8
_0-0_
  6
CONTINUOUS
 62
    1
 10
1281.1775005414856
 20
442.28225001439415
 11
1281.2153017706396
 21
443.00601399233892
  0
LINE
  8
_0-0_
  6
CONTINUOUS
 62
    1
 10
1281.2153017706396
 20
443.00601399233892
 11
1281.2368186772051
 21
443.77129528561915
  0
LINE
  8
_0-0_
  6
CONTINUOUS
 62
    1
 10
1281.2368186772051
 20
443.77129528561915
 11
1281.2413974808637
 21
444.55484120938945
  0
LINE
  8
_0-0_
  6
CONTINUOUS
 62
    1
 10
1281.2413974808637
 20
444.55484120938945
 11
1281.2288990569837
 21
445.33284411724946
  0
LINE
  8
_0-0_
  6
CONTINUOUS
 62
    1
 10
1281.2288990569837
 20
445.33284411724946
 11
1281.1997031638502
 21
446.08166478453234
  0
LINE
  8
_0-0_
  6
CONTINUOUS
 62
    1
 10
1281.1997031638502
 20
446.08166478453234
 11
1281.154696903902
 21
446.7785506741842
  0
LINE
  8
_0-0_
  6
CONTINUOUS
 62
    1
 10
1281.154696903902
 20
446.7785506741842
 11
1281.0952477695735
 21
447.40232726108928
  0
LINE
  8
_0-0_
  6
CONTINUOUS
 62
    1
 10
1281.0952477695735
 20
447.40232726108928
 11
1281.0580992924363
 21
447.69951507818615
  0
LINE
  8
_0-0_
  6
CONTINUOUS
 62
    1
 10
1280.67935989839
 20
447.18491210871912
 11
1280.67935989839
 21
447.18491210871912
  0
LINE
  8
_0-0_
  6
CONTINUOUS
 62
    1
 10
1280.67935989839
 20
447.18491210871912
 11
1281.0580992924363
 21
447.69951507818615
  0
LINE
  8
_0-0_
  6
CONTINUOUS
 62
    1
 10
1281.0580992924363
 20
441.04530913925208
 11
1281.0580992924363
 21
441.04530913925208
  0
LINE
  8
_0-0_
  6
CONTINUOUS
 62
    1
 10
1281.0580992924363
 20
441.04530913925208
 11
1280.67935989839
 21
441.55991210871912
  0
LINE
  8
_0-0_
  6
CONTINUOUS
 62
    1
 10
1276.1793598983891
 20
427.49741210871912
 11
1276.1793598983891
 21
427.49741210871912
  0
LINE
  8
_0-0_
  6
CONTINUOUS
 62
    1
 10
1276.1793598983891
 20
427.49741210871912
 11
1279.4767748755025
 21
434.86467415209887
  0
LINE
  8
_0-0_
  6
CONTINUOUS
 62
    1
 10
1279.4767748755025
 20
434.86467415209887
 11
1280.6793598983891
 21
440.26654740076765
  0
LINE
  8
_0-0_
  6
CONTINUOUS
 62
    1
 10
1280.6793598983891
 20
448.47827681667059
 11
1280.6793598983891
 21
448.47827681667059
  0
LINE
  8
_0-0_
  6
CONTINUOUS
 62
    1
 10
1280.6793598983891
 20
448.47827681667059
 11
1278.7037113034685
 21
456.07378414104051
  0
LINE
  8
_0-0_
  6
CONTINUOUS
 62
    1
 10
1278.7037113034685
 20
456.07378414104051
 11
1276.1793598983891
 21
461.24741210871912
  0
LINE
  8
_0-0_
  6
CONTINUOUS
 62
    1
 10
1280.67935989839
 20
448.47827681667081
 11
1280.67935989839
 21
440.26654740076742
  0
LINE
  8
_0-0_
  6
CONTINUOUS
 62
    1
 10
1276.17935989839
 20
449.99741210871912
 11
1276.17935989839
 21
461.24741210871912
  0
LINE
  8
_0-0_
  6
CONTINUOUS
 62
    1
 10
1276.17935989839
 20
438.74741210871912
 11
1276.17935989839
 21
427.49741210871912
  0
LINE
  8
_0-0_
  6
CONTINUOUS
 62
    1
 10
1237.9293598983891
 20
438.74741210871912
 11
1218.0288120107266
 21
437.70446858741093
  0
LINE
  8
_0-0_
  6
CONTINUOUS
 62
    7
 10
1276.17935989839
 20
411.55439262405821
 11
1278.42935989839
 21
411.55439262405821
  0
LINE
  8
_0-0_
  6
CONTINUOUS
 62
    7
 10
1273.92935989839
 20
479.44043159338003
 11
1278.42935989839
 21
479.44043159338003
  0
LINE
  8
_0-0_
  6
CONTINUOUS
 62
    7
 10
1337.1829312358573
 20
350.55082128659092
 11
1337.1829312358573
 21
352.80082128659092
  0
LINE
  8
_0-0_
  6
CONTINUOUS
 62
    7
 10
1490.1829312358573
 20
348.30082128659092
 11
1490.1829312358573
 21
346.05082128659092
  0
LINE
  8
_0-0_
  6
CONTINUOUS
 62
    4
 10
1391.5051934191683
 20
370.80082128659092
 11
1408.4439702051791
 21
370.80082128659092
  0
LINE
  8
_0-0_
  6
CONTINUOUS
 62
    1
 10
1217.7642243380801
 20
445.99172208237474
 11
1218.0288120107266
 21
451.04035563002731
  0
LINE
  8
_0-0_
  6
CONTINUOUS
 62
    1
 10
1218.0288120107266
 20
437.70446858741093
 11
1217.7642243380801
 21
442.75310213505986
  0
LINE
  8
_0-0_
  6
DASHED1
 62
    1
 10
1219.2222575873325
 20
442.82951441977389
 11
1220.4918598983891
 21
441.55991210871912
  0
LINE
  8
_0-0_
  6
DASHED1
 62
    1
 10
1219.2222575873325
 20
445.91530979766071
 11
1220.4918598983891
 21
447.18491210871912
  0
LINE
  8
_0-0_
  6
CONTINUOUS
 62
    1
 10
1217.6793598983891
 20
444.37241210871912
 11
1219.2222575873325
 21
442.82951441977389
  0
LINE
  8
_0-0_
  6
CONTINUOUS
 62
    1
 10
1217.6793598983891
 20
444.37241210871912
 11
1219.2222575873325
 21
445.91530979766071
  0
LINE
  8
_0-0_
  6
CONTINUOUS
 62
    6
 10
1271.67935989839
 20
332.55082128659092
 11
1271.67935989839
 21
253.80082128659092
  0
LINE
  8
_0-0_
  6
CONTINUOUS
 62
    6
 10
1271.67935989839
 20
255.27416236023168
 11
1273.1527009720326
 21
253.80082128659092
  0
LINE
  8
_0-0_
  6
CONTINUOUS
 62
    6
 10
1271.6793598983882
 20
287.09396751362988
 11
1304.9725061254289
 21
253.80082128658728
  0
LINE
  8
_0-0_
  6
CONTINUOUS
 62
    6
 10
1271.6793598983909
 20
318.91377266702443
 11
1336.7923112788226
 21
253.80082128659092
  0
LINE
  8
_0-0_
  6
CONTINUOUS
 62
    6
 10
1289.8621164322208
 20
332.55082128658728
 11
1368.6121164322208
 21
253.80082128658728
  0
LINE
  8
_0-0_
  6
CONTINUOUS
 62
    6
 10
1321.6819215856144
 20
332.55082128658728
 11
1400.4319215856144
 21
253.80082128658728
  0
LINE
  8
_0-0_
  6
CONTINUOUS
 62
    6
 10
1353.5017267390062
 20
332.55082128659092
 11
1432.2517267390062
 21
253.80082128659092
  0
LINE
  8
_0-0_
  6
CONTINUOUS
 62
    6
 10
1385.3215318924044
 20
332.55082128658728
 11
1464.0715318924035
 21
253.80082128659092
  0
LINE
  8
_0-0_
  6
CONTINUOUS
 62
    6
 10
1417.1413370457981
 20
332.55082128658728
 11
1495.8913370457972
 21
253.80082128658728
  0
LINE
  8
_0-0_
  6
CONTINUOUS
 62
    6
 10
1448.9611421991899
 20
332.55082128659092
 11
1527.7111421991899
 21
253.80082128659092
  0
LINE
  8
_0-0_
  6
CONTINUOUS
 62
    6
 10
1480.7809473525881
 20
332.55082128658728
 11
1559.5309473525881
 21
253.80082128658728
  0
LINE
  8
_0-0_
  6
CONTINUOUS
 62
    6
 10
1464.4228551815572
 20
253.80082128658728
 11
1543.1728551815572
 21
332.55082128659092
  0
LINE
  8
_0-0_
  6
CONTINUOUS
 62
    6
 10
1432.6030500281654
 20
253.80082128659092
 11
1511.3530500281654
 21
332.55082128659092
  0
LINE
  8
_0-0_
  6
CONTINUOUS
 62
    6
 10
1400.7832448747718
 20
253.80082128659092
 11
1479.5332448747718
 21
332.55082128659092
  0
LINE
  8
_0-0_
  6
CONTINUOUS
 62
    6
 10
1368.9634397213736
 20
253.80082128659092
 11
1447.7134397213727
 21
332.55082128658728
  0
LINE
  8
_0-0_
  6
CONTINUOUS
 62
    6
 10
1337.1436345679817
 20
253.80082128659092
 11
1415.8936345679817
 21
332.55082128659092
  0
LINE
  8
_0-0_
  6
CONTINUOUS
 62
    6
 10
1305.3238294145881
 20
253.80082128659092
 11
1384.0738294145881
 21
332.55082128659092
  0
LINE
  8
_0-0_
  6
CONTINUOUS
 62
    6
 10
1273.504024261189
 20
253.80082128658728
 11
1352.254024261189
 21
332.55082128658728
  0
LINE
  8
_0-0_
  6
CONTINUOUS
 62
    6
 10
1271.6793598983882
 20
283.795962077181
 11
1320.4342191077981
 21
332.55082128659092
  0
LINE
  8
_0-0_
  6
CONTINUOUS
 62
    6
 10
1271.6793598983882
 20
315.61576723057556
 11
1288.6144139544035
 21
332.55082128659092
  0
LINE
  8
_0-0_
  6
CONTINUOUS
 62
  136
 10
1276.17935989839
 20
411.55439262405821
 11
1337.1829312358573
 21
350.55082128659092
  0
LINE
  8
_0-0_
  6
CONTINUOUS
 62
    7
 10
1405.0689702051791
 20
348.30082128659092
 11
1490.1829312358573
 21
348.30082128659092
  0
LINE
  8
_0-0_
  6
CONTINUOUS
 62
    4
 10
1285.17935989839
 20
547.62879899822951
 11
1285.17935989839
 21
487.31543159338003
  0
TEXT
  8
_0-0_
 62
    7
 10
1423.7322507886824
 20
1024.0550367315675
 40
30
 41
1
 50
0
  1
断熱材
  0
LINE
  8
_0-0_
  6
CONTINUOUS
 62
    7
 10
672.13606690525205
 20
1633.3565543671141
 11
1706.852577720369
 21
1633.3565543671141
  0
LINE
  8
_0-0_
  6
CONTINUOUS
 62
    7
 10
672.13606690525205
 20
1553.3565543671141
 11
1706.852577720369
 21
1553.3565543671141
  0
LINE
  8
_0-0_
  6
CONTINUOUS
 62
    7
 10
672.13606690525205
 20
1473.3565543671141
 11
1706.852577720369
 21
1473.3565543671141
  0
LINE
  8
_0-0_
  6
CONTINUOUS
 62
    7
 10
1189.4943223128107
 20
1633.3565543671141
 11
1189.4943223128107
 21
1473.3565543671141
  0
TEXT
  8
_0-0_
 62
    7
 10
696.13606690525023
 20
1497.3565543671141
 40
20
 41
1
 50
0
  1
施工部位：トップライト
  0
TEXT
  8
_0-0_
 62
    7
 10
1213.4943223128107
 20
1577.3565543671141
 40
20
 41
1
 50
0
  1
構造：ＲＣ造
  0
TEXT
  8
_0-0_
 62
    7
 10
1213.4943223128107
 20
1497.3565543671141
 40
20
 41
1
 50
0
  1
下地：コンクリートスラブ
  0
TEXT
  8
_0-0_
 62
    7
 10
696.13606690525023
 20
1577.3565543671141
 40
20
 41
1
 50
0
  1
図面番号：dan-kikai-SP-top-01
  0
LINE
  8
_0-0_
  6
CONTINUOUS
 62
    7
 10
1154.2136114058035
 20
1293.2320897411084
 11
1158.5437384247257
 21
1295.7320897411084
  0
CIRCLE
  8
_0-0_
  6
DASHED2
 62
    1
 10
1156.8000271984151
 20
1217.9741177071921
 40
67.350194333739935
  0
ENDSEC
  0
EOF
