  0
SECTION
  2
HEADER
  9
$ACADVER
  1
AC1009
  9
$INSBASE
 10
0
 20
0
 30
0
  9
$EXTMIN
 10
0
 20
0
  9
$EXTMAX
 10
2378
 20
1682
  9
$LIMMIN
 10
0
 20
0
  9
$LIMMAX
 10
2378
 20
1682
  9
$LTSCALE
 40
1
  0
ENDSEC
  0
SECTION
  2
TABLES
  0
TABLE
  2
LTYPE
 70
     9
  0
LTYPE
  2
CONTINUOUS
 70
    64
  3
実線
 72
    65
 73
     0
 40
0.0
  0
LTYPE
  2
DASHED1
 70
    64
  3
--  --  --  --  --  --  --  --  
 72
    65
 73
     2
 40
2.5
 49
1.25
 49
-1.25
  0
LTYPE
  2
DASHED2
 70
    64
  3
----    ----    ----    ----    
 72
    65
 73
     2
 40
5.0
 49
2.5
 49
-2.5
  0
LTYPE
  2
DASHED3
 70
    64
  3
------  ------  ------  ------  
 72
    65
 73
     2
 40
5.0
 49
3.75
 49
-1.25
  0
LTYPE
  2
CENTER1
 70
    64
  3
----- - ----- - ----- - ----- - 
 72
    65
 73
     4
 40
10.0
 49
6.25
 49
-1.25
 49
1.25
 49
-1.25
  0
LTYPE
  2
CENTER2
 70
    64
  3
----------  --  ----------  --  
 72
    65
 73
     4
 40
20.0
 49
12.5
 49
-2.5
 49
2.5
 49
-2.5
  0
LTYPE
  2
PHANTOM1
 70
    64
  3
--- - - --- - - --- - - --- - - 
 72
    65
 73
     6
 40
10.0
 49
3.25
 49
-1.25
 49
1.25
 49
-1.25
 49
1.25
 49
-1.25
  0
LTYPE
  2
PHANTOM2
 70
    64
  3
--------  -  -  --------  -  -  
 72
    65
 73
     6
 40
20.0
 49
10.0
 49
-2.5
 49
1.25
 49
-2.5
 49
1.25
 49
-2.5
  0
LTYPE
  2
DOT
 70
    64
  3
-   -   -   -   -   -   -   -   
 72
    65
 73
     2
 40
2.5
 49
0.625
 49
-1.875
  0
LTYPE
  2
DUMMY
 70
    64
  3
ダミー
 72
    65
 73
     0
 40
0.0
  0
LTYPE
  2
RAND1
 70
    64
  3
ランダム線1
 72
    65
 73
     4
 40
10.0
 49
1.0
 49
-2.0
 49
3.0
 49
-4.0
  0
LTYPE
  2
RAND2
 70
    64
  3
ランダム線2
 72
    65
 73
     4
 40
14.0
 49
2.0
 49
-3.0
 49
4.0
 49
-5.0
  0
LTYPE
  2
RAND3
 70
    64
  3
ランダム線3
 72
    65
 73
     4
 40
18.0
 49
3.0
 49
-4.0
 49
5.0
 49
-6.0
  0
LTYPE
  2
RAND4
 70
    64
  3
ランダム線4
 72
    65
 73
     4
 40
22.0
 49
4.0
 49
-5.0
 49
6.0
 49
-7.0
  0
LTYPE
  2
RAND5
 70
    64
  3
ランダム線5
 72
    65
 73
     4
 40
26.0
 49
5.0
 49
-6.0
 49
7.0
 49
-8.0
  0
LTYPE
  2
LONG1
 70
    64
  3
----------  --  ----------  --  
 72
    65
 73
     4
 40
40.0
 49
32.5
 49
-2.5
 49
2.5
 49
-2.5
  0
LTYPE
  2
LONG2
 70
    64
  3
--------  -  -  --------  -  -  
 72
    65
 73
     6
 40
40.0
 49
30.0
 49
-2.5
 49
1.25
 49
-2.5
 49
1.25
 49
-2.5
  0
LTYPE
  2
LONG3
 70
    64
  3
+++++++++++++++..+++++++++++++++
 72
    65
 73
     2
 40
40.0
 49
37.5
 49
-2.5
  0
LTYPE
  2
LONG4
 70
    64
  3
+++++++++++++++..+++++++++++++++
 72
    65
 73
     2
 40
80.0
 49
75.0
 49
-5.0
  0
LTYPE
  2
LONG5
 70
    64
  3
----------  --  ----------  --  
 72
    65
 73
     4
 40
60.0
 49
37.5
 49
-7.5
 49
7.5
 49
-7.5
  0
LTYPE
  2
dashed
 70
   64
  3
-------   -------------   ------
 72
   65
 73
    2
 40
7.5
 49
6
 49
-1.5
  0
LTYPE
  2
dashed_spaced
 70
   64
  3
----        --------        ----
 72
   65
 73
    2
 40
12
 49
6
 49
-6
  0
LTYPE
  2
long_dashed_dotted
 70
   64
  3
------------- --- --------------
 72
   65
 73
    4
 40
15.25
 49
12
 49
-1.5
 49
0.25
 49
-1.5
  0
LTYPE
  2
long_dashed_double-dotted
 70
   64
  3
----------- --- --- ------------
 72
   65
 73
    6
 40
17
 49
12
 49
-1.5
 49
0.25
 49
-1.5
 49
0.25
 49
-1.5
  0
LTYPE
  2
long_dashed_triplicate-dotted
 70
   64
  3
--------- --- --- --- ----------
 72
   65
 73
    8
 40
18.75
 49
12
 49
-1.5
 49
0.25
 49
-1.5
 49
0.25
 49
-1.5
 49
0.25
 49
-1.5
  0
LTYPE
  2
dotted
 70
   64
  3
   -       -       -       -    
 72
   65
 73
    2
 40
1.75
 49
0.25
 49
-1.5
  0
LTYPE
  2
chain
 70
   64
  3
-------------- -- --------------
 72
   65
 73
    4
 40
18.5
 49
12
 49
-1.5
 49
3.5
 49
-1.5
  0
LTYPE
  2
chain_double_dash
 70
   64
  3
------------ -- -- -------------
 72
   65
 73
    6
 40
23.5
 49
12
 49
-1.5
 49
3.5
 49
-1.5
 49
3.5
 49
-1.5
  0
LTYPE
  2
dashed_dotted
 70
   64
  3
-----------     -     ----------
 72
   65
 73
    4
 40
9.25
 49
6
 49
-1.5
 49
0.25
 49
-1.5
  0
LTYPE
  2
double-dashed_dotted
 70
   64
  3
------   -----------   -   -----
 72
   65
 73
    6
 40
16.75
 49
6
 49
-1.5
 49
6
 49
-1.5
 49
0.25
 49
-1.5
  0
LTYPE
  2
dashed_double-dotted
 70
   64
  3
---------    -    -    ---------
 72
   65
 73
    6
 40
11
 49
6
 49
-1.5
 49
0.25
 49
-1.5
 49
0.25
 49
-1.5
  0
LTYPE
  2
double-dashed_double-dotted
 70
   64
  3
-----   ---------   -   -   ----
 72
   65
 73
    8
 40
18.5
 49
6
 49
-1.5
 49
6
 49
-1.5
 49
0.25
 49
-1.5
 49
0.25
 49
-1.5
  0
LTYPE
  2
dashed_triplicate-dotted
 70
   64
  3
-------    -    -    -    ------
 72
   65
 73
    8
 40
12.75
 49
6
 49
-1.5
 49
0.25
 49
-1.5
 49
0.25
 49
-1.5
 49
0.25
 49
-1.5
  0
LTYPE
  2
double-dashed_triplicate-dotted
 70
   64
  3
-----  ---------  -  -  -  -----
 72
   65
 73
   10
 40
20.25
 49
6
 49
-1.5
 49
6
 49
-1.5
 49
0.25
 49
-1.5
 49
0.25
 49
-1.5
 49
0.25
 49
-1.5
  0
LTYPE
  2
undefined
 70
   64
  3
--------------------------------
 72
   65
 73
    0
 40
0
  0
ENDTAB
  0
TABLE
  2
STYLE
  5
3
100
AcDbSymbolTable
 70
     1
  0
STYLE
  5
10
100
AcDbSymbolTableRecord
100
AcDbTextStyleTableRecord
  2
STANDARD
 70
     0
 40
0.0
 41
1.0
 50
0.0
 71
     0
 42
0.2
  3
txt
  4
bigfont.shx
  0
STYLE
  5
26
100
AcDbSymbolTableRecord
100
AcDbTextStyleTableRecord
  2
TATEGAKI
 70
    68
 40
0.0
 41
1.0
 50
0.0
 71
     0
 42
1.0
  3
txt
  4
bigfont.shx
  0
ENDTAB
  0
TABLE
  2
LAYER
 70
    2
  0
LAYER
  2
_0-0_
 70
   64
 62
    7
  6
CONTINUOUS
  0
LAYER
  2
ADD_LINE
 70
   64
 62
    7
  6
CONTINUOUS
  0
ENDTAB
  0
ENDSEC
  0
SECTION
  2
BLOCKS
  0
ENDSEC
  0
SECTION
  2
ENTITIES
  0
LINE
  8
_0-0_
  6
CONTINUOUS
 62
    7
 10
1271.7101508514907
 20
928.43079690072341
 11
1271.7101508514907
 21
1136.3343599902303
  0
LINE
  8
_0-0_
  6
CONTINUOUS
 62
    7
 10
672.13606690525205
 20
1633.3565543671132
 11
672.13606690525205
 21
167.53106997205509
  0
LINE
  8
_0-0_
  6
CONTINUOUS
 62
    7
 10
1246.7101308514902
 20
1158.4308759007229
 11
1246.7101308514902
 21
1407.9188809007239
  0
LINE
  8
_0-0_
  6
CONTINUOUS
 62
    7
 10
1234.7577348514906
 20
1158.4308759007229
 11
1219.7577478514904
 21
1158.4308759007229
  0
LINE
  8
_0-0_
  6
CONTINUOUS
 62
    7
 10
1227.7577248514908
 20
1202.830858900724
 11
1227.7577248514908
 21
1188.830898900723
  0
LINE
  8
_0-0_
  6
CONTINUOUS
 62
    7
 10
1199.757805851491
 20
1188.830898900723
 11
1199.757805851491
 21
1202.830858900724
  0
LINE
  8
_0-0_
  6
CONTINUOUS
 62
    7
 10
1218.7527088514908
 20
1162.8897409007234
 11
1218.2577678514908
 21
1159.9308559007234
  0
LINE
  8
_0-0_
  6
CONTINUOUS
 62
    7
 10
1224.8271708514903
 20
1158.4308759007229
 11
1224.7577638514904
 21
1158.3614689007238
  0
LINE
  8
_0-0_
  6
CONTINUOUS
 62
    2
 10
1290.8584366317327
 20
1117.4315592129453
 11
1292.2578008514911
 21
1118.8309234327037
  0
LINE
  8
_0-0_
  6
CONTINUOUS
 62
    2
 10
1288.6827866533322
 20
1118.0843363592896
 11
1292.2578008514893
 21
1121.6593505574467
  0
LINE
  8
_0-0_
  6
CONTINUOUS
 62
    2
 10
1286.3354227919044
 20
1118.5653996226076
 11
1292.2578008514893
 21
1124.4877776821934
  0
LINE
  8
_0-0_
  6
CONTINUOUS
 62
    2
 10
1283.7904937724843
 20
1118.8488977279351
 11
1292.2578008514893
 21
1127.3162048069382
  0
LINE
  8
_0-0_
  6
CONTINUOUS
 62
    2
 10
1281.0032744238297
 20
1118.8901055040253
 11
1292.2578008514893
 21
1130.1446319316849
  0
LINE
  8
_0-0_
  6
CONTINUOUS
 62
    2
 10
1277.8897504679371
 20
1118.6050086728785
 11
1292.2578008514902
 21
1132.9730590564316
  0
LINE
  8
_0-0_
  6
CONTINUOUS
 62
    2
 10
1234.1488606690491
 20
1142.7463698678996
 11
1234.6512779960431
 21
1143.2487871948936
  0
LINE
  8
_0-0_
  6
CONTINUOUS
 62
    2
 10
1231.6467906053094
 20
1143.0727269289066
 11
1234.178881823037
 21
1145.6048181466351
  0
LINE
  8
_0-0_
  6
CONTINUOUS
 62
    2
 10
1229.1447205415716
 20
1143.3990839899154
 11
1233.8789464006159
 21
1148.1333098489606
  0
LINE
  8
_0-0_
  6
CONTINUOUS
 62
    2
 10
1226.6426504778337
 20
1143.7254410509224
 11
1233.7828777669201
 21
1150.8656683400088
  0
LINE
  8
_0-0_
  6
CONTINUOUS
 62
    2
 10
1224.7577638514904
 20
1144.6689815493257
 11
1233.9448988117474
 21
1153.8561165095828
  0
LINE
  8
_0-0_
  6
CONTINUOUS
 62
    2
 10
1224.7577638514895
 20
1147.4974086740706
 11
1234.47003285348
 21
1157.209677676062
  0
LINE
  8
_0-0_
  6
CONTINUOUS
 62
    2
 10
1224.7577638514904
 20
1150.3258357988173
 11
1232.862803953396
 21
1158.4308759007229
  0
LINE
  8
_0-0_
  6
CONTINUOUS
 62
    2
 10
1224.7577638514904
 20
1153.1542629235639
 11
1230.0343768286493
 21
1158.4308759007229
  0
LINE
  8
_0-0_
  6
CONTINUOUS
 62
    2
 10
1224.7577638514895
 20
1155.9826900483106
 11
1227.2059497039027
 21
1158.4308759007229
  0
LINE
  8
_0-0_
  6
CONTINUOUS
 62
    2
 10
1234.7577348514906
 20
1158.4308759007229
 11
1234.0242643880733
 21
1154.5601293686818
  0
LINE
  8
_0-0_
  6
CONTINUOUS
 62
    2
 10
1234.0242643880733
 20
1154.5601293686818
 11
1233.7820427615941
 21
1150.5698760408998
  0
LINE
  8
_0-0_
  6
CONTINUOUS
 62
    2
 10
1233.7820427615941
 20
1150.5698760408998
 11
1234.0384297536036
 21
1146.5813577455758
  0
LINE
  8
_0-0_
  6
CONTINUOUS
 62
    2
 10
1234.0384297536036
 20
1146.5813577455758
 11
1234.7856351750877
 21
1142.7157635928256
  0
LINE
  8
_0-0_
  6
CONTINUOUS
 62
    2
 10
1234.7856351750877
 20
1142.7157635928256
 11
1234.7999205922001
 21
1142.661448983333
  0
LINE
  8
_0-0_
  6
CONTINUOUS
 62
    2
 10
1224.7577638514904
 20
1153.9206659007225
 11
1224.7577638514904
 21
1158.3614689007238
  0
TEXT
  8
_0-0_
 62
    7
 10
1429.6891920142098
 20
576.02721287347708
 40
40
 41
1
 50
0
  1
Ｂ
  0
LINE
  8
_0-0_
  6
CONTINUOUS
 62
    7
 10
672.13606690525205
 20
567.53106997205509
 11
1706.8525777203686
 21
567.53106997205509
  0
LINE
  8
_0-0_
  6
CONTINUOUS
 62
    7
 10
672.13606690525205
 20
167.53106997205509
 11
1706.8525777203686
 21
167.53106997205509
  0
LINE
  8
_0-0_
  6
CONTINUOUS
 62
    7
 10
672.13606690525205
 20
627.53106997205509
 11
1706.8525777203686
 21
627.53106997205509
  0
LINE
  8
_0-0_
  6
CONTINUOUS
 62
    7
 10
1189.4943223128103
 20
627.53106997205509
 11
1189.4943223128103
 21
167.53106997205509
  0
LINE
  8
_0-0_
  6
CONTINUOUS
 62
    7
 10
1706.8525777203686
 20
1633.3565543671132
 11
1706.8525777203686
 21
167.53106997205509
  0
TEXT
  8
_0-0_
 62
    7
 10
906.73245032900388
 20
575.6797341210106
 40
40
 41
1
 50
0
  1
Ａ
  0
LINE
  8
_0-0_
  6
CONTINUOUS
 62
    7
 10
1227.7577248514908
 20
1261.8306569007229
 11
1227.7577248514908
 21
1203.8308869007226
  0
LINE
  8
_0-0_
  6
CONTINUOUS
 62
    7
 10
1199.757805851491
 20
1261.8306569007229
 11
1199.757805851491
 21
1203.8308869007226
  0
LINE
  8
_0-0_
  6
CONTINUOUS
 62
    7
 10
1227.7577248514908
 20
1291.8307559007237
 11
1227.7577248514908
 21
1262.8308089007235
  0
LINE
  8
_0-0_
  6
CONTINUOUS
 62
    7
 10
1199.757805851491
 20
1291.8307559007237
 11
1199.757805851491
 21
1262.8308089007235
  0
TEXT
  8
_0-0_
 62
    7
 10
1331.295700049488
 20
1362.9522484540259
 40
24
 41
1
 50
0
  1
屋外側
  0
LINE
  8
_0-0_
  6
CONTINUOUS
 62
    2
 10
1277.7101508514907
 20
1124.0822633059263
 11
1287.8562358039117
 21
1134.2283482583473
  0
LINE
  8
_0-0_
  6
CONTINUOUS
 62
    2
 10
1277.7101508514907
 20
1126.9106904306711
 11
1285.3541657443593
 21
1134.5547053235398
  0
LINE
  8
_0-0_
  6
CONTINUOUS
 62
    2
 10
1277.7101508514907
 20
1129.7391175554178
 11
1282.8520956848051
 21
1134.8810623887323
  0
LINE
  8
_0-0_
  6
CONTINUOUS
 62
    2
 10
1277.7101508514907
 20
1132.5675446801627
 11
1280.3500256252501
 21
1135.207419453923
  0
LINE
  8
_0-0_
  6
CONTINUOUS
 62
    2
 10
1277.7101508514907
 20
1135.3959718049093
 11
1277.8479555656959
 21
1135.5337765191155
  0
LINE
  8
_0-0_
  6
CONTINUOUS
 62
    2
 10
1277.7101508514907
 20
1121.2538361811796
 11
1290.3583058634658
 21
1133.9019911931548
  0
LINE
  8
_0-0_
  6
CONTINUOUS
 62
    2
 10
1292.2578065514761
 20
1116.8933563878645
 11
1288.921991825669
 21
1118.0227373127186
  0
LINE
  8
_0-0_
  6
CONTINUOUS
 62
    2
 10
1288.921991825669
 20
1118.0227373127186
 11
1285.3753690350916
 21
1118.7005167924906
  0
LINE
  8
_0-0_
  6
CONTINUOUS
 62
    2
 10
1285.3753690350916
 20
1118.7005167924906
 11
1281.7257005185579
 21
1118.9061008406611
  0
LINE
  8
_0-0_
  6
CONTINUOUS
 62
    2
 10
1281.7257005185579
 20
1118.9061008406611
 11
1278.0838796071214
 21
1118.6332428899564
  0
LINE
  8
_0-0_
  6
CONTINUOUS
 62
    2
 10
1278.0838796071214
 20
1118.6332428899564
 11
1277.7101508514911
 21
1118.5776172159324
  0
LINE
  8
_0-0_
  6
CONTINUOUS
 62
    2
 10
842.74235731494639
 20
451.85146659662973
 11
841.27541638811181
 21
444.1099735325476
  0
LINE
  8
_0-0_
  6
CONTINUOUS
 62
    2
 10
841.27541638811181
 20
444.1099735325476
 11
840.79097313515354
 21
436.12946687698349
  0
LINE
  8
_0-0_
  6
CONTINUOUS
 62
    2
 10
840.79097313515354
 20
436.12946687698349
 11
841.3037471191725
 21
428.15243028633546
  0
LINE
  8
_0-0_
  6
CONTINUOUS
 62
    2
 10
841.3037471191725
 20
428.15243028633546
 11
842.79815796214052
 21
420.42124198083508
  0
LINE
  8
_0-0_
  6
CONTINUOUS
 62
    2
 10
842.79815796214052
 20
420.42124198083508
 11
842.82672879636539
 21
420.31261276184995
  0
LINE
  8
_0-0_
  6
CONTINUOUS
 62
    2
 10
822.7424153149442
 20
446.95509489180517
 11
827.63878701977058
 21
451.85146659662973
  0
LINE
  8
_0-0_
  6
CONTINUOUS
 62
    2
 10
822.74241531494602
 20
441.29824064231184
 11
833.29564126926391
 21
451.85146659662973
  0
LINE
  8
_0-0_
  6
CONTINUOUS
 62
    2
 10
822.74241531494602
 20
435.6413863928185
 11
838.95249551875725
 21
451.85146659662973
  0
LINE
  8
_0-0_
  6
CONTINUOUS
 62
    2
 10
822.7424153149442
 20
429.98453214332517
 11
842.16695331892527
 21
449.40907014730624
  0
LINE
  8
_0-0_
  6
CONTINUOUS
 62
    2
 10
822.74241531494602
 20
424.32767789383365
 11
841.11668523546007
 21
442.70194781434952
  0
LINE
  8
_0-0_
  6
CONTINUOUS
 62
    2
 10
826.51218856763273
 20
422.44059689702885
 11
840.79264314580553
 21
436.72105147519983
  0
LINE
  8
_0-0_
  6
CONTINUOUS
 62
    2
 10
831.51632869510843
 20
421.78788277501485
 11
840.98478041319697
 21
431.2563344931034
  0
LINE
  8
_0-0_
  6
CONTINUOUS
 62
    2
 10
836.52046882258412
 20
421.13516865299721
 11
841.58465125803934
 21
426.19935108845243
  0
LINE
  8
_0-0_
  6
CONTINUOUS
 62
    2
 10
841.52460895006345
 20
420.4824545309832
 11
842.52944360405138
 21
421.48728918497113
  0
LINE
  8
_0-0_
  6
CONTINUOUS
 62
    2
 10
929.00638854783949
 20
372.19973214094102
 11
957.7424893149456
 21
400.93583290804713
  0
LINE
  8
_0-0_
  6
CONTINUOUS
 62
    2
 10
935.23343645962461
 20
372.76992580323463
 11
957.74248931494378
 21
395.2789786585538
  0
LINE
  8
_0-0_
  6
CONTINUOUS
 62
    2
 10
940.80787515693385
 20
372.68751025105234
 11
957.74248931494378
 21
389.62212440906046
  0
LINE
  8
_0-0_
  6
CONTINUOUS
 62
    2
 10
945.89773319577409
 20
372.12051404039926
 11
957.74248931494378
 21
383.96527015956895
  0
LINE
  8
_0-0_
  6
CONTINUOUS
 62
    2
 10
950.59246091862963
 20
371.15838751376327
 11
957.74248931494378
 21
378.30841591007743
  0
LINE
  8
_0-0_
  6
CONTINUOUS
 62
    2
 10
954.94376087543071
 20
369.85283322107466
 11
957.74248931494742
 21
372.65156166058955
  0
LINE
  8
_0-0_
  6
CONTINUOUS
 62
    2
 10
928.64718931494656
 20
405.78165840500264
 11
928.92279874335702
 21
406.05726783341311
  0
LINE
  8
_0-0_
  6
CONTINUOUS
 62
    2
 10
928.64718931494747
 20
400.12480415551113
 11
933.92693886246536
 21
405.40455370302811
  0
LINE
  8
_0-0_
  6
CONTINUOUS
 62
    2
 10
928.64718931494656
 20
394.46794990601779
 11
938.93107898157552
 21
404.75183957264676
  0
LINE
  8
_0-0_
  6
CONTINUOUS
 62
    2
 10
928.64718931494656
 20
388.81109565652628
 11
943.93521910068387
 21
404.09912544226358
  0
LINE
  8
_0-0_
  6
CONTINUOUS
 62
    2
 10
928.64718931494656
 20
383.15424140703476
 11
948.93935921978857
 21
403.44641131187677
  0
LINE
  8
_0-0_
  6
CONTINUOUS
 62
    2
 10
928.64718931494656
 20
377.49738715754143
 11
953.94349933889691
 21
402.79369718149178
  0
LINE
  8
_0-0_
  6
CONTINUOUS
 62
    2
 10
957.74250071491667
 20
368.77642757091132
 11
951.07087126330237
 21
371.0351894206193
  0
LINE
  8
_0-0_
  6
CONTINUOUS
 62
    2
 10
951.07087126330237
 20
371.0351894206193
 11
943.97762568214762
 21
372.39074838016353
  0
LINE
  8
_0-0_
  6
CONTINUOUS
 62
    2
 10
943.97762568214762
 20
372.39074838016353
 11
936.67828864908029
 21
372.80191647650423
  0
LINE
  8
_0-0_
  6
CONTINUOUS
 62
    2
 10
936.67828864908029
 20
372.80191647650423
 11
929.39464682620724
 21
372.25620057509514
  0
LINE
  8
_0-0_
  6
CONTINUOUS
 62
    2
 10
929.39464682620724
 20
372.25620057509514
 11
928.64718931494656
 21
372.14494922704711
  0
LINE
  8
_0-0_
  6
CONTINUOUS
 62
    4
 10
928.64718931494656
 20
214.67089664052332
 11
928.64718931494656
 21
406.05726783341311
  0
POINT
  8
_0-0_
 62
    7
 10
942.7596593517784
 20
388.056037181482
  0
POINT
  8
_0-0_
 62
    7
 10
831.68997338364818
 20
436.45852422687972
  0
LINE
  8
_0-0_
  6
CONTINUOUS
 62
    7
 10
831.68997338364818
 20
436.45852422687972
 11
996.14633613430772
 21
480.52447381607931
  0
LINE
  8
_0-0_
  6
CONTINUOUS
 62
    7
 10
942.7596593517784
 20
388.056037181482
 11
996.14633613430772
 21
480.52447381607931
  0
POINT
  8
_0-0_
 62
    7
 10
1286.9030829068861
 20
1123.6868402357743
  0
POINT
  8
_0-0_
 62
    7
 10
1229.1151358979714
 20
1151.5106665733995
  0
LINE
  8
_0-0_
  6
CONTINUOUS
 62
    7
 10
1229.1151358979714
 20
1151.5106665733995
 11
1316.4830380296335
 21
1174.9208253939798
  0
LINE
  8
_0-0_
  6
CONTINUOUS
 62
    7
 10
1286.9030829068861
 20
1123.6868402357743
 11
1316.4830380296335
 21
1174.9208253939798
  0
POINT
  8
_0-0_
 62
    7
 10
1261.8511876595685
 20
1138.4931934640547
  0
LINE
  8
_0-0_
  6
CONTINUOUS
 62
    7
 10
1261.8511876595685
 20
1138.4931934640547
 11
1327.7826796257596
 21
1252.6898873683169
  0
CIRCLE
  8
_0-0_
  6
DASHED2
 62
    1
 10
1258.5714548320211
 20
1144.3159067424888
 40
52.755020399010462
  0
TEXT
  8
_0-0_
 62
    7
 10
1253.8413721441857
 20
1193.8341614730282
 40
24
 41
1
 50
0
  1
Ａ
  0
TEXT
  8
_0-0_
 62
    7
 10
946.89278712563839
 20
1361.7621465564291
 40
24
 41
1
 50
0
  1
ＰＨ屋内側
  0
TEXT
  8
_0-0_
 62
    7
 10
1324.4513888072297
 20
1254.193294230193
 40
30
 41
1
 50
0
  1
水切板
  0
TEXT
  8
_0-0_
 62
    7
 10
1323.2880865791658
 20
1165.3036745014535
 40
30
 41
1
 50
0
  1
ｼｰﾘﾝｸﾞ
  0
LINE
  8
_0-0_
  6
CONTINUOUS
 62
    7
 10
809.30481685149073
 20
823.43079690072341
 11
998.75777785149069
 21
823.43079690072341
  0
LINE
  8
_0-0_
  6
CONTINUOUS
 62
    7
 10
1398.7577778514906
 20
823.43079690072341
 11
1533.1415198514906
 21
823.43079690072341
  0
LINE
  8
_0-0_
  6
CONTINUOUS
 62
    7
 10
998.75777785149069
 20
756.46821290072262
 11
998.75777785149069
 21
823.43079690072341
  0
LINE
  8
_0-0_
  6
CONTINUOUS
 62
    7
 10
1398.7577778514906
 20
756.46821290072262
 11
1398.7577778514906
 21
823.43079690072341
  0
LINE
  8
_0-0_
  6
CONTINUOUS
 62
    7
 10
1136.7101388514902
 20
1093.430784900723
 11
1271.7101508514907
 21
1082.1808099007242
  0
LINE
  8
_0-0_
  6
CONTINUOUS
 62
    7
 10
1136.7101388514902
 20
1093.430784900723
 11
1136.7101388514902
 21
928.43079690072341
  0
LINE
  8
_0-0_
  6
CONTINUOUS
 62
    7
 10
924.71006985149063
 20
1085.4308079007235
 11
924.71006985149063
 21
928.43079690072341
  0
LINE
  8
_0-0_
  6
CONTINUOUS
 62
    7
 10
924.71006985149063
 20
1085.4308079007235
 11
1136.7101388514902
 21
1085.4308079007235
  0
LINE
  8
_0-0_
  6
CONTINUOUS
 62
    7
 10
906.71009385149102
 20
1093.430846900724
 11
906.71009385149102
 21
963.43078890072252
  0
LINE
  8
_0-0_
  6
CONTINUOUS
 62
    7
 10
909.71002585149074
 20
963.43078890072252
 11
909.71002585149074
 21
1093.430846900724
  0
LINE
  8
_0-0_
  6
CONTINUOUS
 62
    7
 10
896.71002685149062
 20
953.43078990072195
 11
809.30481685149073
 21
953.43078990072195
  0
LINE
  8
_0-0_
  6
CONTINUOUS
 62
    7
 10
896.71002685149062
 20
950.43078990072195
 11
809.30481685149073
 21
950.43078990072195
  0
LINE
  8
_0-0_
  6
CONTINUOUS
 62
    7
 10
916.71009285149114
 20
1103.4308459007236
 11
1108.7101578514903
 21
1103.4308459007236
  0
LINE
  8
_0-0_
  6
CONTINUOUS
 62
    7
 10
1108.7101578514903
 20
1100.4307899007219
 11
916.71009285149114
 21
1100.4307899007219
  0
ARC
  8
_0-0_
  6
CONTINUOUS
 62
    7
 10
896.71002685149062
 20
963.43078890072252
 40
10.000067000000399
 50
270
 51
0
  0
ARC
  8
_0-0_
  6
CONTINUOUS
 62
    7
 10
896.71002685149062
 20
963.43078890072252
 40
12.999999000000116
 50
270
 51
0
  0
ARC
  8
_0-0_
  6
CONTINUOUS
 62
    7
 10
916.71009285149114
 20
1093.430846900724
 40
9.9999990000001162
 50
90
 51
180
  0
ARC
  8
_0-0_
  6
CONTINUOUS
 62
    7
 10
916.71009285149114
 20
1093.430846900724
 40
6.9999990000001162
 50
89.770816709356467
 51
180
  0
ARC
  8
_0-0_
  6
CONTINUOUS
 62
    7
 10
1108.7101578514903
 20
1113.4307889007225
 40
9.9999990000001162
 50
270
 51
0
  0
ARC
  8
_0-0_
  6
CONTINUOUS
 62
    7
 10
1108.7101578514903
 20
1113.4307889007225
 40
12.999999000000116
 50
270
 51
0
  0
LINE
  8
_0-0_
  6
CONTINUOUS
 62
    7
 10
1112.7101458514908
 20
1173.4308629007239
 11
1128.5798848514905
 21
1173.4308629007239
  0
LINE
  8
_0-0_
  6
CONTINUOUS
 62
    7
 10
1114.2101258514904
 20
1174.9308429007226
 11
1114.2101258514904
 21
1201.930857900724
  0
LINE
  8
_0-0_
  6
CONTINUOUS
 62
    7
 10
1112.7101458514908
 20
1203.4308379007227
 11
1112.7101458514908
 21
1173.4308629007239
  0
LINE
  8
_0-0_
  6
CONTINUOUS
 62
    7
 10
1114.2101258514904
 20
1201.930857900724
 11
1187.7101458514908
 21
1201.930857900724
  0
LINE
  8
_0-0_
  6
CONTINUOUS
 62
    7
 10
1136.7101388514902
 20
1407.9188809007239
 11
1136.7101388514902
 21
1203.4308379007227
  0
LINE
  8
_0-0_
  6
CONTINUOUS
 62
    7
 10
1187.7101458514908
 20
1407.9188809007239
 11
1187.7101458514908
 21
1201.930857900724
  0
LINE
  8
_0-0_
  6
CONTINUOUS
 62
    7
 10
1112.7101458514908
 20
1203.4308379007227
 11
1187.7101458514908
 21
1203.4308379007227
  0
LINE
  8
_0-0_
  6
CONTINUOUS
 62
    7
 10
1118.7101568514904
 20
1113.4307889007225
 11
1118.7101568514904
 21
1173.4308629007239
  0
LINE
  8
_0-0_
  6
CONTINUOUS
 62
    7
 10
1121.7101568514904
 20
1113.4307889007225
 11
1121.7101568514904
 21
1173.4308629007239
  0
LINE
  8
_0-0_
  6
CONTINUOUS
 62
    7
 10
1174.7577228514901
 20
1197.4308559007234
 11
1174.7577228514901
 21
1182.4308679007238
  0
LINE
  8
_0-0_
  6
CONTINUOUS
 62
    7
 10
1173.2577428514905
 20
1195.9308759007229
 11
1173.2577428514905
 21
1181.1391079007237
  0
LINE
  8
_0-0_
  6
CONTINUOUS
 62
    7
 10
1174.7577228514901
 20
1182.4308679007238
 11
1234.7577348514906
 21
1173.4308629007239
  0
LINE
  8
_0-0_
  6
CONTINUOUS
 62
    7
 10
1173.2577428514905
 20
1181.1391079007237
 11
1233.2577548514901
 21
1172.1391039007224
  0
LINE
  8
_0-0_
  6
CONTINUOUS
 62
    7
 10
1218.2577678514908
 20
1159.9308559007234
 11
1233.2577548514901
 21
1159.9308559007234
  0
LINE
  8
_0-0_
  6
CONTINUOUS
 62
    7
 10
1234.7577348514906
 20
1173.4308629007239
 11
1234.7577348514906
 21
1158.4308759007229
  0
LINE
  8
_0-0_
  6
CONTINUOUS
 62
    7
 10
1233.2577548514901
 20
1172.1391039007224
 11
1233.2577548514901
 21
1159.9308559007234
  0
LINE
  8
_0-0_
  6
CONTINUOUS
 62
    7
 10
1218.2577678514908
 20
1159.9308559007234
 11
1218.2577678514908
 21
1143.4308879007233
  0
LINE
  8
_0-0_
  6
CONTINUOUS
 62
    7
 10
1219.7577478514904
 20
1158.4308759007229
 11
1219.7577478514904
 21
1143.4308879007233
  0
LINE
  8
_0-0_
  6
CONTINUOUS
 62
    7
 10
1218.2577678514908
 20
1143.4308879007233
 11
1219.7577478514904
 21
1143.4308879007233
  0
LINE
  8
_0-0_
  6
CONTINUOUS
 62
    7
 10
1224.7577638514904
 20
1153.9206659007225
 11
1223.2577838514908
 21
1153.9206659007225
  0
LINE
  8
_0-0_
  6
CONTINUOUS
 62
    7
 10
1223.2577838514908
 20
1153.9206659007225
 11
1223.2577838514908
 21
1142.6542359007228
  0
LINE
  8
_0-0_
  6
CONTINUOUS
 62
    7
 10
1224.7577638514904
 20
1153.9206659007225
 11
1224.7577638514904
 21
1143.971295900724
  0
LINE
  8
_0-0_
  6
CONTINUOUS
 62
    7
 10
1224.7577638514904
 20
1143.971295900724
 11
1293.7577818514901
 21
1134.9712909007242
  0
LINE
  8
_0-0_
  6
CONTINUOUS
 62
    7
 10
1223.2577838514908
 20
1142.6542359007228
 11
1292.2578008514902
 21
1133.654230900723
  0
LINE
  8
_0-0_
  6
CONTINUOUS
 62
    7
 10
1293.7577818514901
 20
1134.9712909007242
 11
1293.7577818514901
 21
1113.9713209007234
  0
LINE
  8
_0-0_
  6
CONTINUOUS
 62
    7
 10
1292.2578008514902
 20
1133.654230900723
 11
1292.2578008514902
 21
1113.9713209007234
  0
LINE
  8
_0-0_
  6
CONTINUOUS
 62
    7
 10
1292.2578008514902
 20
1113.9713209007234
 11
1293.7577818514901
 21
1113.9713209007234
  0
CIRCLE
  8
_0-0_
  6
CONTINUOUS
 62
    7
 10
1198.7577778514906
 20
1375.1677459007235
 40
1.25
  0
CIRCLE
  8
_0-0_
  6
CONTINUOUS
 62
    7
 10
1198.7577778514906
 20
1375.1677459007235
 40
2.5
  0
LINE
  8
_0-0_
  6
CONTINUOUS
 62
    7
 10
1084.9669458514909
 20
1375.1677459007235
 11
1306.0883878514906
 21
1375.1677459007235
  0
LINE
  8
_0-0_
  6
CONTINUOUS
 62
    7
 10
1099.4557848514905
 20
1379.0500769007242
 11
1084.9669458514909
 21
1375.1677459007235
  0
LINE
  8
_0-0_
  6
CONTINUOUS
 62
    7
 10
1084.9669458514909
 20
1375.1677459007235
 11
1099.4557848514905
 21
1371.2854159007231
  0
LINE
  8
_0-0_
  6
CONTINUOUS
 62
    7
 10
1291.5994878514903
 20
1379.0500769007242
 11
1306.0883878514906
 21
1375.1677459007235
  0
LINE
  8
_0-0_
  6
CONTINUOUS
 62
    7
 10
1306.0883878514906
 20
1375.1677459007235
 11
1291.5994878514903
 21
1371.2854159007231
  0
LINE
  8
_0-0_
  6
CONTINUOUS
 62
    7
 10
1234.7577348514906
 20
1158.4308759007229
 11
1246.7101308514902
 21
1158.4308759007229
  0
LINE
  8
_0-0_
  6
CONTINUOUS
 62
    7
 10
1234.7577348514906
 20
1158.4308759007229
 11
1234.7577348514906
 21
1407.9188809007239
  0
LINE
  8
_0-0_
  6
CONTINUOUS
 62
    7
 10
1199.757805851491
 20
1188.830898900723
 11
1227.7577248514908
 21
1188.830898900723
  0
LINE
  8
_0-0_
  6
CONTINUOUS
 62
    7
 10
1198.7577778514906
 20
1187.8308709007226
 11
1228.7577528514903
 21
1187.8308709007226
  0
ARC
  8
_0-0_
  6
CONTINUOUS
 62
    7
 10
1213.7577648514884
 20
1202.8308599007207
 40
3.999999072974235
 50
112.02387131587876
 51
67.976128684080152
  0
ARC
  8
_0-0_
  6
CONTINUOUS
 62
    7
 10
1213.7577648514884
 20
1202.8308599007207
 40
5.0000285827050082
 50
112.02387131587513
 51
67.976128684075547
  0
LINE
  8
_0-0_
  6
CONTINUOUS
 62
    7
 10
1211.882789851491
 20
1207.4660249007241
 11
1212.2577937737665
 21
1206.5389698437768
  0
LINE
  8
_0-0_
  6
CONTINUOUS
 62
    7
 10
1215.63273985149
 20
1207.4660249007222
 11
1215.2577359292131
 21
1206.5389698437759
  0
ARC
  8
_0-0_
  6
CONTINUOUS
 62
    7
 10
1213.7577648514907
 20
1262.8308089007235
 40
4.000000000000596
 50
292.02386499999767
 51
247.97613500000236
  0
ARC
  8
_0-0_
  6
CONTINUOUS
 62
    7
 10
1213.7577648514907
 20
1262.8308089007235
 40
5.0000000000003864
 50
292.02386499999795
 51
247.9761350000021
  0
LINE
  8
_0-0_
  6
CONTINUOUS
 62
    7
 10
1215.6327286222336
 20
1258.1956701909969
 11
1215.2577358680851
 21
1259.1226979329424
  0
LINE
  8
_0-0_
  6
CONTINUOUS
 62
    7
 10
1211.8828010807479
 20
1258.1956701909969
 11
1212.2577938348963
 21
1259.1226979329424
  0
CIRCLE
  8
_0-0_
  6
CONTINUOUS
 62
    7
 10
1183.8053922128847
 20
1192.8886145037898
 40
1.2843322407210123
  0
CIRCLE
  8
_0-0_
  6
CONTINUOUS
 62
    7
 10
1183.8053922128847
 20
1192.8886145037898
 40
2.5331176404733706
  0
CIRCLE
  8
_0-0_
  6
CONTINUOUS
 62
    7
 10
1183.8053922128847
 20
1192.8886145037898
 40
7.6084332730519142
  0
LINE
  8
_0-0_
  6
CONTINUOUS
 62
    7
 10
1210.7577396793868
 20
1286.4132203389665
 11
1216.7577900235942
 21
1286.4132203389674
  0
LINE
  8
_0-0_
  6
CONTINUOUS
 62
    7
 10
1210.7577396793868
 20
1286.4132203389665
 11
1210.7577396793868
 21
1407.9188809007239
  0
LINE
  8
_0-0_
  6
CONTINUOUS
 62
    7
 10
1216.7577900235942
 20
1286.4132203389674
 11
1216.7577900235942
 21
1407.9188809007239
  0
ARC
  8
_0-0_
  6
CONTINUOUS
 62
    7
 10
1213.7577648514903
 20
1292.3308319007231
 40
6.6346271657932299
 50
184.32269107201483
 51
243.11656212723824
  0
ARC
  8
_0-0_
  6
CONTINUOUS
 62
    7
 10
1213.7577648514903
 20
1292.3308319007231
 40
6.6346271657932299
 50
296.88343787276705
 51
355.67730892798511
  0
ARC
  8
_0-0_
  6
CONTINUOUS
 62
    7
 10
1213.7577648514903
 20
1292.3308319007231
 40
6.6346271657932299
 50
4.322691072014865
 51
63.11656212723296
  0
ARC
  8
_0-0_
  6
CONTINUOUS
 62
    7
 10
1213.7577648514903
 20
1292.3308319007231
 40
6.6346271657932299
 50
116.88343787276175
 51
175.67730892798517
  0
LINE
  8
_0-0_
  6
CONTINUOUS
 62
    7
 10
762.16355773024782
 20
312.22494080962247
 11
916.64718931494656
 21
299.35133459663052
  0
LINE
  8
_0-0_
  6
CONTINUOUS
 62
    7
 10
762.16355773024782
 20
493.93826483187081
 11
842.74235731494639
 21
481.85144059663003
  0
LINE
  8
_0-0_
  6
CONTINUOUS
 62
    7
 10
842.74235731494639
 20
481.85144059663003
 11
842.74235731494639
 21
451.85146659662973
  0
LINE
  8
_0-0_
  6
CONTINUOUS
 62
    7
 10
842.74235731494639
 20
451.85146659662973
 11
812.7423833149461
 21
451.85146659662973
  0
LINE
  8
_0-0_
  6
CONTINUOUS
 62
    7
 10
812.7423833149461
 20
451.85146659662973
 11
812.7423833149461
 21
421.85149059663058
  0
LINE
  8
_0-0_
  6
CONTINUOUS
 62
    7
 10
762.16355773024782
 20
490.90475137889121
 11
839.74239731494538
 21
479.26792259662875
  0
LINE
  8
_0-0_
  6
CONTINUOUS
 62
    7
 10
839.74239731494538
 20
479.26792259662875
 11
839.74239731494538
 21
454.85142659663074
  0
LINE
  8
_0-0_
  6
CONTINUOUS
 62
    7
 10
960.74245131494547
 20
404.93229659663052
 11
822.74241531494602
 21
422.93230659663027
  0
LINE
  8
_0-0_
  6
CONTINUOUS
 62
    7
 10
957.7424893149456
 20
402.2981765966299
 11
957.7424893149456
 21
362.93235659662901
  0
LINE
  8
_0-0_
  6
CONTINUOUS
 62
    7
 10
960.74245131494547
 20
404.93229659663052
 11
960.74245131494547
 21
362.93235659662901
  0
LINE
  8
_0-0_
  6
CONTINUOUS
 62
    7
 10
960.74245131494547
 20
362.93235659662901
 11
957.7424893149456
 21
362.93235659662901
  0
LINE
  8
_0-0_
  6
CONTINUOUS
 62
    7
 10
819.74245531494682
 20
420.29818659662965
 11
819.74245531494682
 21
442.83104659662899
  0
LINE
  8
_0-0_
  6
CONTINUOUS
 62
    7
 10
819.74245531494682
 20
442.83104659662899
 11
822.74241531494602
 21
442.83104659662899
  0
LINE
  8
_0-0_
  6
CONTINUOUS
 62
    7
 10
822.74241531494602
 20
442.83104659662899
 11
822.74241531494602
 21
422.93230659663027
  0
LINE
  8
_0-0_
  6
CONTINUOUS
 62
    7
 10
809.7424233149469
 20
421.85149059663058
 11
812.7423833149461
 21
421.85149059663058
  0
LINE
  8
_0-0_
  6
CONTINUOUS
 62
    2
 10
822.88122931494593
 20
451.85146659662973
 11
822.74241531494602
 21
451.71265259662982
  0
LINE
  8
_0-0_
  6
CONTINUOUS
 62
    2
 10
822.74241531494602
 20
442.83104659662899
 11
822.74241531494602
 21
451.85146659662973
  0
LINE
  8
_0-0_
  6
CONTINUOUS
 62
    7
 10
839.74239731494538
 20
454.85142659663074
 11
809.7424233149469
 21
454.85142659663074
  0
LINE
  8
_0-0_
  6
CONTINUOUS
 62
    7
 10
809.7424233149469
 20
421.85149059663058
 11
809.7424233149469
 21
454.85142659663074
  0
LINE
  8
_0-0_
  6
CONTINUOUS
 62
    7
 10
819.74245531494682
 20
420.29818659662965
 11
957.7424893149456
 21
402.2981765966299
  0
LINE
  8
_0-0_
  6
CONTINUOUS
 62
    7
 10
916.64718931494656
 20
214.67089664052332
 11
916.64718931494656
 21
407.65846659663043
  0
LINE
  8
_0-0_
  6
CONTINUOUS
 62
    7
 10
1136.7101388514902
 20
928.43079690072341
 11
809.30481685149073
 21
928.43079690072341
  0
LINE
  8
_0-0_
  6
CONTINUOUS
 62
    7
 10
1114.2101258514904
 20
1174.9308429007226
 11
1128.5798848514905
 21
1174.9308429007226
  0
LINE
  8
_0-0_
  6
CONTINUOUS
 62
    7
 10
1128.5798848514905
 20
1173.4308629007239
 11
1128.5798848514905
 21
1174.9308429007226
  0
LINE
  8
_0-0_
  6
CONTINUOUS
 62
    7
 10
1209.7577148514902
 20
1291.8307559007237
 11
1199.757805851491
 21
1291.8307559007237
  0
LINE
  8
_0-0_
  6
CONTINUOUS
 62
    7
 10
1209.7577148514902
 20
1292.8309079007224
 11
1209.7577148514902
 21
1291.8307559007237
  0
LINE
  8
_0-0_
  6
CONTINUOUS
 62
    7
 10
1217.7578148514904
 20
1292.8309079007224
 11
1217.7578148514904
 21
1291.8307559007237
  0
LINE
  8
_0-0_
  6
CONTINUOUS
 62
    7
 10
1217.7578148514904
 20
1291.8307559007237
 11
1227.7577248514908
 21
1291.8307559007237
  0
LINE
  8
_0-0_
  6
CONTINUOUS
 62
    7
 10
1217.7578148514904
 20
1292.8309079007224
 11
1228.7577528514903
 21
1292.8309079007224
  0
LINE
  8
_0-0_
  6
CONTINUOUS
 62
    7
 10
1209.7577148514902
 20
1292.8309079007224
 11
1198.7577778514906
 21
1292.8309079007224
  0
LINE
  8
_0-0_
  6
CONTINUOUS
 62
    7
 10
1198.7577778514906
 20
1187.8308709007226
 11
1198.7577778514906
 21
1407.9188809007239
  0
LINE
  8
_0-0_
  6
CONTINUOUS
 62
    7
 10
1228.7577528514903
 20
1187.8308709007226
 11
1228.7577528514903
 21
1407.9188809007239
  0
LINE
  8
_0-0_
  6
CONTINUOUS
 62
    7
 10
1208.7577648514903
 20
1262.8308089007235
 11
1198.7577778514906
 21
1262.8308089007235
  0
LINE
  8
_0-0_
  6
CONTINUOUS
 62
    7
 10
1208.8588163952504
 20
1261.8306569007229
 11
1198.7577778514906
 21
1261.8306569007229
  0
LINE
  8
_0-0_
  6
CONTINUOUS
 62
    7
 10
1228.7577528514903
 20
1262.8308089007235
 11
1218.7577648514912
 21
1262.8308089007235
  0
LINE
  8
_0-0_
  6
CONTINUOUS
 62
    7
 10
1228.7577528514903
 20
1261.8306569007229
 11
1218.656713307731
 21
1261.8306569007229
  0
LINE
  8
_0-0_
  6
CONTINUOUS
 62
    7
 10
1142.7101208514905
 20
1197.4308559007234
 11
1174.7577228514901
 21
1197.4308559007234
  0
LINE
  8
_0-0_
  6
CONTINUOUS
 62
    7
 10
1173.2577428514905
 20
1195.9308759007229
 11
1142.7101208514905
 21
1195.9308759007229
  0
LINE
  8
_0-0_
  6
CONTINUOUS
 62
    7
 10
1142.7101208514905
 20
1197.4308559007234
 11
1142.7101208514905
 21
1195.9308759007229
  0
LINE
  8
_0-0_
  6
CONTINUOUS
 62
    7
 10
1198.7577778514906
 20
1203.8308869007226
 11
1208.8587910814836
 21
1203.8308869007226
  0
LINE
  8
_0-0_
  6
CONTINUOUS
 62
    7
 10
1198.7577778514906
 20
1202.830858900724
 11
1208.7577362687834
 21
1202.830858900724
  0
LINE
  8
_0-0_
  6
CONTINUOUS
 62
    7
 10
1218.6567679977557
 20
1203.8308869007226
 11
1228.7577528514903
 21
1203.8308869007226
  0
LINE
  8
_0-0_
  6
CONTINUOUS
 62
    7
 10
1228.7577528514903
 20
1202.830858900724
 11
1218.7577648514907
 21
1202.830858900724
  0
LINE
  8
_0-0_
  6
CONTINUOUS
 62
    7
 10
1288.7313419125126
 20
756.46821290072262
 11
1460.6939259125134
 21
928.43079690072341
  0
LINE
  8
_0-0_
  6
CONTINUOUS
 62
    7
 10
1281.6602741006463
 20
756.46821290072262
 11
1453.6228581006467
 21
928.4307969007225
  0
LINE
  8
_0-0_
  6
CONTINUOUS
 62
    7
 10
1274.589206288781
 20
756.46821290072262
 11
1446.5517902887823
 21
928.43079690072341
  0
LINE
  8
_0-0_
  6
CONTINUOUS
 62
    7
 10
1062.4571719328173
 20
756.46821290072353
 11
1271.7101508514902
 21
965.72119181939638
  0
LINE
  8
_0-0_
  6
CONTINUOUS
 62
    7
 10
1055.3861041209516
 20
756.46821290072262
 11
1271.7101508514911
 21
972.79225963126214
  0
LINE
  8
_0-0_
  6
CONTINUOUS
 62
    7
 10
1048.3150363090858
 20
756.46821290072262
 11
1271.7101508514902
 21
979.86332744312699
  0
LINE
  8
_0-0_
  6
CONTINUOUS
 62
    7
 10
903.14558595312303
 20
823.43079690072341
 11
1008.145585953123
 21
928.43079690072341
  0
LINE
  8
_0-0_
  6
CONTINUOUS
 62
    7
 10
1136.7101388514902
 20
1056.9953497990903
 11
1170.342854155223
 21
1090.628065102823
  0
LINE
  8
_0-0_
  6
CONTINUOUS
 62
    7
 10
896.07451814125636
 20
823.43079690072341
 11
1001.0745181412564
 21
928.4307969007225
  0
LINE
  8
_0-0_
  6
CONTINUOUS
 62
    7
 10
1136.7101388514907
 20
1064.0664176109578
 11
1163.8157134761959
 21
1091.1719922356626
  0
LINE
  8
_0-0_
  6
CONTINUOUS
 62
    7
 10
889.00345032939242
 20
823.43079690072341
 11
994.00345032939242
 21
928.43079690072341
  0
LINE
  8
_0-0_
  6
CONTINUOUS
 62
    7
 10
1136.7101388514907
 20
1071.1374854228218
 11
1157.288572797172
 21
1091.7159193685031
  0
LINE
  8
_0-0_
  6
CONTINUOUS
 62
    7
 10
924.71006985148972
 20
985.01417794187023
 11
981.29345089263745
 21
928.4307969007225
  0
LINE
  8
_0-0_
  6
CONTINUOUS
 62
    7
 10
924.71006985149108
 20
992.08524575373508
 11
988.3645187045023
 21
928.43079690072432
  0
LINE
  8
_0-0_
  6
CONTINUOUS
 62
    7
 10
1050.5676098723306
 20
1085.4308079007244
 11
1136.7101388514911
 21
999.28827892156391
  0
LINE
  8
_0-0_
  6
CONTINUOUS
 62
    7
 10
1057.6386776841987
 20
1085.4308079007226
 11
1136.7101388514898
 21
1006.3593467334315
  0
TEXT
  8
_0-0_
 62
    7
 10
1001.0988581212924
 20
476.35378049866017
 40
21.617968000000001
 41
1
 50
0
  1
ｼｰﾘﾝｸﾞ
  0
LINE
  8
_0-0_
  6
CONTINUOUS
 62
    7
 10
1463.9579782048359
 20
935.27597864577115
 11
1523.7159231954147
 21
1038.7797755253598
  0
POINT
  8
_0-0_
 62
    7
 10
1463.9579782048359
 20
935.27597864577115
  0
LINE
  8
_0-0_
  6
CONTINUOUS
 62
    7
 10
1330.9944220989528
 20
969.77597864577115
 11
1368.8228492236985
 21
969.77597864577115
  0
LINE
  8
_0-0_
  6
CONTINUOUS
 62
    7
 10
1273.7101508514907
 20
997.88867701797903
 11
1300.8228492236985
 21
970.77597864577115
  0
LINE
  8
_0-0_
  6
CONTINUOUS
 62
    6
 10
1271.7101508514902
 20
955.24928795420988
 11
1279.2368415430524
 21
962.77597864577206
  0
LINE
  8
_0-0_
  6
CONTINUOUS
 62
    6
 10
1271.7101508514902
 20
941.10715233047836
 11
1293.3789771667834
 21
962.77597864577206
  0
LINE
  8
_0-0_
  6
CONTINUOUS
 62
    6
 10
1272.5211127905127
 20
927.77597864577024
 11
1307.5211127905127
 21
962.77597864577024
  0
LINE
  8
_0-0_
  6
CONTINUOUS
 62
    6
 10
1286.6632484142456
 20
927.77597864577206
 11
1321.6632484142456
 21
962.77597864577206
  0
LINE
  8
_0-0_
  6
CONTINUOUS
 62
    6
 10
1300.8053840379762
 20
927.77597864577206
 11
1335.8053840379762
 21
962.77597864577206
  0
LINE
  8
_0-0_
  6
CONTINUOUS
 62
    6
 10
1314.9475196617059
 20
927.77597864577115
 11
1349.9475196617054
 21
962.77597864577024
  0
LINE
  8
_0-0_
  6
CONTINUOUS
 62
    6
 10
1329.0896552854383
 20
927.77597864577206
 11
1364.0896552854383
 21
962.77597864577206
  0
LINE
  8
_0-0_
  6
CONTINUOUS
 62
    6
 10
1343.2317909091689
 20
927.77597864577206
 11
1378.2317909091689
 21
962.77597864577206
  0
LINE
  8
_0-0_
  6
CONTINUOUS
 62
    6
 10
1357.3739265328986
 20
927.77597864577024
 11
1392.3739265328986
 21
962.77597864577115
  0
LINE
  8
_0-0_
  6
CONTINUOUS
 62
    6
 10
1371.5160621566306
 20
927.77597864577115
 11
1406.5160621566311
 21
962.77597864577206
  0
LINE
  8
_0-0_
  6
CONTINUOUS
 62
    6
 10
1385.6581977803617
 20
927.77597864577206
 11
1420.6581977803621
 21
962.77597864577206
  0
LINE
  8
_0-0_
  6
CONTINUOUS
 62
    6
 10
1399.8003334040914
 20
927.77597864577115
 11
1434.8003334040914
 21
962.77597864577024
  0
LINE
  8
_0-0_
  6
CONTINUOUS
 62
    6
 10
1413.9424690278233
 20
927.77597864577206
 11
1448.9424690278233
 21
962.77597864577115
  0
LINE
  8
_0-0_
  6
CONTINUOUS
 62
    6
 10
1428.0846046515549
 20
927.77597864577206
 11
1463.0846046515549
 21
962.77597864577206
  0
LINE
  8
_0-0_
  6
CONTINUOUS
 62
    6
 10
1442.2267402752841
 20
927.77597864577115
 11
1477.2267402752841
 21
962.77597864577115
  0
LINE
  8
_0-0_
  6
CONTINUOUS
 62
    6
 10
1456.3688758990161
 20
927.77597864577115
 11
1491.3688758990161
 21
962.77597864577115
  0
LINE
  8
_0-0_
  6
CONTINUOUS
 62
    6
 10
1470.5110115227471
 20
927.77597864577206
 11
1505.5110115227471
 21
962.77597864577206
  0
LINE
  8
_0-0_
  6
CONTINUOUS
 62
    6
 10
1484.6531471464768
 20
927.77597864577024
 11
1519.6531471464768
 21
962.77597864577024
  0
LINE
  8
_0-0_
  6
CONTINUOUS
 62
    6
 10
1491.9234103336016
 20
962.77597864577115
 11
1526.9234103336012
 21
927.77597864577115
  0
LINE
  8
_0-0_
  6
CONTINUOUS
 62
    6
 10
1477.7812747098692
 20
962.77597864577206
 11
1512.7812747098692
 21
927.77597864577206
  0
LINE
  8
_0-0_
  6
CONTINUOUS
 62
    6
 10
1463.639139086139
 20
962.77597864577115
 11
1498.6391390861395
 21
927.77597864577115
  0
LINE
  8
_0-0_
  6
CONTINUOUS
 62
    6
 10
1449.4970034624089
 20
962.77597864577024
 11
1484.4970034624084
 21
927.77597864577115
  0
LINE
  8
_0-0_
  6
CONTINUOUS
 62
    6
 10
1435.3548678386765
 20
962.77597864577206
 11
1470.3548678386765
 21
927.77597864577206
  0
LINE
  8
_0-0_
  6
CONTINUOUS
 62
    6
 10
1421.2127322149468
 20
962.77597864577115
 11
1456.2127322149468
 21
927.77597864577115
  0
LINE
  8
_0-0_
  6
CONTINUOUS
 62
    6
 10
1407.0705965912161
 20
962.77597864577024
 11
1442.0705965912157
 21
927.77597864577206
  0
LINE
  8
_0-0_
  6
CONTINUOUS
 62
    6
 10
1392.9284609674837
 20
962.77597864577206
 11
1427.9284609674837
 21
927.77597864577206
  0
LINE
  8
_0-0_
  6
CONTINUOUS
 62
    6
 10
1378.786325343754
 20
962.77597864577024
 11
1413.7863253437536
 21
927.77597864577024
  0
LINE
  8
_0-0_
  6
CONTINUOUS
 62
    6
 10
1364.6441897200234
 20
962.77597864577024
 11
1399.6441897200234
 21
927.77597864577024
  0
LINE
  8
_0-0_
  6
CONTINUOUS
 62
    6
 10
1350.502054096291
 20
962.77597864577206
 11
1385.502054096291
 21
927.77597864577206
  0
LINE
  8
_0-0_
  6
CONTINUOUS
 62
    6
 10
1336.3599184725613
 20
962.77597864577024
 11
1371.3599184725608
 21
927.77597864577024
  0
LINE
  8
_0-0_
  6
CONTINUOUS
 62
    6
 10
1322.2177828488307
 20
962.77597864577024
 11
1357.2177828488302
 21
927.77597864577206
  0
LINE
  8
_0-0_
  6
CONTINUOUS
 62
    6
 10
1308.0756472250982
 20
962.77597864577206
 11
1343.0756472250982
 21
927.77597864577206
  0
LINE
  8
_0-0_
  6
CONTINUOUS
 62
    6
 10
1293.9335116013685
 20
962.77597864577024
 11
1328.9335116013685
 21
927.77597864577024
  0
LINE
  8
_0-0_
  6
CONTINUOUS
 62
    6
 10
1279.7913759776379
 20
962.77597864577024
 11
1314.7913759776379
 21
927.77597864577024
  0
LINE
  8
_0-0_
  6
CONTINUOUS
 62
    6
 10
1271.7101508514911
 20
956.71506814818554
 11
1300.6492403539055
 21
927.77597864577206
  0
LINE
  8
_0-0_
  6
CONTINUOUS
 62
    6
 10
1271.7101508514902
 20
942.57293252445584
 11
1286.5071047301749
 21
927.77597864577024
  0
LINE
  8
_0-0_
  6
CONTINUOUS
 62
    6
 10
1271.7101508514907
 20
928.43079690072341
 11
1272.3649691064429
 21
927.77597864577115
  0
LINE
  8
_0-0_
  6
CONTINUOUS
 62
    6
 10
1271.7101508514907
 20
962.77597864577115
 11
1271.7101508514907
 21
927.77597864577115
  0
LINE
  8
_0-0_
  6
CONTINUOUS
 62
    1
 10
1247.7101508514907
 20
1012.4744634556066
 11
1248.3958831576874
 21
1013.1601957618034
  0
LINE
  8
_0-0_
  6
CONTINUOUS
 62
    1
 10
1247.7101508514907
 20
1012.4744634556066
 11
1248.3958831576874
 21
1011.7887311494089
  0
LINE
  8
_0-0_
  6
DASHED1
 62
    1
 10
1248.3958831576874
 20
1013.1601957618034
 11
1248.9601508514907
 21
1013.7244634556066
  0
LINE
  8
_0-0_
  6
DASHED1
 62
    1
 10
1248.3958831576874
 20
1011.7887311494089
 11
1248.9601508514907
 21
1011.2244634556066
  0
LINE
  8
_0-0_
  6
CONTINUOUS
 62
    1
 10
1247.8654629014181
 20
1009.5109330016915
 11
1247.7478683802419
 21
1011.7547701339811
  0
LINE
  8
_0-0_
  6
CONTINUOUS
 62
    1
 10
1247.7478683802419
 20
1013.1941567772321
 11
1247.8654629014181
 21
1015.4379939095209
  0
LINE
  8
_0-0_
  6
CONTINUOUS
 62
    4
 10
1324.9660768607255
 20
979.77597864577115
 11
1332.4944220989528
 21
979.77597864577115
  0
LINE
  8
_0-0_
  6
CONTINUOUS
 62
    7
 10
1368.8228492236985
 20
969.77597864577115
 11
1368.8228492236985
 21
968.77597864577115
  0
LINE
  8
_0-0_
  6
CONTINUOUS
 62
    7
 10
1300.8228492236985
 20
970.77597864577115
 11
1300.8228492236985
 21
971.77597864577115
  0
LINE
  8
_0-0_
  6
CONTINUOUS
 62
    7
 10
1272.7101508514907
 20
1028.0602498932333
 11
1274.7101508514907
 21
1028.0602498932333
  0
LINE
  8
_0-0_
  6
CONTINUOUS
 62
    7
 10
1273.7101508514907
 20
997.88867701797903
 11
1274.7101508514907
 21
997.88867701797903
  0
LINE
  8
_0-0_
  6
CONTINUOUS
 62
    1
 10
1256.7101508514907
 20
1009.9744634556066
 11
1247.8654629014181
 21
1009.5109330016915
  0
LINE
  8
_0-0_
  6
CONTINUOUS
 62
    1
 10
1273.7101508514907
 20
1009.9744634556066
 11
1273.7101508514907
 21
1004.9744634556066
  0
LINE
  8
_0-0_
  6
CONTINUOUS
 62
    1
 10
1273.7101508514907
 20
1014.9744634556066
 11
1273.7101508514907
 21
1019.9744634556066
  0
LINE
  8
_0-0_
  6
CONTINUOUS
 62
    1
 10
1275.7101508514907
 20
1014.2992922146952
 11
1275.7101508514907
 21
1010.6496346965162
  0
LINE
  8
_0-0_
  6
CONTINUOUS
 62
    1
 10
1275.7101508514907
 20
1014.2992922146962
 11
1274.8320848093038
 21
1017.6750732477494
  0
LINE
  8
_0-0_
  6
CONTINUOUS
 62
    1
 10
1274.8320848093038
 20
1017.6750732477494
 11
1273.7101508514907
 21
1019.9744634556066
  0
LINE
  8
_0-0_
  6
CONTINUOUS
 62
    1
 10
1273.7101508514907
 20
1004.9744634556066
 11
1275.1756686190965
 21
1008.2488021415531
  0
LINE
  8
_0-0_
  6
CONTINUOUS
 62
    1
 10
1275.1756686190965
 20
1008.2488021415531
 11
1275.7101508514907
 21
1010.6496346965171
  0
LINE
  8
_0-0_
  6
CONTINUOUS
 62
    1
 10
1275.8784794710668
 20
1010.9957510247324
 11
1275.7101508514907
 21
1011.2244634556066
  0
LINE
  8
_0-0_
  6
CONTINUOUS
 62
    1
 10
1275.7101508514907
 20
1013.7244634556066
 11
1275.8784794710668
 21
1013.9531758864808
  0
LINE
  8
_0-0_
  6
CONTINUOUS
 62
    1
 10
1275.8784794710668
 20
1010.9957510247323
 11
1275.9080191459675
 21
1011.2520556535147
  0
LINE
  8
_0-0_
  6
CONTINUOUS
 62
    1
 10
1275.9080191459675
 20
1011.2520556535147
 11
1275.9315466928665
 21
1011.5455025247956
  0
LINE
  8
_0-0_
  6
CONTINUOUS
 62
    1
 10
1275.9315466928665
 20
1011.5455025247956
 11
1275.9483472391571
 21
1011.8671754038821
  0
LINE
  8
_0-0_
  6
CONTINUOUS
 62
    1
 10
1275.9483472391571
 20
1011.8671754038821
 11
1275.9579103087417
 21
1012.2073004231178
  0
LINE
  8
_0-0_
  6
CONTINUOUS
 62
    1
 10
1275.9579103087417
 20
1012.2073004231178
 11
1275.95994533259
 21
1012.5555430559045
  0
LINE
  8
_0-0_
  6
CONTINUOUS
 62
    1
 10
1275.95994533259
 20
1012.5555430559045
 11
1275.9543904775323
 21
1012.9013221260645
  0
LINE
  8
_0-0_
  6
CONTINUOUS
 62
    1
 10
1275.9543904775323
 20
1012.9013221260645
 11
1275.9414145250284
 21
1013.2341313115236
  0
LINE
  8
_0-0_
  6
CONTINUOUS
 62
    1
 10
1275.9414145250284
 20
1013.2341313115236
 11
1275.9214117428294
 21
1013.5438583735911
  0
LINE
  8
_0-0_
  6
CONTINUOUS
 62
    1
 10
1275.9214117428294
 20
1013.5438583735911
 11
1275.89498990535
 21
1013.8210924122155
  0
LINE
  8
_0-0_
  6
CONTINUOUS
 62
    1
 10
1275.89498990535
 20
1013.8210924122155
 11
1275.8784794710668
 21
1013.9531758864808
  0
LINE
  8
_0-0_
  6
DASHED1
 62
    1
 10
1275.7101508514907
 20
1013.7244634556066
 11
1248.9601508514907
 21
1013.7244634556066
  0
LINE
  8
_0-0_
  6
DASHED1
 62
    1
 10
1275.7101508514907
 20
1011.2244634556066
 11
1248.9601508514907
 21
1011.2244634556066
  0
LINE
  8
_0-0_
  6
CONTINUOUS
 62
    1
 10
1256.7101508514907
 20
1014.9744634556066
 11
1273.7101508514907
 21
1014.9744634556066
  0
LINE
  8
_0-0_
  6
CONTINUOUS
 62
    1
 10
1256.7101508514907
 20
1014.9744634556066
 11
1247.8654629014181
 21
1015.4379939095209
  0
LINE
  8
_0-0_
  6
CONTINUOUS
 62
    1
 10
1256.7101508514907
 20
1012.7244634556066
 11
1247.7478683802419
 21
1013.1941567772321
  0
LINE
  8
_0-0_
  6
CONTINUOUS
 62
    1
 10
1256.7101508514907
 20
1009.9744634556066
 11
1273.7101508514907
 21
1009.9744634556066
  0
LINE
  8
_0-0_
  6
CONTINUOUS
 62
    1
 10
1256.7101508514907
 20
1012.2244634556066
 11
1247.7478683802419
 21
1011.7547701339811
  0
LINE
  8
_0-0_
  6
CONTINUOUS
 62
    1
 10
1256.7101508514907
 20
1012.2244634556066
 11
1256.7101508514907
 21
1012.7244634556066
  0
LINE
  8
_0-0_
  6
CONTINUOUS
 62
    7
 10
1274.7101508514907
 20
997.88867701797903
 11
1274.7101508514907
 21
1004.7247449819572
  0
LINE
  8
_0-0_
  6
CONTINUOUS
 62
    7
 10
1274.7101508514907
 20
1020.2241819292542
 11
1274.7101508514907
 21
1028.0602498932333
  0
LINE
  8
_0-0_
  6
CONTINUOUS
 62
    7
 10
1274.7101508514907
 20
1004.7247449819581
 11
1276.1945414296247
 21
1008.1727312253149
  0
LINE
  8
_0-0_
  6
CONTINUOUS
 62
    7
 10
1276.1945414296247
 20
1008.1727312253149
 11
1276.8134482138394
 21
1011.7514234257076
  0
LINE
  8
_0-0_
  6
CONTINUOUS
 62
    7
 10
1276.8134482138394
 20
1011.7514234257076
 11
1276.5480660346782
 21
1015.3520848315329
  0
LINE
  8
_0-0_
  6
CONTINUOUS
 62
    7
 10
1276.5480660346782
 20
1015.3520848315329
 11
1275.4064583953648
 21
1018.8653111679973
  0
LINE
  8
_0-0_
  6
CONTINUOUS
 62
    7
 10
1275.4064583953648
 20
1018.8653111679973
 11
1274.7101508514907
 21
1020.2241819292551
  0
LINE
  8
_0-0_
  6
CENTER2
 62
    1
 10
1281.2003786164987
 20
1012.4744634556066
 11
1243.4233264040549
 21
1012.4744634556066
  0
LINE
  8
_0-0_
  6
CONTINUOUS
 62
    4
 10
1279.7101508514907
 20
1000.3739583922181
 11
1279.7101508514907
 21
1003.5598479101193
  0
LINE
  8
_0-0_
  6
CONTINUOUS
 62
    4
 10
1279.7101508514907
 20
1003.5598479101203
 11
1281.2804585636861
 21
1007.8781365434345
  0
LINE
  8
_0-0_
  6
CONTINUOUS
 62
    4
 10
1281.2804585636861
 20
1007.8781365434345
 11
1281.8307494634419
 21
1012.3360822441215
  0
LINE
  8
_0-0_
  6
CONTINUOUS
 62
    4
 10
1281.8307494634419
 20
1012.3360822441215
 11
1281.3443032402297
 21
1016.7982325878951
  0
LINE
  8
_0-0_
  6
CONTINUOUS
 62
    4
 10
1281.3443032402297
 20
1016.7982325878951
 11
1279.8359003163878
 21
1021.129007394517
  0
LINE
  8
_0-0_
  6
CONTINUOUS
 62
    4
 10
1279.8359003163878
 20
1021.129007394517
 11
1279.7101508514907
 21
1021.3890790010929
  0
LINE
  8
_0-0_
  6
CONTINUOUS
 62
    4
 10
1279.7101508514907
 20
1021.3890790010921
 11
1279.7101508514907
 21
1029.5602498932333
  0
LINE
  8
_0-0_
  6
CONTINUOUS
 62
    4
 10
1279.7101508514907
 20
1029.5602498932333
 11
1277.7101508514907
 21
1031.5602498932333
  0
LINE
  8
_0-0_
  6
CONTINUOUS
 62
    7
 10
1330.9944220989528
 20
969.77597864577115
 11
1330.9944220989528
 21
971.77597864577115
  0
LINE
  8
_0-0_
  6
CONTINUOUS
 62
    7
 10
1300.8228492236985
 20
971.77597864577115
 11
1307.6589171876767
 21
971.77597864577115
  0
LINE
  8
_0-0_
  6
CONTINUOUS
 62
    7
 10
1323.1583541349746
 20
971.77597864577115
 11
1330.9944220989528
 21
971.77597864577115
  0
LINE
  8
_0-0_
  6
CONTINUOUS
 62
    7
 10
1323.1583541349737
 20
971.77597864577115
 11
1319.7103678916169
 21
973.26036922390529
  0
LINE
  8
_0-0_
  6
CONTINUOUS
 62
    7
 10
1319.7103678916169
 20
973.26036922390529
 11
1316.1316756912242
 21
973.87927600811986
  0
LINE
  8
_0-0_
  6
CONTINUOUS
 62
    7
 10
1316.1316756912242
 20
973.87927600811986
 11
1312.5310142853989
 21
973.61389382895857
  0
LINE
  8
_0-0_
  6
CONTINUOUS
 62
    7
 10
1312.5310142853989
 20
973.61389382895857
 11
1309.0177879489345
 21
972.47228618964539
  0
LINE
  8
_0-0_
  6
CONTINUOUS
 62
    7
 10
1309.0177879489345
 20
972.47228618964539
 11
1307.6589171876767
 21
971.77597864577115
  0
LINE
  8
_0-0_
  6
CONTINUOUS
 62
    4
 10
1279.7101508514907
 20
1000.3739583922181
 11
1300.3081305979376
 21
979.77597864577115
  0
LINE
  8
_0-0_
  6
CONTINUOUS
 62
    4
 10
1300.3081305979376
 20
979.77597864577115
 11
1305.8511944619258
 21
979.77597864577115
  0
LINE
  8
_0-0_
  6
CONTINUOUS
 62
    4
 10
1324.9660768607253
 20
979.77597864577115
 11
1320.1244374453966
 21
981.39198810950029
  0
LINE
  8
_0-0_
  6
CONTINUOUS
 62
    4
 10
1320.1244374453966
 20
981.39198810950029
 11
1315.1395107791698
 21
981.89543865426879
  0
LINE
  8
_0-0_
  6
CONTINUOUS
 62
    4
 10
1315.1395107791698
 20
981.89543865426879
 11
1310.1627613363037
 21
981.27103319003209
  0
LINE
  8
_0-0_
  6
CONTINUOUS
 62
    4
 10
1310.1627613363037
 20
981.27103319003209
 11
1305.8511944619252
 21
979.77597864577115
  0
LINE
  8
_0-0_
  6
CONTINUOUS
 62
    4
 10
1332.4944220989528
 20
979.77597864577115
 11
1334.4944220989528
 21
977.77597864577115
  0
LINE
  8
_0-0_
  6
CONTINUOUS
 62
    7
 10
1271.7101508514907
 20
997.06024989323328
 11
1299.9944220989528
 21
968.77597864577115
  0
LINE
  8
_0-0_
  6
CONTINUOUS
 62
    7
 10
1299.9944220989528
 20
968.77597864577115
 11
1329.9944220989528
 21
968.77597864577115
  0
LINE
  8
_0-0_
  6
CONTINUOUS
 62
    7
 10
1329.9944220989528
 20
968.77597864577115
 11
1329.9944220989528
 21
970.77597864577115
  0
LINE
  8
_0-0_
  6
CONTINUOUS
 62
    7
 10
1271.7101508514907
 20
1027.0602498932333
 11
1271.7101508514907
 21
997.06024989323328
  0
LINE
  8
_0-0_
  6
CONTINUOUS
 62
    7
 10
1271.7101508514907
 20
1027.0602498932333
 11
1273.7101508514907
 21
1027.0602498932333
  0
LINE
  8
_0-0_
  6
CONTINUOUS
 62
    7
 10
1273.7101508514907
 20
1027.0602498932333
 11
1273.7101508514907
 21
997.88867701797903
  0
LINE
  8
_0-0_
  6
CONTINUOUS
 62
    7
 10
1300.8228492236985
 20
970.77597864577115
 11
1329.9944220989528
 21
970.77597864577115
  0
LINE
  8
_0-0_
  6
DASHED1
 62
    1
 10
1314.1586356613252
 20
972.77597864577115
 11
1314.1586356613252
 21
902.02597864577115
  0
LINE
  8
_0-0_
  6
CONTINUOUS
 62
    1
 10
1313.5838069022357
 20
972.77597864577115
 11
1317.2334644204147
 21
972.77597864577115
  0
LINE
  8
_0-0_
  6
CONTINUOUS
 62
    1
 10
1313.5838069022357
 20
972.77597864577115
 11
1310.2080258691824
 21
971.89791260358425
  0
LINE
  8
_0-0_
  6
CONTINUOUS
 62
    1
 10
1310.2080258691824
 20
971.89791260358425
 11
1307.9086356613252
 21
970.77597864577115
  0
LINE
  8
_0-0_
  6
CONTINUOUS
 62
    1
 10
1316.8873480921995
 20
972.94430726534722
 11
1316.6586356613252
 21
972.77597864577115
  0
LINE
  8
_0-0_
  6
CONTINUOUS
 62
    1
 10
1314.1586356613252
 20
972.77597864577115
 11
1313.9299232304509
 21
972.94430726534722
  0
LINE
  8
_0-0_
  6
CONTINUOUS
 62
    1
 10
1316.8873480921995
 20
972.94430726534722
 11
1316.6310434634172
 21
972.97384694024788
  0
LINE
  8
_0-0_
  6
CONTINUOUS
 62
    1
 10
1316.6310434634172
 20
972.97384694024788
 11
1316.3375965921364
 21
972.997374487147
  0
LINE
  8
_0-0_
  6
CONTINUOUS
 62
    1
 10
1316.3375965921364
 20
972.997374487147
 11
1316.0159237130497
 21
973.01417503343771
  0
LINE
  8
_0-0_
  6
CONTINUOUS
 62
    1
 10
1316.0159237130497
 20
973.01417503343771
 11
1315.6757986938142
 21
973.02373810302231
  0
LINE
  8
_0-0_
  6
CONTINUOUS
 62
    1
 10
1315.6757986938142
 20
973.02373810302231
 11
1315.3275560610273
 21
973.0257731268706
  0
LINE
  8
_0-0_
  6
CONTINUOUS
 62
    1
 10
1315.3275560610273
 20
973.0257731268706
 11
1314.9817769908673
 21
973.02021827181284
  0
LINE
  8
_0-0_
  6
CONTINUOUS
 62
    1
 10
1314.9817769908673
 20
973.02021827181284
 11
1314.6489678054081
 21
973.00724231930906
  0
LINE
  8
_0-0_
  6
CONTINUOUS
 62
    1
 10
1314.6489678054081
 20
973.00724231930906
 11
1314.3392407433407
 21
972.98723953710976
  0
LINE
  8
_0-0_
  6
CONTINUOUS
 62
    1
 10
1314.3392407433407
 20
972.98723953710976
 11
1314.0620067047162
 21
972.96081769963041
  0
LINE
  8
_0-0_
  6
CONTINUOUS
 62
    1
 10
1314.0620067047162
 20
972.96081769963041
 11
1313.9299232304509
 21
972.94430726534733
  0
LINE
  8
_0-0_
  6
CONTINUOUS
 62
    1
 10
1312.9086356613252
 20
970.74883842757322
 11
1312.9086356613252
 21
970.77597864577115
  0
LINE
  8
_0-0_
  6
CONTINUOUS
 62
    1
 10
1322.9086356613252
 20
970.77597864577115
 11
1322.7770138807609
 21
970.85267096823213
  0
LINE
  8
_0-0_
  6
CONTINUOUS
 62
    1
 10
1322.7770138807609
 20
970.85267096823213
 11
1319.4953525879882
 21
972.28437234665284
  0
LINE
  8
_0-0_
  6
CONTINUOUS
 62
    1
 10
1319.4953525879882
 20
972.28437234665284
 11
1317.2334644204147
 21
972.77597864577115
  0
LINE
  8
_0-0_
  6
CONTINUOUS
 62
    1
 10
1322.9086356613252
 20
970.77597864577115
 11
1307.9086356613252
 21
970.77597864577115
  0
LINE
  8
_0-0_
  6
CONTINUOUS
 62
    1
 10
1317.9086356613252
 20
909.77597864577115
 11
1318.3721661152404
 21
900.93129069569864
  0
LINE
  8
_0-0_
  6
CONTINUOUS
 62
    1
 10
1315.4086356613252
 20
900.77597864577115
 11
1314.7229033551284
 21
901.46171095196792
  0
LINE
  8
_0-0_
  6
CONTINUOUS
 62
    1
 10
1315.4086356613252
 20
900.77597864577115
 11
1316.0943679675224
 21
901.46171095196792
  0
LINE
  8
_0-0_
  6
DASHED1
 62
    1
 10
1314.7229033551284
 20
901.46171095196792
 11
1314.1586356613252
 21
902.02597864577115
  0
LINE
  8
_0-0_
  6
CONTINUOUS
 62
    1
 10
1312.9086356613252
 20
909.77597864577115
 11
1312.445105207411
 21
900.93129069569864
  0
LINE
  8
_0-0_
  6
CONTINUOUS
 62
    1
 10
1315.1586356613252
 20
909.77597864577115
 11
1314.6889423396997
 21
900.81369617452242
  0
LINE
  8
_0-0_
  6
CONTINUOUS
 62
    1
 10
1315.6586356613252
 20
909.77597864577115
 11
1316.1283289829507
 21
900.81369617452242
  0
LINE
  8
_0-0_
  6
DASHED1
 62
    1
 10
1316.0943679675224
 20
901.46171095196792
 11
1316.6586356613252
 21
902.02597864577115
  0
LINE
  8
_0-0_
  6
CONTINUOUS
 62
    1
 10
1318.3721661152404
 20
900.93129069569864
 11
1316.1283289829507
 21
900.81369617452242
  0
LINE
  8
_0-0_
  6
CONTINUOUS
 62
    1
 10
1314.6889423396997
 20
900.81369617452242
 11
1312.445105207411
 21
900.93129069569864
  0
LINE
  8
_0-0_
  6
CONTINUOUS
 62
    1
 10
1315.6586356613252
 20
909.77597864577115
 11
1315.1586356613252
 21
909.77597864577115
  0
LINE
  8
_0-0_
  6
DASHED1
 62
    1
 10
1316.6586356613252
 20
972.77597864577115
 11
1316.6586356613252
 21
902.02597864577115
  0
LINE
  8
_0-0_
  6
CENTER2
 62
    1
 10
1315.4086356613252
 20
981.33106905726731
 11
1315.4086356613252
 21
896.24562541241562
  0
LINE
  8
_0-0_
  6
CONTINUOUS
 62
    1
 10
1317.9086356613252
 20
909.77597864577115
 11
1317.9086356613252
 21
970.77597864577115
  0
LINE
  8
_0-0_
  6
CONTINUOUS
 62
    1
 10
1312.9086356613252
 20
909.77597864577115
 11
1312.9086356613252
 21
970.77597864577115
  0
LINE
  8
_0-0_
  6
CONTINUOUS
 62
    7
 10
1272.7101508514907
 20
1028.0602498932333
 11
1272.7101508514907
 21
1065.888677017979
  0
LINE
  8
_0-0_
  6
CONTINUOUS
 62
    7
 10
1272.7101508514907
 20
1065.888677017979
 11
1271.7101508514907
 21
1065.888677017979
  0
LINE
  8
_0-0_
  6
CONTINUOUS
 62
    1
 10
1320.4086356613252
 20
927.77597864577115
 11
1310.4086356613252
 21
927.77597864577115
  0
LINE
  8
_0-0_
  6
CONTINUOUS
 62
    1
 10
1310.4086356613252
 20
927.77597864577115
 11
1310.4086356613252
 21
962.77597864577115
  0
LINE
  8
_0-0_
  6
CONTINUOUS
 62
    1
 10
1310.4086356613252
 20
962.77597864577115
 11
1320.4086356613252
 21
962.77597864577115
  0
LINE
  8
_0-0_
  6
CONTINUOUS
 62
    1
 10
1320.4086356613252
 20
962.77597864577115
 11
1320.4086356613252
 21
927.77597864577115
  0
LINE
  8
_0-0_
  6
CONTINUOUS
 62
    1
 10
1311.4086356613252
 20
927.77597864577115
 11
1311.4086356613252
 21
962.77597864577115
  0
LINE
  8
_0-0_
  6
CONTINUOUS
 62
    1
 10
1319.4086356613252
 20
962.77597864577115
 11
1319.4086356613252
 21
927.77597864577115
  0
CIRCLE
  8
_0-0_
  6
DASHED2
 62
    1
 10
1299.9944220989528
 20
968.77597864577115
 40
80
  0
TEXT
  8
_0-0_
 62
    7
 10
1287.5998752639557
 20
1036.8550018815752
 40
24
 41
1
 50
0
  1
Ｂ
  0
TEXT
  8
_0-0_
 62
    7
 10
1532.2488404391113
 20
1024.4396155949637
 40
30
 41
1
 50
0
  1
断熱材
  0
LINE
  8
_0-0_
  6
CONTINUOUS
 62
    4
 10
1277.7101508514907
 20
1031.5602498932333
 11
1277.7101508514907
 21
1135.5517510526126
  0
LINE
  8
_0-0_
  6
CONTINUOUS
 62
    6
 10
1533.1415198514906
 20
962.77597864577115
 11
1271.7101508514907
 21
962.77597864577115
  0
LINE
  8
_0-0_
  6
CONTINUOUS
 62
    3
 10
1271.7101508514907
 20
968.77597864577115
 11
1533.1415198514906
 21
968.77597864577115
  0
LINE
  8
_0-0_
  6
CONTINUOUS
 62
    4
 10
1334.4944220989528
 20
977.77597864577115
 11
1533.1415198514906
 21
977.77597864577115
  0
LINE
  8
_0-0_
  6
CONTINUOUS
 62
    7
 10
1271.7101508514907
 20
927.77597864577115
 11
1533.1415198514906
 21
927.77597864577115
  0
LINE
  8
_0-0_
  6
CONTINUOUS
 62
    6
 10
1527.07955401767
 20
927.77597864577115
 11
1533.1415198514906
 21
933.83794447959121
  0
LINE
  8
_0-0_
  6
CONTINUOUS
 62
    6
 10
1512.9374183939394
 20
927.77597864577206
 11
1533.1415198514906
 21
947.98008010332273
  0
LINE
  8
_0-0_
  6
CONTINUOUS
 62
    6
 10
1498.7952827702088
 20
927.77597864577115
 11
1533.141519851491
 21
962.12221572705334
  0
LINE
  8
_0-0_
  6
CONTINUOUS
 62
    6
 10
1520.2076815810619
 20
962.77597864577206
 11
1533.1415198514906
 21
949.84214037534389
  0
LINE
  8
_0-0_
  6
CONTINUOUS
 62
    6
 10
1506.0655459573313
 20
962.77597864577206
 11
1533.1415198514906
 21
935.70000475161328
  0
POINT
  8
_0-0_
 62
    7
 10
1388.5156100402655
 20
347.97966824677428
  0
LINE
  8
_0-0_
  6
CONTINUOUS
 62
    7
 10
1388.5156100402655
 20
347.97966824677428
 11
1434.0383658377223
 21
426.82739418851929
  0
TEXT
  8
_0-0_
 62
    7
 10
1435.8722741888528
 20
416.97342894600956
 40
21.617968000000001
 41
1
 50
0
  1
ﾗﾝｽﾛｯｸｷｬﾝﾄ
  0
TEXT
  8
_0-0_
 62
    7
 10
1476.6969846617728
 20
387.17139030077601
 40
21.617968000000001
 41
1
 50
0
  1
FJﾃｰﾌﾟ
  0
LINE
  8
_0-0_
  6
CONTINUOUS
 62
    7
 10
1445.6446892583081
 20
346.47425704808416
 11
1474.5583346695171
 21
396.55415993232896
  0
POINT
  8
_0-0_
 62
    7
 10
1445.6446892583081
 20
346.47425704808416
  0
TEXT
  8
_0-0_
 62
    7
 10
1567.3278419116552
 20
403.45388866529106
 40
21.617968000000001
 41
1
 50
0
  1
ﾗﾝｽﾛｯｸｼｰﾄ
  0
POINT
  8
_0-0_
 62
    7
 10
1526.7234312206799
 20
345.43765105551506
  0
LINE
  8
_0-0_
  6
CONTINUOUS
 62
    7
 10
1526.7234312206799
 20
345.43765105551506
 11
1566.0920784021828
 21
413.62614819913074
  0
POINT
  8
_0-0_
 62
    7
 10
1540.2234312206779
 20
331.93765105551506
  0
TEXT
  8
_0-0_
 62
    7
 10
1575.4899135187841
 20
316.94469259003677
 40
21.617968000000001
 41
1
 50
0
  1
断熱材
  0
POINT
  8
_0-0_
 62
    7
 10
1539.5995799817715
 20
268.92189198763231
  0
LINE
  8
_0-0_
  6
CONTINUOUS
 62
    7
 10
1539.5995799817715
 20
268.92189198763231
 11
1574.1890272585024
 21
328.83257207665451
  0
TEXT
  8
_0-0_
 62
    7
 10
1564.9609484471425
 20
359.90287008233577
 40
21.617968000000001
 41
1
 50
0
  1
ﾌﾟﾗｲﾏｰ
  0
LINE
  8
_0-0_
  6
CONTINUOUS
 62
    7
 10
1540.2234312206779
 20
331.93765105551506
 11
1562.2883808837014
 21
370.15526493832226
  0
POINT
  8
_0-0_
 62
    7
 10
1274.5244874079174
 20
443.79183923930327
  0
LINE
  8
_0-0_
  6
CONTINUOUS
 62
    7
 10
1274.5244874079174
 20
443.79183923930327
 11
1436.4570785169303
 21
474.86106810365095
  0
TEXT
  8
_0-0_
 62
    7
 10
1309.3788853568822
 20
527.52106679099711
 40
21.617968000000001
 41
1
 50
0
  1
ﾄｯﾌﾟｺｰﾄ
  0
TEXT
  8
_0-0_
 62
    7
 10
1311.1394044566327
 20
493.19094434585463
 40
21.617968000000001
 41
1
 50
0
  1
ｳﾚﾀﾝ防水
  0
POINT
  8
_0-0_
 62
    7
 10
1285.4822334596938
 20
463.81712685498792
  0
LINE
  8
_0-0_
  6
CONTINUOUS
 62
    7
 10
1285.4822334596938
 20
463.81712685498792
 11
1308.3779062033409
 21
503.4735953204538
  0
POINT
  8
_0-0_
 62
    7
 10
1280.9822334596938
 20
486.70226136230417
  0
LINE
  8
_0-0_
  6
CONTINUOUS
 62
    7
 10
1280.9822334596938
 20
486.70226136230417
 11
1309.1419589425673
 21
535.47633662583144
  0
TEXT
  8
_0-0_
 62
    7
 10
1438.6275896189422
 20
467.41676949819089
 40
21.617968000000001
 41
1
 50
0
  1
ｱﾙﾐｻｽｱﾝｶｰ
  0
POINT
  8
_0-0_
 62
    7
 10
1365.634275630287
 20
352.19237516954968
  0
LINE
  8
_0-0_
  6
CONTINUOUS
 62
    7
 10
1365.634275630287
 20
352.19237516954968
 11
1436.4570785169303
 21
474.86106810365095
  0
LINE
  8
_0-0_
  6
CONTINUOUS
 62
    7
 10
1203.8368784529634
 20
499.73066345363554
 11
1251.1218437664834
 21
547.01562876715366
  0
LINE
  8
_0-0_
  6
CONTINUOUS
 62
    7
 10
1203.8368784529634
 20
515.640566030331
 11
1235.2119411897861
 21
547.01562876715366
  0
LINE
  8
_0-0_
  6
CONTINUOUS
 62
    7
 10
1203.8368784529634
 20
531.55046860702828
 11
1219.3020386130888
 21
547.01562876715366
  0
LINE
  8
_0-0_
  6
CONTINUOUS
 62
    7
 10
1411.3773563108034
 20
182.2443562804649
 11
1482.320651085854
 21
253.18765105551506
  0
LINE
  8
_0-0_
  6
CONTINUOUS
 62
    7
 10
1395.4674537341061
 20
182.2443562804649
 11
1466.4107485091567
 21
253.18765105551506
  0
LINE
  8
_0-0_
  6
CONTINUOUS
 62
    7
 10
1379.5575511574089
 20
182.2443562804649
 11
1450.5008459324586
 21
253.18765105551506
  0
LINE
  8
_0-0_
  6
CONTINUOUS
 62
    7
 10
1267.4822334596938
 20
253.18765105551506
 11
1555.3338209138924
 21
253.18765105551506
  0
LINE
  8
_0-0_
  6
CONTINUOUS
 62
    6
 10
1508.403626067286
 20
331.93765105551142
 11
1555.3338209138915
 21
285.00745620890598
  0
LINE
  8
_0-0_
  6
CONTINUOUS
 62
    6
 10
1523.8653390496534
 20
253.18765105551506
 11
1555.3338209138915
 21
284.65613291975319
  0
LINE
  8
_0-0_
  6
CONTINUOUS
 62
    6
 10
1540.2234312206779
 20
331.93765105551506
 11
1555.3338209138915
 21
316.82726136230053
  0
LINE
  8
_0-0_
  6
CONTINUOUS
 62
    6
 10
1492.0455338962588
 20
253.18765105551506
 11
1555.3338209138915
 21
316.47593807314774
  0
LINE
  8
_0-0_
  6
CONTINUOUS
 62
    6
 10
1267.4822334596938
 20
253.18765105551506
 11
1555.3338209138924
 21
253.18765105551506
  0
LINE
  8
_0-0_
  6
CONTINUOUS
 62
    6
 10
1555.3338209138915
 20
331.93765105551506
 11
1267.4822334596938
 21
331.93765105551506
  0
LINE
  8
_0-0_
  6
CONTINUOUS
 62
    3
 10
1267.4822334596938
 20
345.43765105551506
 11
1555.3338209138915
 21
345.43765105551506
  0
LINE
  8
_0-0_
  6
CONTINUOUS
 62
    4
 10
1408.7468437664834
 20
365.68765105551506
 11
1555.3338209138915
 21
365.68765105551506
  0
LINE
  8
_0-0_
  6
CONTINUOUS
 62
    7
 10
1267.4822334596938
 20
253.18765105551506
 11
1267.4822334596938
 21
547.01562876715366
  0
LINE
  8
_0-0_
  6
CONTINUOUS
 62
    7
 10
1269.7322334596938
 20
478.82726136230417
 11
1269.7322334596938
 21
547.01562876715366
  0
LINE
  8
_0-0_
  6
CONTINUOUS
 62
    1
 10
1374.8038242818216
 20
331.93765105551506
 11
1374.8038242818216
 21
253.18765105551506
  0
LINE
  8
_0-0_
  6
CONTINUOUS
 62
    1
 10
1356.8038242818216
 20
253.18765105551506
 11
1356.8038242818216
 21
331.93765105551506
  0
LINE
  8
_0-0_
  6
CONTINUOUS
 62
    1
 10
1377.0538242818216
 20
331.93765105551506
 11
1377.0538242818216
 21
253.18765105551506
  0
LINE
  8
_0-0_
  6
CONTINUOUS
 62
    1
 10
1354.5538242818216
 20
331.93765105551506
 11
1377.0538242818216
 21
331.93765105551506
  0
LINE
  8
_0-0_
  6
CONTINUOUS
 62
    1
 10
1354.5538242818216
 20
253.18765105551506
 11
1354.5538242818216
 21
331.93765105551506
  0
LINE
  8
_0-0_
  6
CONTINUOUS
 62
    1
 10
1377.0538242818216
 20
253.18765105551506
 11
1354.5538242818216
 21
253.18765105551506
  0
LINE
  8
_0-0_
  6
CONTINUOUS
 62
    1
 10
1360.1788242818216
 20
212.68765105551506
 11
1360.1788242818216
 21
349.93765105551506
  0
LINE
  8
_0-0_
  6
CONTINUOUS
 62
    1
 10
1371.4288242818216
 20
212.68765105551506
 11
1371.4288242818216
 21
349.93765105551506
  0
LINE
  8
_0-0_
  6
CENTER2
 62
    1
 10
1365.8038242818216
 20
373.68660448137894
 11
1365.8038242818216
 21
182.2443562804649
  0
LINE
  8
_0-0_
  6
DASHED1
 62
    1
 10
1368.6163242818216
 20
354.43765105551506
 11
1368.6163242818216
 21
195.25015105551506
  0
LINE
  8
_0-0_
  6
CONTINUOUS
 62
    1
 10
1366.3663242818216
 20
212.68765105551506
 11
1365.2413242818216
 21
212.68765105551506
  0
LINE
  8
_0-0_
  6
CONTINUOUS
 62
    1
 10
1364.1845143081641
 20
192.5225154952052
 11
1359.1358807605143
 21
192.78710316785077
  0
LINE
  8
_0-0_
  6
CONTINUOUS
 62
    1
 10
1372.4717678031307
 20
192.78710316785077
 11
1367.423134255479
 21
192.5225154952052
  0
LINE
  8
_0-0_
  6
DASHED1
 62
    1
 10
1367.346721970765
 20
193.98054874445666
 11
1368.6163242818216
 21
195.25015105551506
  0
LINE
  8
_0-0_
  6
CONTINUOUS
 62
    1
 10
1366.3663242818216
 20
212.68765105551506
 11
1367.423134255479
 21
192.5225154952052
  0
LINE
  8
_0-0_
  6
CONTINUOUS
 62
    1
 10
1365.2413242818216
 20
212.68765105551506
 11
1364.1845143081641
 21
192.5225154952052
  0
LINE
  8
_0-0_
  6
CONTINUOUS
 62
    1
 10
1360.1788242818216
 20
212.68765105551506
 11
1359.1358807605143
 21
192.78710316785077
  0
LINE
  8
_0-0_
  6
DASHED1
 62
    1
 10
1364.2609265928791
 20
193.98054874445666
 11
1362.9913242818216
 21
195.25015105551506
  0
LINE
  8
_0-0_
  6
CONTINUOUS
 62
    1
 10
1365.8038242818216
 20
192.43765105551506
 11
1367.346721970765
 21
193.98054874445666
  0
LINE
  8
_0-0_
  6
CONTINUOUS
 62
    1
 10
1365.8038242818216
 20
192.43765105551506
 11
1364.2609265928791
 21
193.98054874445666
  0
LINE
  8
_0-0_
  6
CONTINUOUS
 62
    1
 10
1371.4288242818216
 20
212.68765105551506
 11
1372.4717678031307
 21
192.78710316785077
  0
LINE
  8
_0-0_
  6
CONTINUOUS
 62
    1
 10
1382.6788242818216
 20
349.93765105551506
 11
1348.9288242818216
 21
349.93765105551506
  0
LINE
  8
_0-0_
  6
CONTINUOUS
 62
    1
 10
1382.3826752755519
 20
350.11020878105234
 11
1374.9989373668132
 21
353.33153688249882
  0
LINE
  8
_0-0_
  6
CONTINUOUS
 62
    1
 10
1374.9989373668132
 20
353.33153688249882
 11
1369.909688989773
 21
354.43765105551506
  0
LINE
  8
_0-0_
  6
CONTINUOUS
 62
    1
 10
1382.6788242818216
 20
349.93765105551506
 11
1382.3826752755519
 21
350.11020878105234
  0
LINE
  8
_0-0_
  6
CONTINUOUS
 62
    1
 10
1360.1788242818216
 20
349.87658556456813
 11
1360.1788242818216
 21
349.93765105551506
  0
LINE
  8
_0-0_
  6
CONTINUOUS
 62
    1
 10
1369.1309272512888
 20
354.81639044956131
 11
1368.5542418365283
 21
354.88285471808774
  0
LINE
  8
_0-0_
  6
CONTINUOUS
 62
    1
 10
1368.5542418365283
 20
354.88285471808774
 11
1367.8939863761466
 21
354.93579169861084
  0
LINE
  8
_0-0_
  6
CONTINUOUS
 62
    1
 10
1367.8939863761466
 20
354.93579169861084
 11
1367.1702223982018
 21
354.97359292776474
  0
LINE
  8
_0-0_
  6
CONTINUOUS
 62
    1
 10
1367.1702223982018
 20
354.97359292776474
 11
1366.4049411049216
 21
354.99510983433004
  0
LINE
  8
_0-0_
  6
CONTINUOUS
 62
    1
 10
1366.4049411049216
 20
354.99510983433004
 11
1365.6213951811512
 21
354.99968863798881
  0
LINE
  8
_0-0_
  6
CONTINUOUS
 62
    1
 10
1365.6213951811512
 20
354.99968863798881
 11
1364.8433922732911
 21
354.98719021410886
  0
LINE
  8
_0-0_
  6
CONTINUOUS
 62
    1
 10
1364.8433922732911
 20
354.98719021410886
 11
1364.0945716060082
 21
354.95799432097527
  0
LINE
  8
_0-0_
  6
CONTINUOUS
 62
    1
 10
1364.0945716060082
 20
354.95799432097527
 11
1363.3976857163564
 21
354.91298806102702
  0
LINE
  8
_0-0_
  6
CONTINUOUS
 62
    1
 10
1363.3976857163564
 20
354.91298806102702
 11
1362.7739091294513
 21
354.85353892669849
  0
LINE
  8
_0-0_
  6
CONTINUOUS
 62
    1
 10
1362.7739091294513
 20
354.85353892669849
 11
1362.4767213123546
 21
354.81639044956137
  0
LINE
  8
_0-0_
  6
CONTINUOUS
 62
    1
 10
1362.9913242818216
 20
354.43765105551506
 11
1362.4767213123546
 21
354.81639044956131
  0
LINE
  8
_0-0_
  6
CONTINUOUS
 62
    1
 10
1369.1309272512885
 20
354.81639044956131
 11
1368.6163242818216
 21
354.43765105551506
  0
LINE
  8
_0-0_
  6
CONTINUOUS
 62
    1
 10
1361.6979595738701
 20
354.43765105551506
 11
1354.1024522495002
 21
352.46200246059453
  0
LINE
  8
_0-0_
  6
CONTINUOUS
 62
    1
 10
1354.1024522495002
 20
352.46200246059453
 11
1348.9288242818216
 21
349.93765105551506
  0
LINE
  8
_0-0_
  6
CONTINUOUS
 62
    1
 10
1361.6979595738699
 20
354.43765105551506
 11
1369.9096889897733
 21
354.43765105551506
  0
LINE
  8
_0-0_
  6
DASHED1
 62
    1
 10
1362.9913242818216
 20
354.43765105551506
 11
1362.9913242818216
 21
195.25015105551506
  0
LINE
  8
_0-0_
  6
CONTINUOUS
 62
    7
 10
1332.9858047971616
 20
349.93765105551506
 11
1398.6218437664834
 21
349.93765105551506
  0
LINE
  8
_0-0_
  6
CONTINUOUS
 62
    7
 10
1271.9822334596938
 20
476.57726136230417
 11
1271.9822334596938
 21
410.94122239298235
  0
LINE
  8
_0-0_
  6
CONTINUOUS
 62
    7
 10
1267.4822334596938
 20
476.57726136230417
 11
1271.9822334596938
 21
476.57726136230417
  0
LINE
  8
_0-0_
  6
CONTINUOUS
 62
    7
 10
1267.4822334596938
 20
476.57726136230417
 11
1267.4822334596938
 21
409.07726136230417
  0
LINE
  8
_0-0_
  6
CONTINUOUS
 62
    7
 10
1398.6218437664834
 20
345.43765105551506
 11
1398.6218437664834
 21
349.93765105551506
  0
LINE
  8
_0-0_
  6
CONTINUOUS
 62
    7
 10
1331.1218437664834
 20
345.43765105551506
 11
1398.6218437664834
 21
345.43765105551506
  0
LINE
  8
_0-0_
  6
CONTINUOUS
 62
    7
 10
1267.4822334596938
 20
409.07726136230417
 11
1331.1218437664834
 21
345.43765105551506
  0
LINE
  8
_0-0_
  6
CONTINUOUS
 62
    4
 10
1404.2468437664834
 20
370.18765105551506
 11
1408.7468437664834
 21
365.68765105551506
  0
LINE
  8
_0-0_
  6
CONTINUOUS
 62
    4
 10
1387.3080669804715
 20
370.18765105551506
 11
1376.4143782959823
 21
373.82367234890557
  0
LINE
  8
_0-0_
  6
CONTINUOUS
 62
    4
 10
1376.4143782959823
 20
373.82367234890557
 11
1365.198293296972
 21
374.95643607463467
  0
LINE
  8
_0-0_
  6
CONTINUOUS
 62
    4
 10
1365.198293296972
 20
374.95643607463467
 11
1354.0006070505231
 21
373.55152378010229
  0
LINE
  8
_0-0_
  6
CONTINUOUS
 62
    4
 10
1354.0006070505231
 20
373.55152378010229
 11
1344.2995815831716
 21
370.18765105551506
  0
LINE
  8
_0-0_
  6
CONTINUOUS
 62
    4
 10
1331.8276878891998
 20
370.18765105551506
 11
1344.2995815831732
 21
370.18765105551506
  0
LINE
  8
_0-0_
  6
CONTINUOUS
 62
    4
 10
1285.4822334596938
 20
416.53310548502054
 11
1331.8276878891998
 21
370.18765105551506
  0
LINE
  8
_0-0_
  6
CONTINUOUS
 62
    7
 10
1383.2406908475307
 20
352.18765105551506
 11
1375.4827217999778
 21
355.52752985631685
  0
LINE
  8
_0-0_
  6
CONTINUOUS
 62
    7
 10
1375.4827217999778
 20
355.52752985631685
 11
1367.4306643490943
 21
356.92007012079978
  0
LINE
  8
_0-0_
  6
CONTINUOUS
 62
    7
 10
1367.4306643490943
 20
356.92007012079978
 11
1359.3291761859875
 21
356.32296021768684
  0
LINE
  8
_0-0_
  6
CONTINUOUS
 62
    7
 10
1359.3291761859875
 20
356.32296021768684
 11
1351.4244169289425
 21
353.75434302923207
  0
LINE
  8
_0-0_
  6
CONTINUOUS
 62
    7
 10
1351.4244169289425
 20
353.75434302923207
 11
1348.3669577161124
 21
352.18765105551506
  0
LINE
  8
_0-0_
  6
CONTINUOUS
 62
    7
 10
1383.2406908475327
 20
352.18765105551506
 11
1400.8718437664834
 21
352.18765105551506
  0
LINE
  8
_0-0_
  6
CONTINUOUS
 62
    7
 10
1332.9858047971616
 20
352.18765105551506
 11
1348.3669577161122
 21
352.18765105551506
  0
LINE
  8
_0-0_
  6
CONTINUOUS
 62
    7
 10
1400.8718437664834
 20
347.68765105551506
 11
1400.8718437664834
 21
352.18765105551506
  0
LINE
  8
_0-0_
  6
CONTINUOUS
 62
    4
 10
1285.4822334596938
 20
482.20226136230417
 11
1280.9822334596938
 21
486.70226136230417
  0
LINE
  8
_0-0_
  6
CONTINUOUS
 62
    4
 10
1285.4822334596938
 20
463.8171268549861
 11
1285.4822334596938
 21
482.20226136230417
  0
LINE
  8
_0-0_
  6
CONTINUOUS
 62
    4
 10
1285.4822334596938
 20
423.70135690029912
 11
1289.0154258121338
 21
433.41750632525611
  0
LINE
  8
_0-0_
  6
CONTINUOUS
 62
    4
 10
1289.0154258121338
 20
433.41750632525611
 11
1290.2535803365843
 21
443.4478841518017
  0
LINE
  8
_0-0_
  6
CONTINUOUS
 62
    4
 10
1290.2535803365843
 20
443.4478841518017
 11
1289.1590763343563
 21
453.48772242529242
  0
LINE
  8
_0-0_
  6
CONTINUOUS
 62
    4
 10
1289.1590763343563
 20
453.48772242529242
 11
1285.7651697557121
 21
463.23196574019147
  0
LINE
  8
_0-0_
  6
CONTINUOUS
 62
    4
 10
1285.7651697557121
 20
463.23196574019147
 11
1285.4822334596938
 21
463.81712685498741
  0
LINE
  8
_0-0_
  6
CONTINUOUS
 62
    4
 10
1285.4822334596938
 20
416.53310548502054
 11
1285.4822334596938
 21
423.70135690029861
  0
LINE
  8
_0-0_
  6
CENTER2
 62
    1
 10
1288.8352459309622
 20
443.75924187764326
 11
1203.8368784529634
 21
443.75924187764326
  0
LINE
  8
_0-0_
  6
CONTINUOUS
 62
    7
 10
1274.2322334596938
 20
426.32237531193414
 11
1277.5721122604955
 21
434.08034435948696
  0
LINE
  8
_0-0_
  6
CONTINUOUS
 62
    7
 10
1277.5721122604955
 20
434.08034435948696
 11
1278.9646525249784
 21
442.13240181037054
  0
LINE
  8
_0-0_
  6
CONTINUOUS
 62
    7
 10
1278.9646525249784
 20
442.13240181037054
 11
1278.3675426218656
 21
450.2338899734774
  0
LINE
  8
_0-0_
  6
CONTINUOUS
 62
    7
 10
1278.3675426218656
 20
450.2338899734774
 11
1275.7989254334109
 21
458.13864923052233
  0
LINE
  8
_0-0_
  6
CONTINUOUS
 62
    7
 10
1275.7989254334109
 20
458.13864923052233
 11
1274.2322334596938
 21
461.19610844335239
  0
LINE
  8
_0-0_
  6
CONTINUOUS
 62
    7
 10
1274.2322334596938
 20
461.19610844335261
 11
1274.2322334596938
 21
478.82726136230417
  0
LINE
  8
_0-0_
  6
CONTINUOUS
 62
    7
 10
1274.2322334596938
 20
410.94122239298235
 11
1274.2322334596938
 21
426.32237531193391
  0
LINE
  8
_0-0_
  6
CONTINUOUS
 62
    1
 10
1233.7322334596938
 20
443.19674187764326
 11
1233.7322334596938
 21
444.32174187764326
  0
LINE
  8
_0-0_
  6
CONTINUOUS
 62
    1
 10
1233.7322334596938
 20
443.19674187764326
 11
1213.5670978993844
 21
442.13993190398401
  0
LINE
  8
_0-0_
  6
CONTINUOUS
 62
    1
 10
1233.7322334596938
 20
438.13424187764326
 11
1271.9822334596938
 21
438.13424187764326
  0
LINE
  8
_0-0_
  6
CONTINUOUS
 62
    1
 10
1233.7322334596938
 20
444.32174187764326
 11
1213.5670978993844
 21
445.37855185129888
  0
LINE
  8
_0-0_
  6
CONTINUOUS
 62
    1
 10
1233.7322334596938
 20
449.38424187764326
 11
1213.8316855720309
 21
450.42718539895145
  0
LINE
  8
_0-0_
  6
CONTINUOUS
 62
    1
 10
1233.7322334596938
 20
449.38424187764326
 11
1271.9822334596938
 21
449.38424187764326
  0
LINE
  8
_0-0_
  6
DASHED1
 62
    1
 10
1276.4822334596938
 20
440.94674187764326
 11
1216.2947334596938
 21
440.94674187764326
  0
LINE
  8
_0-0_
  6
DASHED1
 62
    1
 10
1276.4822334596938
 20
446.57174187764326
 11
1216.2947334596938
 21
446.57174187764326
  0
LINE
  8
_0-0_
  6
CONTINUOUS
 62
    1
 10
1276.8609728537401
 20
440.43213890817606
 11
1276.9274371222666
 21
441.0088243229365
  0
LINE
  8
_0-0_
  6
CONTINUOUS
 62
    1
 10
1276.9274371222666
 20
441.0088243229365
 11
1276.9803741027895
 21
441.6690797833183
  0
LINE
  8
_0-0_
  6
CONTINUOUS
 62
    1
 10
1276.9803741027895
 20
441.6690797833183
 11
1277.0181753319434
 21
442.39284376126307
  0
LINE
  8
_0-0_
  6
CONTINUOUS
 62
    1
 10
1277.0181753319434
 20
442.39284376126307
 11
1277.0396922385089
 21
443.15812505454329
  0
LINE
  8
_0-0_
  6
CONTINUOUS
 62
    1
 10
1277.0396922385089
 20
443.15812505454329
 11
1277.0442710421676
 21
443.9416709783136
  0
LINE
  8
_0-0_
  6
CONTINUOUS
 62
    1
 10
1277.0442710421676
 20
443.9416709783136
 11
1277.0317726182875
 21
444.71967388617361
  0
LINE
  8
_0-0_
  6
CONTINUOUS
 62
    1
 10
1277.0317726182875
 20
444.71967388617361
 11
1277.0025767251541
 21
445.46849455345648
  0
LINE
  8
_0-0_
  6
CONTINUOUS
 62
    1
 10
1277.0025767251541
 20
445.46849455345648
 11
1276.9575704652059
 21
446.16538044310835
  0
LINE
  8
_0-0_
  6
CONTINUOUS
 62
    1
 10
1276.9575704652059
 20
446.16538044310835
 11
1276.8981213308773
 21
446.78915703001343
  0
LINE
  8
_0-0_
  6
CONTINUOUS
 62
    1
 10
1276.8981213308773
 20
446.78915703001343
 11
1276.8609728537401
 21
447.0863448471103
  0
LINE
  8
_0-0_
  6
CONTINUOUS
 62
    1
 10
1276.4822334596938
 20
446.57174187764326
 11
1276.8609728537401
 21
447.0863448471103
  0
LINE
  8
_0-0_
  6
CONTINUOUS
 62
    1
 10
1276.8609728537401
 20
440.43213890817623
 11
1276.4822334596938
 21
440.94674187764326
  0
LINE
  8
_0-0_
  6
CONTINUOUS
 62
    1
 10
1271.9822334596938
 20
426.88424187764326
 11
1275.2796484368073
 21
434.25150392102302
  0
LINE
  8
_0-0_
  6
CONTINUOUS
 62
    1
 10
1275.2796484368073
 20
434.25150392102302
 11
1276.4822334596938
 21
439.65337716969179
  0
LINE
  8
_0-0_
  6
CONTINUOUS
 62
    1
 10
1276.4822334596938
 20
447.86510658559473
 11
1274.5065848647732
 21
455.46061390996465
  0
LINE
  8
_0-0_
  6
CONTINUOUS
 62
    1
 10
1274.5065848647732
 20
455.46061390996465
 11
1271.9822334596938
 21
460.63424187764326
  0
LINE
  8
_0-0_
  6
CONTINUOUS
 62
    1
 10
1276.4822334596938
 20
447.86510658559496
 11
1276.4822334596938
 21
439.65337716969157
  0
LINE
  8
_0-0_
  6
CONTINUOUS
 62
    1
 10
1271.9822334596938
 20
449.38424187764326
 11
1271.9822334596938
 21
460.63424187764326
  0
LINE
  8
_0-0_
  6
CONTINUOUS
 62
    1
 10
1271.9822334596938
 20
438.13424187764326
 11
1271.9822334596938
 21
426.88424187764326
  0
LINE
  8
_0-0_
  6
CONTINUOUS
 62
    1
 10
1233.7322334596938
 20
438.13424187764326
 11
1213.8316855720309
 21
437.09129835633507
  0
LINE
  8
_0-0_
  6
CONTINUOUS
 62
    7
 10
1271.9822334596938
 20
410.94122239298235
 11
1274.2322334596938
 21
410.94122239298235
  0
LINE
  8
_0-0_
  6
CONTINUOUS
 62
    7
 10
1269.7322334596938
 20
478.82726136230417
 11
1274.2322334596938
 21
478.82726136230417
  0
LINE
  8
_0-0_
  6
CONTINUOUS
 62
    7
 10
1332.9858047971616
 20
349.93765105551506
 11
1332.9858047971616
 21
352.18765105551506
  0
LINE
  8
_0-0_
  6
CONTINUOUS
 62
    7
 10
1485.9858047971616
 20
347.68765105551506
 11
1485.9858047971616
 21
345.43765105551506
  0
LINE
  8
_0-0_
  6
CONTINUOUS
 62
    4
 10
1387.3080669804722
 20
370.18765105551506
 11
1404.2468437664834
 21
370.18765105551506
  0
LINE
  8
_0-0_
  6
CONTINUOUS
 62
    1
 10
1213.5670978993844
 20
445.37855185129888
 11
1213.8316855720309
 21
450.42718539895145
  0
LINE
  8
_0-0_
  6
CONTINUOUS
 62
    1
 10
1213.8316855720309
 20
437.09129835633507
 11
1213.5670978993844
 21
442.13993190398401
  0
LINE
  8
_0-0_
  6
DASHED1
 62
    1
 10
1215.0251311486368
 20
442.21634418869803
 11
1216.2947334596938
 21
440.94674187764326
  0
LINE
  8
_0-0_
  6
DASHED1
 62
    1
 10
1215.0251311486368
 20
445.30213956658486
 11
1216.2947334596938
 21
446.57174187764326
  0
LINE
  8
_0-0_
  6
CONTINUOUS
 62
    1
 10
1213.4822334596938
 20
443.75924187764326
 11
1215.0251311486368
 21
442.21634418869803
  0
LINE
  8
_0-0_
  6
CONTINUOUS
 62
    1
 10
1213.4822334596938
 20
443.75924187764326
 11
1215.0251311486368
 21
445.30213956658486
  0
LINE
  8
_0-0_
  6
CONTINUOUS
 62
    6
 10
1267.4822334596938
 20
331.93765105551506
 11
1267.4822334596938
 21
253.18765105551506
  0
LINE
  8
_0-0_
  6
CONTINUOUS
 62
    6
 10
1267.4822334596938
 20
254.66099212915583
 11
1268.9555745333364
 21
253.18765105551506
  0
LINE
  8
_0-0_
  6
CONTINUOUS
 62
    6
 10
1267.4822334596925
 20
286.48079728255402
 11
1300.7753796867332
 21
253.18765105551142
  0
LINE
  8
_0-0_
  6
CONTINUOUS
 62
    6
 10
1267.4822334596952
 20
318.30060243594858
 11
1332.5951848401269
 21
253.18765105551506
  0
LINE
  8
_0-0_
  6
CONTINUOUS
 62
    6
 10
1285.6649899935251
 20
331.93765105551142
 11
1364.4149899935251
 21
253.18765105551142
  0
LINE
  8
_0-0_
  6
CONTINUOUS
 62
    6
 10
1317.4847951469187
 20
331.93765105551142
 11
1396.2347951469187
 21
253.18765105551142
  0
LINE
  8
_0-0_
  6
CONTINUOUS
 62
    6
 10
1349.3046003003105
 20
331.93765105551506
 11
1428.0546003003105
 21
253.18765105551506
  0
LINE
  8
_0-0_
  6
CONTINUOUS
 62
    6
 10
1381.1244054537087
 20
331.93765105551142
 11
1459.8744054537078
 21
253.18765105551506
  0
LINE
  8
_0-0_
  6
CONTINUOUS
 62
    6
 10
1412.9442106071024
 20
331.93765105551142
 11
1491.6942106071015
 21
253.18765105551142
  0
LINE
  8
_0-0_
  6
CONTINUOUS
 62
    6
 10
1444.7640157604942
 20
331.93765105551506
 11
1523.5140157604942
 21
253.18765105551506
  0
LINE
  8
_0-0_
  6
CONTINUOUS
 62
    6
 10
1476.5838209138924
 20
331.93765105551142
 11
1555.3338209138924
 21
253.18765105551142
  0
LINE
  8
_0-0_
  6
CONTINUOUS
 62
    6
 10
1460.2257287428615
 20
253.18765105551142
 11
1538.9757287428615
 21
331.93765105551506
  0
LINE
  8
_0-0_
  6
CONTINUOUS
 62
    6
 10
1428.4059235894697
 20
253.18765105551506
 11
1507.1559235894697
 21
331.93765105551506
  0
LINE
  8
_0-0_
  6
CONTINUOUS
 62
    6
 10
1396.586118436076
 20
253.18765105551506
 11
1475.336118436076
 21
331.93765105551506
  0
LINE
  8
_0-0_
  6
CONTINUOUS
 62
    6
 10
1364.7663132826779
 20
253.18765105551506
 11
1443.5163132826769
 21
331.93765105551142
  0
LINE
  8
_0-0_
  6
CONTINUOUS
 62
    6
 10
1332.946508129286
 20
253.18765105551506
 11
1411.696508129286
 21
331.93765105551506
  0
LINE
  8
_0-0_
  6
CONTINUOUS
 62
    6
 10
1301.1267029758924
 20
253.18765105551506
 11
1379.8767029758924
 21
331.93765105551506
  0
LINE
  8
_0-0_
  6
CONTINUOUS
 62
    6
 10
1269.3068978224933
 20
253.18765105551142
 11
1348.0568978224933
 21
331.93765105551142
  0
LINE
  8
_0-0_
  6
CONTINUOUS
 62
    6
 10
1267.4822334596925
 20
283.18279184610515
 11
1316.2370926691024
 21
331.93765105551506
  0
LINE
  8
_0-0_
  6
CONTINUOUS
 62
    6
 10
1267.4822334596925
 20
315.0025969994997
 11
1284.4172875157078
 21
331.93765105551506
  0
LINE
  8
_0-0_
  6
CONTINUOUS
 62
    7
 10
1271.9822334596938
 20
410.94122239298235
 11
1332.9858047971616
 21
349.93765105551506
  0
LINE
  8
_0-0_
  6
CONTINUOUS
 62
    7
 10
1400.8718437664834
 20
347.68765105551506
 11
1485.9858047971616
 21
347.68765105551506
  0
LINE
  8
_0-0_
  6
CONTINUOUS
 62
    4
 10
1280.9822334596938
 20
547.01562876715366
 11
1280.9822334596938
 21
486.70226136230417
  0
LINE
  8
_0-0_
  6
CONTINUOUS
 62
    7
 10
672.13606690525205
 20
1633.3565543671132
 11
1706.8525777203686
 21
1633.3565543671132
  0
LINE
  8
_0-0_
  6
CONTINUOUS
 62
    7
 10
672.13606690525205
 20
1553.3565543671132
 11
1706.8525777203686
 21
1553.3565543671132
  0
LINE
  8
_0-0_
  6
CONTINUOUS
 62
    7
 10
672.13606690525205
 20
1473.3565543671132
 11
1706.8525777203686
 21
1473.3565543671132
  0
LINE
  8
_0-0_
  6
CONTINUOUS
 62
    7
 10
1189.4943223128103
 20
1633.3565543671132
 11
1189.4943223128103
 21
1473.3565543671132
  0
TEXT
  8
_0-0_
 62
    7
 10
1213.4943223128103
 20
1577.3565543671132
 40
20
 41
1
 50
0
  1
構造：ＲＣ造
  0
TEXT
  8
_0-0_
 62
    7
 10
1213.4943223128103
 20
1497.3565543671132
 40
20
 41
1
 50
0
  1
下地：コンクリートスラブ
  0
TEXT
  8
_0-0_
 62
    7
 10
696.13606690525205
 20
1577.3565543671132
 40
20
 41
1
 50
0
  1
図面番号：dan-kikai-SP-hato-01
  0
TEXT
  8
_0-0_
 62
    7
 10
696.13606690525205
 20
1497.3565543671129
 40
20
 41
1
 50
0
  1
施工部位：サッシ廻り
  0
ENDSEC
  0
EOF
