  0
SECTION
  2
HEADER
  9
$ACADVER
  1
AC1009
  9
$INSBASE
 10
0
 20
0
 30
0
  9
$EXTMIN
 10
0
 20
0
  9
$EXTMAX
 10
2378
 20
1682
  9
$LIMMIN
 10
0
 20
0
  9
$LIMMAX
 10
2378
 20
1682
  9
$LTSCALE
 40
1
  0
ENDSEC
  0
SECTION
  2
TABLES
  0
TABLE
  2
LTYPE
 70
     9
  0
LTYPE
  2
CONTINUOUS
 70
    64
  3
実線
 72
    65
 73
     0
 40
0.0
  0
LTYPE
  2
DASHED1
 70
    64
  3
--  --  --  --  --  --  --  --  
 72
    65
 73
     2
 40
2.5
 49
1.25
 49
-1.25
  0
LTYPE
  2
DASHED2
 70
    64
  3
----    ----    ----    ----    
 72
    65
 73
     2
 40
5.0
 49
2.5
 49
-2.5
  0
LTYPE
  2
DASHED3
 70
    64
  3
------  ------  ------  ------  
 72
    65
 73
     2
 40
5.0
 49
3.75
 49
-1.25
  0
LTYPE
  2
CENTER1
 70
    64
  3
----- - ----- - ----- - ----- - 
 72
    65
 73
     4
 40
10.0
 49
6.25
 49
-1.25
 49
1.25
 49
-1.25
  0
LTYPE
  2
CENTER2
 70
    64
  3
----------  --  ----------  --  
 72
    65
 73
     4
 40
20.0
 49
12.5
 49
-2.5
 49
2.5
 49
-2.5
  0
LTYPE
  2
PHANTOM1
 70
    64
  3
--- - - --- - - --- - - --- - - 
 72
    65
 73
     6
 40
10.0
 49
3.25
 49
-1.25
 49
1.25
 49
-1.25
 49
1.25
 49
-1.25
  0
LTYPE
  2
PHANTOM2
 70
    64
  3
--------  -  -  --------  -  -  
 72
    65
 73
     6
 40
20.0
 49
10.0
 49
-2.5
 49
1.25
 49
-2.5
 49
1.25
 49
-2.5
  0
LTYPE
  2
DOT
 70
    64
  3
-   -   -   -   -   -   -   -   
 72
    65
 73
     2
 40
2.5
 49
0.625
 49
-1.875
  0
LTYPE
  2
DUMMY
 70
    64
  3
ダミー
 72
    65
 73
     0
 40
0.0
  0
LTYPE
  2
RAND1
 70
    64
  3
ランダム線1
 72
    65
 73
     4
 40
10.0
 49
1.0
 49
-2.0
 49
3.0
 49
-4.0
  0
LTYPE
  2
RAND2
 70
    64
  3
ランダム線2
 72
    65
 73
     4
 40
14.0
 49
2.0
 49
-3.0
 49
4.0
 49
-5.0
  0
LTYPE
  2
RAND3
 70
    64
  3
ランダム線3
 72
    65
 73
     4
 40
18.0
 49
3.0
 49
-4.0
 49
5.0
 49
-6.0
  0
LTYPE
  2
RAND4
 70
    64
  3
ランダム線4
 72
    65
 73
     4
 40
22.0
 49
4.0
 49
-5.0
 49
6.0
 49
-7.0
  0
LTYPE
  2
RAND5
 70
    64
  3
ランダム線5
 72
    65
 73
     4
 40
26.0
 49
5.0
 49
-6.0
 49
7.0
 49
-8.0
  0
LTYPE
  2
LONG1
 70
    64
  3
----------  --  ----------  --  
 72
    65
 73
     4
 40
40.0
 49
32.5
 49
-2.5
 49
2.5
 49
-2.5
  0
LTYPE
  2
LONG2
 70
    64
  3
--------  -  -  --------  -  -  
 72
    65
 73
     6
 40
40.0
 49
30.0
 49
-2.5
 49
1.25
 49
-2.5
 49
1.25
 49
-2.5
  0
LTYPE
  2
LONG3
 70
    64
  3
+++++++++++++++..+++++++++++++++
 72
    65
 73
     2
 40
40.0
 49
37.5
 49
-2.5
  0
LTYPE
  2
LONG4
 70
    64
  3
+++++++++++++++..+++++++++++++++
 72
    65
 73
     2
 40
80.0
 49
75.0
 49
-5.0
  0
LTYPE
  2
LONG5
 70
    64
  3
----------  --  ----------  --  
 72
    65
 73
     4
 40
60.0
 49
37.5
 49
-7.5
 49
7.5
 49
-7.5
  0
LTYPE
  2
dashed
 70
   64
  3
-------   -------------   ------
 72
   65
 73
    2
 40
7.5
 49
6
 49
-1.5
  0
LTYPE
  2
dashed_spaced
 70
   64
  3
----        --------        ----
 72
   65
 73
    2
 40
12
 49
6
 49
-6
  0
LTYPE
  2
long_dashed_dotted
 70
   64
  3
------------- --- --------------
 72
   65
 73
    4
 40
15.25
 49
12
 49
-1.5
 49
0.25
 49
-1.5
  0
LTYPE
  2
long_dashed_double-dotted
 70
   64
  3
----------- --- --- ------------
 72
   65
 73
    6
 40
17
 49
12
 49
-1.5
 49
0.25
 49
-1.5
 49
0.25
 49
-1.5
  0
LTYPE
  2
long_dashed_triplicate-dotted
 70
   64
  3
--------- --- --- --- ----------
 72
   65
 73
    8
 40
18.75
 49
12
 49
-1.5
 49
0.25
 49
-1.5
 49
0.25
 49
-1.5
 49
0.25
 49
-1.5
  0
LTYPE
  2
dotted
 70
   64
  3
   -       -       -       -    
 72
   65
 73
    2
 40
1.75
 49
0.25
 49
-1.5
  0
LTYPE
  2
chain
 70
   64
  3
-------------- -- --------------
 72
   65
 73
    4
 40
18.5
 49
12
 49
-1.5
 49
3.5
 49
-1.5
  0
LTYPE
  2
chain_double_dash
 70
   64
  3
------------ -- -- -------------
 72
   65
 73
    6
 40
23.5
 49
12
 49
-1.5
 49
3.5
 49
-1.5
 49
3.5
 49
-1.5
  0
LTYPE
  2
dashed_dotted
 70
   64
  3
-----------     -     ----------
 72
   65
 73
    4
 40
9.25
 49
6
 49
-1.5
 49
0.25
 49
-1.5
  0
LTYPE
  2
double-dashed_dotted
 70
   64
  3
------   -----------   -   -----
 72
   65
 73
    6
 40
16.75
 49
6
 49
-1.5
 49
6
 49
-1.5
 49
0.25
 49
-1.5
  0
LTYPE
  2
dashed_double-dotted
 70
   64
  3
---------    -    -    ---------
 72
   65
 73
    6
 40
11
 49
6
 49
-1.5
 49
0.25
 49
-1.5
 49
0.25
 49
-1.5
  0
LTYPE
  2
double-dashed_double-dotted
 70
   64
  3
-----   ---------   -   -   ----
 72
   65
 73
    8
 40
18.5
 49
6
 49
-1.5
 49
6
 49
-1.5
 49
0.25
 49
-1.5
 49
0.25
 49
-1.5
  0
LTYPE
  2
dashed_triplicate-dotted
 70
   64
  3
-------    -    -    -    ------
 72
   65
 73
    8
 40
12.75
 49
6
 49
-1.5
 49
0.25
 49
-1.5
 49
0.25
 49
-1.5
 49
0.25
 49
-1.5
  0
LTYPE
  2
double-dashed_triplicate-dotted
 70
   64
  3
-----  ---------  -  -  -  -----
 72
   65
 73
   10
 40
20.25
 49
6
 49
-1.5
 49
6
 49
-1.5
 49
0.25
 49
-1.5
 49
0.25
 49
-1.5
 49
0.25
 49
-1.5
  0
LTYPE
  2
undefined
 70
   64
  3
--------------------------------
 72
   65
 73
    0
 40
0
  0
ENDTAB
  0
TABLE
  2
STYLE
  5
3
100
AcDbSymbolTable
 70
     1
  0
STYLE
  5
10
100
AcDbSymbolTableRecord
100
AcDbTextStyleTableRecord
  2
STANDARD
 70
     0
 40
0.0
 41
1.0
 50
0.0
 71
     0
 42
0.2
  3
txt
  4
bigfont.shx
  0
STYLE
  5
26
100
AcDbSymbolTableRecord
100
AcDbTextStyleTableRecord
  2
TATEGAKI
 70
    68
 40
0.0
 41
1.0
 50
0.0
 71
     0
 42
1.0
  3
txt
  4
bigfont.shx
  0
ENDTAB
  0
TABLE
  2
LAYER
 70
    2
  0
LAYER
  2
_0-0_
 70
   64
 62
    7
  6
CONTINUOUS
  0
LAYER
  2
ADD_LINE
 70
   64
 62
    7
  6
CONTINUOUS
  0
ENDTAB
  0
ENDSEC
  0
SECTION
  2
BLOCKS
  0
ENDSEC
  0
SECTION
  2
ENTITIES
  0
LINE
  8
_0-0_
  6
CONTINUOUS
 62
    7
 10
1062.9518364040614
 20
1187.3279057056291
 11
1023.9254991561126
 21
1187.3279057056291
  0
POINT
  8
_0-0_
 62
    7
 10
1388.1605103560296
 20
348.8284062360101
  0
LINE
  8
_0-0_
  6
CONTINUOUS
 62
    7
 10
1388.1605103560296
 20
348.8284062360101
 11
1433.6832661534863
 21
427.67613217775693
  0
TEXT
  8
_0-0_
 62
    7
 10
1435.5171745046168
 20
417.82216693524356
 40
21.617968000000001
 41
1
 50
0
  1
ﾗﾝｽﾛｯｸｷｬﾝﾄ
  0
TEXT
  8
_0-0_
 62
    7
 10
1476.3418849775369
 20
388.02012829001364
 40
21.617968000000001
 41
1
 50
0
  1
FJﾃｰﾌﾟ
  0
LINE
  8
_0-0_
  6
CONTINUOUS
 62
    7
 10
1445.2895895740721
 20
347.32299503732179
 11
1474.2032349852811
 21
397.40289792156659
  0
POINT
  8
_0-0_
 62
    7
 10
1445.2895895740721
 20
347.32299503732179
  0
TEXT
  8
_0-0_
 62
    7
 10
1566.9727422274193
 20
404.30262665452506
 40
21.617968000000001
 41
1
 50
0
  1
ﾗﾝｽﾛｯｸｼｰﾄ
  0
POINT
  8
_0-0_
 62
    7
 10
1526.368331536444
 20
346.28638904474906
  0
LINE
  8
_0-0_
  6
CONTINUOUS
 62
    7
 10
1526.368331536444
 20
346.28638904474906
 11
1565.7369787179468
 21
414.47488618836474
  0
POINT
  8
_0-0_
 62
    7
 10
1539.8683315364419
 20
332.7863890447527
  0
TEXT
  8
_0-0_
 62
    7
 10
1575.1348138345481
 20
317.7934305792744
 40
21.617968000000001
 41
1
 50
0
  1
断熱材
  0
POINT
  8
_0-0_
 62
    7
 10
1539.2444802975356
 20
269.77062997686994
  0
LINE
  8
_0-0_
  6
CONTINUOUS
 62
    7
 10
1539.2444802975356
 20
269.77062997686994
 11
1573.8339275742665
 21
329.68131006589215
  0
TEXT
  8
_0-0_
 62
    7
 10
1564.6058487629066
 20
360.75160807156976
 40
21.617968000000001
 41
1
 50
0
  1
ﾌﾟﾗｲﾏｰ
  0
LINE
  8
_0-0_
  6
CONTINUOUS
 62
    7
 10
1539.8683315364419
 20
332.7863890447527
 11
1561.9332811994655
 21
371.00400292755626
  0
POINT
  8
_0-0_
 62
    7
 10
1274.1693877236814
 20
444.64057722853909
  0
LINE
  8
_0-0_
  6
CONTINUOUS
 62
    7
 10
1274.1693877236814
 20
444.64057722853909
 11
1436.1019788326944
 21
475.70980609288858
  0
TEXT
  8
_0-0_
 62
    7
 10
1309.0237856726462
 20
528.36980478023111
 40
21.617968000000001
 41
1
 50
0
  1
ﾄｯﾌﾟｺｰﾄ
  0
TEXT
  8
_0-0_
 62
    7
 10
1310.7843047723968
 20
494.03968233509045
 40
21.617968000000001
 41
1
 50
0
  1
ｳﾚﾀﾝ防水
  0
POINT
  8
_0-0_
 62
    7
 10
1285.1271337754579
 20
464.66586484422191
  0
LINE
  8
_0-0_
  6
CONTINUOUS
 62
    7
 10
1285.1271337754579
 20
464.66586484422191
 11
1308.022806519105
 21
504.32233330968779
  0
POINT
  8
_0-0_
 62
    7
 10
1280.6271337754579
 20
487.55099935153817
  0
LINE
  8
_0-0_
  6
CONTINUOUS
 62
    7
 10
1280.6271337754579
 20
487.55099935153817
 11
1308.7868592583313
 21
536.32507461506907
  0
TEXT
  8
_0-0_
 62
    7
 10
1438.2724899347063
 20
468.26550748742852
 40
21.617968000000001
 41
1
 50
0
  1
ｱﾙﾐｻｽｱﾝｶｰ
  0
POINT
  8
_0-0_
 62
    7
 10
1365.2791759460511
 20
353.04111315878731
  0
LINE
  8
_0-0_
  6
CONTINUOUS
 62
    7
 10
1365.2791759460511
 20
353.04111315878731
 11
1436.1019788326944
 21
475.70980609288858
  0
LINE
  8
_0-0_
  6
CONTINUOUS
 62
    7
 10
1203.4817787687275
 20
500.57940144286954
 11
1250.7667440822474
 21
547.86436675639129
  0
LINE
  8
_0-0_
  6
CONTINUOUS
 62
    7
 10
1203.4817787687275
 20
516.48930401956864
 11
1234.8568415055502
 21
547.86436675639129
  0
LINE
  8
_0-0_
  6
CONTINUOUS
 62
    7
 10
1203.4817787687275
 20
532.39920659626591
 11
1218.9469389288529
 21
547.86436675639129
  0
LINE
  8
_0-0_
  6
CONTINUOUS
 62
    7
 10
1411.0222566265675
 20
183.0930942696989
 11
1481.9655514016181
 21
254.03638904474906
  0
LINE
  8
_0-0_
  6
CONTINUOUS
 62
    7
 10
1395.1123540498702
 20
183.0930942696989
 11
1466.0556488249208
 21
254.03638904474906
  0
LINE
  8
_0-0_
  6
CONTINUOUS
 62
    7
 10
1379.2024514731729
 20
183.0930942696989
 11
1450.1457462482226
 21
254.03638904474906
  0
LINE
  8
_0-0_
  6
CONTINUOUS
 62
    7
 10
1267.1271337754579
 20
254.03638904474906
 11
1554.9787212296565
 21
254.03638904474906
  0
LINE
  8
_0-0_
  6
CONTINUOUS
 62
    6
 10
1508.0485263830501
 20
332.78638904474906
 11
1554.9787212296555
 21
285.85619419813997
  0
LINE
  8
_0-0_
  6
CONTINUOUS
 62
    6
 10
1523.5102393654174
 20
254.0363890447527
 11
1554.9787212296555
 21
285.50487090899082
  0
LINE
  8
_0-0_
  6
CONTINUOUS
 62
    6
 10
1539.8683315364419
 20
332.7863890447527
 11
1554.9787212296555
 21
317.67599935153817
  0
LINE
  8
_0-0_
  6
CONTINUOUS
 62
    6
 10
1491.6904342120229
 20
254.03638904474906
 11
1554.9787212296555
 21
317.32467606238174
  0
LINE
  8
_0-0_
  6
CONTINUOUS
 62
    6
 10
1267.1271337754579
 20
254.03638904474906
 11
1554.9787212296565
 21
254.03638904474906
  0
LINE
  8
_0-0_
  6
CONTINUOUS
 62
    6
 10
1554.9787212296555
 20
332.78638904474906
 11
1267.1271337754579
 21
332.78638904474906
  0
LINE
  8
_0-0_
  6
CONTINUOUS
 62
    3
 10
1267.1271337754579
 20
346.28638904474906
 11
1554.9787212296555
 21
346.28638904474906
  0
LINE
  8
_0-0_
  6
CONTINUOUS
 62
    4
 10
1408.3917440822474
 20
366.53638904474906
 11
1554.9787212296555
 21
366.53638904474906
  0
LINE
  8
_0-0_
  6
CONTINUOUS
 62
    7
 10
1267.1271337754579
 20
254.03638904474906
 11
1267.1271337754579
 21
547.86436675639129
  0
LINE
  8
_0-0_
  6
CONTINUOUS
 62
    7
 10
1269.3771337754579
 20
479.67599935153817
 11
1269.3771337754579
 21
547.86436675639129
  0
LINE
  8
_0-0_
  6
CONTINUOUS
 62
    1
 10
1374.4487245975856
 20
332.78638904474906
 11
1374.4487245975856
 21
254.03638904474906
  0
LINE
  8
_0-0_
  6
CONTINUOUS
 62
    1
 10
1356.4487245975856
 20
254.03638904474906
 11
1356.4487245975856
 21
332.78638904474906
  0
LINE
  8
_0-0_
  6
CONTINUOUS
 62
    1
 10
1376.6987245975856
 20
332.78638904474906
 11
1376.6987245975856
 21
254.03638904474906
  0
LINE
  8
_0-0_
  6
CONTINUOUS
 62
    1
 10
1354.1987245975856
 20
332.78638904474906
 11
1376.6987245975856
 21
332.78638904474906
  0
LINE
  8
_0-0_
  6
CONTINUOUS
 62
    1
 10
1354.1987245975856
 20
254.03638904474906
 11
1354.1987245975856
 21
332.78638904474906
  0
LINE
  8
_0-0_
  6
CONTINUOUS
 62
    1
 10
1376.6987245975856
 20
254.03638904474906
 11
1354.1987245975856
 21
254.03638904474906
  0
LINE
  8
_0-0_
  6
CONTINUOUS
 62
    1
 10
1359.8237245975856
 20
213.53638904474906
 11
1359.8237245975856
 21
350.78638904474906
  0
LINE
  8
_0-0_
  6
CONTINUOUS
 62
    1
 10
1371.0737245975856
 20
213.53638904474906
 11
1371.0737245975856
 21
350.78638904474906
  0
LINE
  8
_0-0_
  6
CENTER2
 62
    1
 10
1365.4487245975856
 20
374.53534247061657
 11
1365.4487245975856
 21
183.0930942696989
  0
LINE
  8
_0-0_
  6
DASHED1
 62
    1
 10
1368.2612245975856
 20
355.28638904474906
 11
1368.2612245975856
 21
196.09888904474906
  0
LINE
  8
_0-0_
  6
CONTINUOUS
 62
    1
 10
1366.0112245975856
 20
213.53638904474906
 11
1364.8862245975856
 21
213.53638904474906
  0
LINE
  8
_0-0_
  6
CONTINUOUS
 62
    1
 10
1363.8294146239282
 20
193.37125348443919
 11
1358.7807810762783
 21
193.63584115708841
  0
LINE
  8
_0-0_
  6
CONTINUOUS
 62
    1
 10
1372.1166681188947
 20
193.63584115708841
 11
1367.0680345712431
 21
193.37125348443919
  0
LINE
  8
_0-0_
  6
DASHED1
 62
    1
 10
1366.991622286529
 20
194.82928673369429
 11
1368.2612245975856
 21
196.09888904474906
  0
LINE
  8
_0-0_
  6
CONTINUOUS
 62
    1
 10
1366.0112245975856
 20
213.53638904474906
 11
1367.0680345712431
 21
193.37125348443919
  0
LINE
  8
_0-0_
  6
CONTINUOUS
 62
    1
 10
1364.8862245975856
 20
213.53638904474906
 11
1363.8294146239282
 21
193.37125348443919
  0
LINE
  8
_0-0_
  6
CONTINUOUS
 62
    1
 10
1359.8237245975856
 20
213.53638904474906
 11
1358.7807810762783
 21
193.63584115708841
  0
LINE
  8
_0-0_
  6
DASHED1
 62
    1
 10
1363.9058269086431
 20
194.82928673369429
 11
1362.6362245975856
 21
196.09888904474906
  0
LINE
  8
_0-0_
  6
CONTINUOUS
 62
    1
 10
1365.4487245975856
 20
193.28638904474906
 11
1366.991622286529
 21
194.82928673369429
  0
LINE
  8
_0-0_
  6
CONTINUOUS
 62
    1
 10
1365.4487245975856
 20
193.28638904474906
 11
1363.9058269086431
 21
194.82928673369429
  0
LINE
  8
_0-0_
  6
CONTINUOUS
 62
    1
 10
1371.0737245975856
 20
213.53638904474906
 11
1372.1166681188947
 21
193.63584115708841
  0
LINE
  8
_0-0_
  6
CONTINUOUS
 62
    1
 10
1382.3237245975856
 20
350.78638904474906
 11
1348.5737245975856
 21
350.78638904474906
  0
LINE
  8
_0-0_
  6
CONTINUOUS
 62
    1
 10
1382.027575591316
 20
350.95894677028633
 11
1382.027575591316
 21
350.95894677028633
  0
LINE
  8
_0-0_
  6
CONTINUOUS
 62
    1
 10
1382.027575591316
 20
350.95894677028633
 11
1374.6438376825772
 21
354.18027487173282
  0
LINE
  8
_0-0_
  6
CONTINUOUS
 62
    1
 10
1374.6438376825772
 20
354.18027487173282
 11
1369.5545893055371
 21
355.28638904474906
  0
LINE
  8
_0-0_
  6
CONTINUOUS
 62
    1
 10
1382.3237245975856
 20
350.78638904474906
 11
1382.3237245975856
 21
350.78638904474906
  0
LINE
  8
_0-0_
  6
CONTINUOUS
 62
    1
 10
1382.3237245975856
 20
350.78638904474906
 11
1382.027575591316
 21
350.95894677028633
  0
LINE
  8
_0-0_
  6
CONTINUOUS
 62
    1
 10
1359.8237245975856
 20
350.72532355380213
 11
1359.8237245975856
 21
350.78638904474906
  0
LINE
  8
_0-0_
  6
CONTINUOUS
 62
    1
 10
1368.7758275670528
 20
355.66512843879531
 11
1368.7758275670528
 21
355.66512843879531
  0
LINE
  8
_0-0_
  6
CONTINUOUS
 62
    1
 10
1368.7758275670528
 20
355.66512843879531
 11
1368.1991421522923
 21
355.73159270732174
  0
LINE
  8
_0-0_
  6
CONTINUOUS
 62
    1
 10
1368.1991421522923
 20
355.73159270732174
 11
1367.5388866919106
 21
355.78452968784484
  0
LINE
  8
_0-0_
  6
CONTINUOUS
 62
    1
 10
1367.5388866919106
 20
355.78452968784484
 11
1366.8151227139658
 21
355.82233091699874
  0
LINE
  8
_0-0_
  6
CONTINUOUS
 62
    1
 10
1366.8151227139658
 20
355.82233091699874
 11
1366.0498414206857
 21
355.84384782356403
  0
LINE
  8
_0-0_
  6
CONTINUOUS
 62
    1
 10
1366.0498414206857
 20
355.84384782356403
 11
1365.2662954969153
 21
355.84842662722281
  0
LINE
  8
_0-0_
  6
CONTINUOUS
 62
    1
 10
1365.2662954969153
 20
355.84842662722281
 11
1364.4882925890552
 21
355.83592820334286
  0
LINE
  8
_0-0_
  6
CONTINUOUS
 62
    1
 10
1364.4882925890552
 20
355.83592820334286
 11
1363.7394719217723
 21
355.80673231020927
  0
LINE
  8
_0-0_
  6
CONTINUOUS
 62
    1
 10
1363.7394719217723
 20
355.80673231020927
 11
1363.0425860321204
 21
355.76172605026102
  0
LINE
  8
_0-0_
  6
CONTINUOUS
 62
    1
 10
1363.0425860321204
 20
355.76172605026102
 11
1362.4188094452154
 21
355.70227691593249
  0
LINE
  8
_0-0_
  6
CONTINUOUS
 62
    1
 10
1362.4188094452154
 20
355.70227691593249
 11
1362.1216216281186
 21
355.66512843879536
  0
LINE
  8
_0-0_
  6
CONTINUOUS
 62
    1
 10
1362.6362245975856
 20
355.28638904474906
 11
1362.6362245975856
 21
355.28638904474906
  0
LINE
  8
_0-0_
  6
CONTINUOUS
 62
    1
 10
1362.6362245975856
 20
355.28638904474906
 11
1362.1216216281186
 21
355.66512843879531
  0
LINE
  8
_0-0_
  6
CONTINUOUS
 62
    1
 10
1368.7758275670526
 20
355.66512843879531
 11
1368.7758275670526
 21
355.66512843879531
  0
LINE
  8
_0-0_
  6
CONTINUOUS
 62
    1
 10
1368.7758275670526
 20
355.66512843879531
 11
1368.2612245975856
 21
355.28638904474906
  0
LINE
  8
_0-0_
  6
CONTINUOUS
 62
    1
 10
1361.3428598896342
 20
355.28638904474906
 11
1361.3428598896342
 21
355.28638904474906
  0
LINE
  8
_0-0_
  6
CONTINUOUS
 62
    1
 10
1361.3428598896342
 20
355.28638904474906
 11
1353.7473525652642
 21
353.31074044982853
  0
LINE
  8
_0-0_
  6
CONTINUOUS
 62
    1
 10
1353.7473525652642
 20
353.31074044982853
 11
1348.5737245975856
 21
350.78638904474906
  0
LINE
  8
_0-0_
  6
CONTINUOUS
 62
    1
 10
1361.3428598896339
 20
355.28638904474906
 11
1369.5545893055373
 21
355.28638904474906
  0
LINE
  8
_0-0_
  6
DASHED1
 62
    1
 10
1362.6362245975856
 20
355.28638904474906
 11
1362.6362245975856
 21
196.09888904474906
  0
LINE
  8
_0-0_
  6
CONTINUOUS
 62
  136
 10
1332.6307051129256
 20
350.78638904474906
 11
1398.2667440822474
 21
350.78638904474906
  0
LINE
  8
_0-0_
  6
CONTINUOUS
 62
  136
 10
1271.6271337754579
 20
477.42599935153817
 11
1271.6271337754579
 21
411.78996038221635
  0
LINE
  8
_0-0_
  6
CONTINUOUS
 62
  136
 10
1267.1271337754579
 20
477.42599935153817
 11
1271.6271337754579
 21
477.42599935153817
  0
LINE
  8
_0-0_
  6
CONTINUOUS
 62
  136
 10
1267.1271337754579
 20
477.42599935153817
 11
1267.1271337754579
 21
409.92599935153817
  0
LINE
  8
_0-0_
  6
CONTINUOUS
 62
  136
 10
1398.2667440822474
 20
346.28638904474906
 11
1398.2667440822474
 21
350.78638904474906
  0
LINE
  8
_0-0_
  6
CONTINUOUS
 62
  136
 10
1330.7667440822474
 20
346.28638904474906
 11
1398.2667440822474
 21
346.28638904474906
  0
LINE
  8
_0-0_
  6
CONTINUOUS
 62
  136
 10
1267.1271337754579
 20
409.92599935153817
 11
1330.7667440822474
 21
346.28638904474906
  0
LINE
  8
_0-0_
  6
CONTINUOUS
 62
    4
 10
1403.8917440822474
 20
371.03638904474906
 11
1408.3917440822474
 21
366.53638904474906
  0
LINE
  8
_0-0_
  6
CONTINUOUS
 62
    4
 10
1386.9529672962356
 20
371.03638904474906
 11
1386.9529672962356
 21
371.03638904474906
  0
LINE
  8
_0-0_
  6
CONTINUOUS
 62
    4
 10
1386.9529672962356
 20
371.03638904474906
 11
1376.0592786117463
 21
374.67241033813957
  0
LINE
  8
_0-0_
  6
CONTINUOUS
 62
    4
 10
1376.0592786117463
 20
374.67241033813957
 11
1364.8431936127361
 21
375.80517406386866
  0
LINE
  8
_0-0_
  6
CONTINUOUS
 62
    4
 10
1364.8431936127361
 20
375.80517406386866
 11
1353.6455073662871
 21
374.40026176933628
  0
LINE
  8
_0-0_
  6
CONTINUOUS
 62
    4
 10
1353.6455073662871
 20
374.40026176933628
 11
1343.9444818989357
 21
371.03638904474906
  0
LINE
  8
_0-0_
  6
CONTINUOUS
 62
    4
 10
1331.4725882049638
 20
371.03638904474906
 11
1343.9444818989373
 21
371.03638904474906
  0
LINE
  8
_0-0_
  6
CONTINUOUS
 62
    4
 10
1285.1271337754579
 20
417.38184347425454
 11
1331.4725882049638
 21
371.03638904474906
  0
LINE
  8
_0-0_
  6
CONTINUOUS
 62
    7
 10
1382.8855911632947
 20
353.03638904474906
 11
1382.8855911632947
 21
353.03638904474906
  0
LINE
  8
_0-0_
  6
CONTINUOUS
 62
    7
 10
1382.8855911632947
 20
353.03638904474906
 11
1375.1276221157418
 21
356.37626784555084
  0
LINE
  8
_0-0_
  6
CONTINUOUS
 62
    7
 10
1375.1276221157418
 20
356.37626784555084
 11
1367.0755646648583
 21
357.76880811003377
  0
LINE
  8
_0-0_
  6
CONTINUOUS
 62
    7
 10
1367.0755646648583
 20
357.76880811003377
 11
1358.9740765017516
 21
357.17169820692084
  0
LINE
  8
_0-0_
  6
CONTINUOUS
 62
    7
 10
1358.9740765017516
 20
357.17169820692084
 11
1351.0693172447066
 21
354.60308101846607
  0
LINE
  8
_0-0_
  6
CONTINUOUS
 62
    7
 10
1351.0693172447066
 20
354.60308101846607
 11
1348.0118580318765
 21
353.03638904474906
  0
LINE
  8
_0-0_
  6
CONTINUOUS
 62
    7
 10
1382.8855911632968
 20
353.03638904474906
 11
1400.5167440822474
 21
353.03638904474906
  0
LINE
  8
_0-0_
  6
CONTINUOUS
 62
    7
 10
1332.6307051129256
 20
353.03638904474906
 11
1348.0118580318763
 21
353.03638904474906
  0
LINE
  8
_0-0_
  6
CONTINUOUS
 62
    7
 10
1400.5167440822474
 20
348.53638904474906
 11
1400.5167440822474
 21
353.03638904474906
  0
LINE
  8
_0-0_
  6
CONTINUOUS
 62
    4
 10
1285.1271337754579
 20
483.05099935153817
 11
1280.6271337754579
 21
487.55099935153817
  0
LINE
  8
_0-0_
  6
CONTINUOUS
 62
    4
 10
1285.1271337754579
 20
464.66586484422191
 11
1285.1271337754579
 21
483.05099935153817
  0
LINE
  8
_0-0_
  6
CONTINUOUS
 62
    4
 10
1285.1271337754579
 20
424.55009488953311
 11
1285.1271337754579
 21
424.55009488953311
  0
LINE
  8
_0-0_
  6
CONTINUOUS
 62
    4
 10
1285.1271337754579
 20
424.55009488953311
 11
1288.6603261278979
 21
434.26624431449011
  0
LINE
  8
_0-0_
  6
CONTINUOUS
 62
    4
 10
1288.6603261278979
 20
434.26624431449011
 11
1289.8984806523483
 21
444.2966221410357
  0
LINE
  8
_0-0_
  6
CONTINUOUS
 62
    4
 10
1289.8984806523483
 20
444.2966221410357
 11
1288.8039766501204
 21
454.33646041452641
  0
LINE
  8
_0-0_
  6
CONTINUOUS
 62
    4
 10
1288.8039766501204
 20
454.33646041452641
 11
1285.4100700714762
 21
464.08070372942547
  0
LINE
  8
_0-0_
  6
CONTINUOUS
 62
    4
 10
1285.4100700714762
 20
464.08070372942547
 11
1285.1271337754579
 21
464.6658648442214
  0
LINE
  8
_0-0_
  6
CONTINUOUS
 62
    4
 10
1285.1271337754579
 20
417.38184347425454
 11
1285.1271337754579
 21
424.5500948895326
  0
LINE
  8
_0-0_
  6
CENTER2
 62
    1
 10
1288.4801462467262
 20
444.60797986687726
 11
1203.4817787687275
 21
444.60797986687726
  0
LINE
  8
_0-0_
  6
CONTINUOUS
 62
    7
 10
1273.8771337754579
 20
427.17111330116813
 11
1273.8771337754579
 21
427.17111330116813
  0
LINE
  8
_0-0_
  6
CONTINUOUS
 62
    7
 10
1273.8771337754579
 20
427.17111330116813
 11
1277.2170125762595
 21
434.92908234872095
  0
LINE
  8
_0-0_
  6
CONTINUOUS
 62
    7
 10
1277.2170125762595
 20
434.92908234872095
 11
1278.6095528407425
 21
442.98113979960453
  0
LINE
  8
_0-0_
  6
CONTINUOUS
 62
    7
 10
1278.6095528407425
 20
442.98113979960453
 11
1278.0124429376297
 21
451.0826279627114
  0
LINE
  8
_0-0_
  6
CONTINUOUS
 62
    7
 10
1278.0124429376297
 20
451.0826279627114
 11
1275.4438257491749
 21
458.98738721975633
  0
LINE
  8
_0-0_
  6
CONTINUOUS
 62
    7
 10
1275.4438257491749
 20
458.98738721975633
 11
1273.8771337754579
 21
462.04484643258638
  0
LINE
  8
_0-0_
  6
CONTINUOUS
 62
    7
 10
1273.8771337754579
 20
462.04484643258661
 11
1273.8771337754579
 21
479.67599935153817
  0
LINE
  8
_0-0_
  6
CONTINUOUS
 62
    7
 10
1273.8771337754579
 20
411.78996038221635
 11
1273.8771337754579
 21
427.17111330116791
  0
LINE
  8
_0-0_
  6
CONTINUOUS
 62
    1
 10
1233.3771337754579
 20
444.04547986687726
 11
1233.3771337754579
 21
445.17047986687726
  0
LINE
  8
_0-0_
  6
CONTINUOUS
 62
    1
 10
1233.3771337754579
 20
444.04547986687726
 11
1213.2119982151485
 21
442.98866989322164
  0
LINE
  8
_0-0_
  6
CONTINUOUS
 62
    1
 10
1233.3771337754579
 20
438.98297986687726
 11
1271.6271337754579
 21
438.98297986687726
  0
LINE
  8
_0-0_
  6
CONTINUOUS
 62
    1
 10
1233.3771337754579
 20
445.17047986687726
 11
1213.2119982151485
 21
446.22728984053651
  0
LINE
  8
_0-0_
  6
CONTINUOUS
 62
    1
 10
1233.3771337754579
 20
450.23297986687726
 11
1213.476585887795
 21
451.27592338818545
  0
LINE
  8
_0-0_
  6
CONTINUOUS
 62
    1
 10
1233.3771337754579
 20
450.23297986687726
 11
1271.6271337754579
 21
450.23297986687726
  0
LINE
  8
_0-0_
  6
DASHED1
 62
    1
 10
1276.1271337754579
 20
441.79547986687726
 11
1215.9396337754579
 21
441.79547986687726
  0
LINE
  8
_0-0_
  6
DASHED1
 62
    1
 10
1276.1271337754579
 20
447.42047986687726
 11
1215.9396337754579
 21
447.42047986687726
  0
LINE
  8
_0-0_
  6
CONTINUOUS
 62
    1
 10
1276.5058731695042
 20
441.28087689741005
 11
1276.5058731695042
 21
441.28087689741005
  0
LINE
  8
_0-0_
  6
CONTINUOUS
 62
    1
 10
1276.5058731695042
 20
441.28087689741005
 11
1276.5723374380307
 21
441.8575623121705
  0
LINE
  8
_0-0_
  6
CONTINUOUS
 62
    1
 10
1276.5723374380307
 20
441.8575623121705
 11
1276.6252744185535
 21
442.51781777255229
  0
LINE
  8
_0-0_
  6
CONTINUOUS
 62
    1
 10
1276.6252744185535
 20
442.51781777255229
 11
1276.6630756477075
 21
443.24158175049706
  0
LINE
  8
_0-0_
  6
CONTINUOUS
 62
    1
 10
1276.6630756477075
 20
443.24158175049706
 11
1276.684592554273
 21
444.00686304377729
  0
LINE
  8
_0-0_
  6
CONTINUOUS
 62
    1
 10
1276.684592554273
 20
444.00686304377729
 11
1276.6891713579316
 21
444.79040896754759
  0
LINE
  8
_0-0_
  6
CONTINUOUS
 62
    1
 10
1276.6891713579316
 20
444.79040896754759
 11
1276.6766729340516
 21
445.56841187540761
  0
LINE
  8
_0-0_
  6
CONTINUOUS
 62
    1
 10
1276.6766729340516
 20
445.56841187540761
 11
1276.6474770409181
 21
446.31723254269048
  0
LINE
  8
_0-0_
  6
CONTINUOUS
 62
    1
 10
1276.6474770409181
 20
446.31723254269048
 11
1276.60247078097
 21
447.01411843234234
  0
LINE
  8
_0-0_
  6
CONTINUOUS
 62
    1
 10
1276.60247078097
 20
447.01411843234234
 11
1276.5430216466414
 21
447.63789501924742
  0
LINE
  8
_0-0_
  6
CONTINUOUS
 62
    1
 10
1276.5430216466414
 20
447.63789501924742
 11
1276.5058731695042
 21
447.93508283634429
  0
LINE
  8
_0-0_
  6
CONTINUOUS
 62
    1
 10
1276.1271337754579
 20
447.42047986687726
 11
1276.1271337754579
 21
447.42047986687726
  0
LINE
  8
_0-0_
  6
CONTINUOUS
 62
    1
 10
1276.1271337754579
 20
447.42047986687726
 11
1276.5058731695042
 21
447.93508283634429
  0
LINE
  8
_0-0_
  6
CONTINUOUS
 62
    1
 10
1276.5058731695042
 20
441.28087689741022
 11
1276.5058731695042
 21
441.28087689741022
  0
LINE
  8
_0-0_
  6
CONTINUOUS
 62
    1
 10
1276.5058731695042
 20
441.28087689741022
 11
1276.1271337754579
 21
441.79547986687726
  0
LINE
  8
_0-0_
  6
CONTINUOUS
 62
    1
 10
1271.6271337754579
 20
427.73297986687726
 11
1271.6271337754579
 21
427.73297986687726
  0
LINE
  8
_0-0_
  6
CONTINUOUS
 62
    1
 10
1271.6271337754579
 20
427.73297986687726
 11
1274.9245487525714
 21
435.10024191025701
  0
LINE
  8
_0-0_
  6
CONTINUOUS
 62
    1
 10
1274.9245487525714
 20
435.10024191025701
 11
1276.1271337754579
 21
440.50211515892579
  0
LINE
  8
_0-0_
  6
CONTINUOUS
 62
    1
 10
1276.1271337754579
 20
448.71384457482873
 11
1276.1271337754579
 21
448.71384457482873
  0
LINE
  8
_0-0_
  6
CONTINUOUS
 62
    1
 10
1276.1271337754579
 20
448.71384457482873
 11
1274.1514851805373
 21
456.30935189919865
  0
LINE
  8
_0-0_
  6
CONTINUOUS
 62
    1
 10
1274.1514851805373
 20
456.30935189919865
 11
1271.6271337754579
 21
461.48297986687726
  0
LINE
  8
_0-0_
  6
CONTINUOUS
 62
    1
 10
1276.1271337754579
 20
448.71384457482895
 11
1276.1271337754579
 21
440.50211515892556
  0
LINE
  8
_0-0_
  6
CONTINUOUS
 62
    1
 10
1271.6271337754579
 20
450.23297986687726
 11
1271.6271337754579
 21
461.48297986687726
  0
LINE
  8
_0-0_
  6
CONTINUOUS
 62
    1
 10
1271.6271337754579
 20
438.98297986687726
 11
1271.6271337754579
 21
427.73297986687726
  0
LINE
  8
_0-0_
  6
CONTINUOUS
 62
    1
 10
1233.3771337754579
 20
438.98297986687726
 11
1213.476585887795
 21
437.94003634556907
  0
LINE
  8
_0-0_
  6
CONTINUOUS
 62
    7
 10
1271.6271337754579
 20
411.78996038221635
 11
1273.8771337754579
 21
411.78996038221635
  0
LINE
  8
_0-0_
  6
CONTINUOUS
 62
    7
 10
1269.3771337754579
 20
479.67599935153817
 11
1273.8771337754579
 21
479.67599935153817
  0
LINE
  8
_0-0_
  6
CONTINUOUS
 62
    7
 10
1332.6307051129256
 20
350.78638904474906
 11
1332.6307051129256
 21
353.03638904474906
  0
LINE
  8
_0-0_
  6
CONTINUOUS
 62
    7
 10
1485.6307051129256
 20
348.53638904474906
 11
1485.6307051129256
 21
346.28638904474906
  0
LINE
  8
_0-0_
  6
CONTINUOUS
 62
    4
 10
1386.9529672962362
 20
371.03638904474906
 11
1403.8917440822474
 21
371.03638904474906
  0
LINE
  8
_0-0_
  6
CONTINUOUS
 62
    1
 10
1213.2119982151485
 20
446.22728984053651
 11
1213.476585887795
 21
451.27592338818545
  0
LINE
  8
_0-0_
  6
CONTINUOUS
 62
    1
 10
1213.476585887795
 20
437.94003634556907
 11
1213.2119982151485
 21
442.98866989322164
  0
LINE
  8
_0-0_
  6
DASHED1
 62
    1
 10
1214.6700314644008
 20
443.06508217793566
 11
1215.9396337754579
 21
441.79547986687726
  0
LINE
  8
_0-0_
  6
DASHED1
 62
    1
 10
1214.6700314644008
 20
446.15087755582249
 11
1215.9396337754579
 21
447.42047986687726
  0
LINE
  8
_0-0_
  6
CONTINUOUS
 62
    1
 10
1213.1271337754579
 20
444.60797986687726
 11
1214.6700314644008
 21
443.06508217793566
  0
LINE
  8
_0-0_
  6
CONTINUOUS
 62
    1
 10
1213.1271337754579
 20
444.60797986687726
 11
1214.6700314644008
 21
446.15087755582249
  0
LINE
  8
_0-0_
  6
CONTINUOUS
 62
    6
 10
1267.1271337754579
 20
332.78638904474906
 11
1267.1271337754579
 21
254.03638904474906
  0
LINE
  8
_0-0_
  6
CONTINUOUS
 62
    6
 10
1267.1271337754579
 20
255.50973011839346
 11
1268.6004748491005
 21
254.03638904474906
  0
LINE
  8
_0-0_
  6
CONTINUOUS
 62
    6
 10
1267.1271337754565
 20
287.32953527179166
 11
1300.4202800024973
 21
254.03638904474906
  0
LINE
  8
_0-0_
  6
CONTINUOUS
 62
    6
 10
1267.1271337754592
 20
319.14934042518257
 11
1332.2400851558909
 21
254.0363890447527
  0
LINE
  8
_0-0_
  6
CONTINUOUS
 62
    6
 10
1285.3098903092891
 20
332.78638904474906
 11
1364.0598903092891
 21
254.03638904474906
  0
LINE
  8
_0-0_
  6
CONTINUOUS
 62
    6
 10
1317.1296954626828
 20
332.78638904474906
 11
1395.8796954626828
 21
254.03638904474906
  0
LINE
  8
_0-0_
  6
CONTINUOUS
 62
    6
 10
1348.9495006160746
 20
332.7863890447527
 11
1427.6995006160746
 21
254.0363890447527
  0
LINE
  8
_0-0_
  6
CONTINUOUS
 62
    6
 10
1380.7693057694728
 20
332.78638904474906
 11
1459.5193057694719
 21
254.0363890447527
  0
LINE
  8
_0-0_
  6
CONTINUOUS
 62
    6
 10
1412.5891109228664
 20
332.78638904474906
 11
1491.3391109228655
 21
254.03638904474906
  0
LINE
  8
_0-0_
  6
CONTINUOUS
 62
    6
 10
1444.4089160762583
 20
332.7863890447527
 11
1523.1589160762583
 21
254.0363890447527
  0
LINE
  8
_0-0_
  6
CONTINUOUS
 62
    6
 10
1476.2287212296565
 20
332.78638904474906
 11
1554.9787212296565
 21
254.03638904474906
  0
LINE
  8
_0-0_
  6
CONTINUOUS
 62
    6
 10
1459.8706290586256
 20
254.03638904474906
 11
1538.6206290586256
 21
332.78638904474906
  0
LINE
  8
_0-0_
  6
CONTINUOUS
 62
    6
 10
1428.0508239052338
 20
254.0363890447527
 11
1506.8008239052338
 21
332.7863890447527
  0
LINE
  8
_0-0_
  6
CONTINUOUS
 62
    6
 10
1396.2310187518401
 20
254.0363890447527
 11
1474.9810187518401
 21
332.7863890447527
  0
LINE
  8
_0-0_
  6
CONTINUOUS
 62
    6
 10
1364.4112135984419
 20
254.03638904474906
 11
1443.161213598441
 21
332.78638904474906
  0
LINE
  8
_0-0_
  6
CONTINUOUS
 62
    6
 10
1332.5914084450501
 20
254.0363890447527
 11
1411.3414084450501
 21
332.7863890447527
  0
LINE
  8
_0-0_
  6
CONTINUOUS
 62
    6
 10
1300.7716032916564
 20
254.0363890447527
 11
1379.5216032916564
 21
332.7863890447527
  0
LINE
  8
_0-0_
  6
CONTINUOUS
 62
    6
 10
1268.9517981382573
 20
254.03638904474906
 11
1347.7017981382573
 21
332.78638904474906
  0
LINE
  8
_0-0_
  6
CONTINUOUS
 62
    6
 10
1267.1271337754565
 20
284.03152983534278
 11
1315.8819929848664
 21
332.7863890447527
  0
LINE
  8
_0-0_
  6
CONTINUOUS
 62
    6
 10
1267.1271337754565
 20
315.85133498873734
 11
1284.0621878314719
 21
332.7863890447527
  0
LINE
  8
_0-0_
  6
CONTINUOUS
 62
  136
 10
1271.6271337754579
 20
411.78996038221635
 11
1332.6307051129256
 21
350.78638904474906
  0
LINE
  8
_0-0_
  6
CONTINUOUS
 62
    7
 10
1400.5167440822474
 20
348.53638904474906
 11
1485.6307051129256
 21
348.53638904474906
  0
LINE
  8
_0-0_
  6
CONTINUOUS
 62
    4
 10
1280.6271337754579
 20
547.86436675639129
 11
1280.6271337754579
 21
487.55099935153817
  0
ARC
  8
_0-0_
  6
CONTINUOUS
 62
    7
 10
1072.9518364040614
 20
1207.3279057056291
 40
10
 50
0
 51
180
  0
TEXT
  8
_0-0_
 62
    7
 10
1429.6891920142089
 20
576.0272128734789
 40
40
 41
1
 50
0
  1
Ｂ
  0
TEXT
  8
_0-0_
 62
    7
 10
906.73245032900388
 20
575.67973412101242
 40
40
 41
1
 50
0
  1
Ａ
  0
LINE
  8
_0-0_
  6
CONTINUOUS
 62
    4
 10
1016.1377012032914
 20
1274.0297458012058
 11
1029.9254991561124
 21
1259.7520630606398
  0
LINE
  8
_0-0_
  6
CONTINUOUS
 62
    7
 10
1013.5056235992275
 20
1268.1180027107087
 11
1023.9254991561126
 21
1257.3279057056291
  0
LINE
  8
_0-0_
  6
CONTINUOUS
 62
    7
 10
873.92549915611255
 20
1020.2671375299317
 11
1023.9254991561126
 21
1170.2671375299317
  0
LINE
  8
_0-0_
  6
CONTINUOUS
 62
    7
 10
873.92549915611255
 20
1013.1960697180668
 11
1023.9254991561135
 21
1163.1960697180677
  0
LINE
  8
_0-0_
  6
CONTINUOUS
 62
    7
 10
873.92549915611346
 20
1006.1250019062029
 11
1023.9254991561126
 21
1156.125001906202
  0
LINE
  8
_0-0_
  6
CONTINUOUS
 62
    7
 10
1706.8525777203677
 20
1633.3565543671141
 11
1706.8525777203677
 21
167.53106997205509
  0
LINE
  8
_0-0_
  6
CONTINUOUS
 62
    7
 10
672.13606690525205
 20
1633.3565543671141
 11
672.13606690525205
 21
167.53106997205509
  0
LINE
  8
_0-0_
  6
CONTINUOUS
 62
    7
 10
1189.4943223128098
 20
627.53106997205691
 11
1189.4943223128098
 21
167.53106997205509
  0
LINE
  8
_0-0_
  6
CONTINUOUS
 62
    7
 10
672.13606690525205
 20
627.53106997205691
 11
1706.8525777203677
 21
627.53106997205691
  0
LINE
  8
_0-0_
  6
CONTINUOUS
 62
    7
 10
672.13606690525205
 20
167.53106997205509
 11
1706.8525777203677
 21
167.53106997205509
  0
LINE
  8
_0-0_
  6
CONTINUOUS
 62
    7
 10
672.13606690525205
 20
567.53106997205691
 11
1706.8525777203677
 21
567.53106997205691
  0
LINE
  8
_0-0_
  6
DASHED1
 62
    7
 10
916.74017122517137
 20
1227.3279057056291
 11
916.74017122517137
 21
1187.3279057056291
  0
LINE
  8
_0-0_
  6
DASHED1
 62
    7
 10
916.74017122517137
 20
1227.3279057056291
 11
916.74017122517137
 21
1187.3279057056291
  0
ARC
  8
_0-0_
  6
CONTINUOUS
 62
    7
 10
1072.9518364040614
 20
1207.3279057056291
 40
20
 50
1.8794552231624875
 51
90
  0
LINE
  8
_0-0_
  6
CONTINUOUS
 62
    7
 10
1082.9518364040614
 20
1207.3279057056291
 11
1082.9518364040614
 21
1147.3279057056291
  0
LINE
  8
_0-0_
  6
CONTINUOUS
 62
    7
 10
1062.9518364040614
 20
1207.3279057056291
 11
1062.9518364040614
 21
1147.3279057056291
  0
ARC
  8
_0-0_
  6
DASHED1
 62
    7
 10
1072.9518364040614
 20
1207.3279057056291
 40
10
 50
180
 51
1.879455223162438
  0
ARC
  8
_0-0_
  6
CONTINUOUS
 62
    7
 10
1072.9518364040614
 20
1147.3279057056291
 40
10
 50
180
 51
0
  0
CIRCLE
  8
_0-0_
  6
DASHED1
 62
    7
 10
937.06813921920241
 20
1207.6558736996606
 40
9.6720320059689584
  0
ARC
  8
_0-0_
  6
CONTINUOUS
 62
    7
 10
1072.9518364040614
 20
1207.3279057056291
 40
20
 50
299.99999999999989
 51
1.8794552231624542
  0
ARC
  8
_0-0_
  6
DASHED1
 62
    7
 10
1072.9518364040614
 20
1207.6558736996606
 40
20.284691458917379
 50
270
 51
299.53680866691025
  0
LINE
  8
_0-0_
  6
DASHED1
 62
    7
 10
1062.9518364040614
 20
1187.3279057056291
 11
1072.9518364040614
 21
1187.3279057056291
  0
LINE
  8
_0-0_
  6
DASHED1
 62
    7
 10
1023.9254991561126
 20
1227.3279057056291
 11
916.74017122517137
 21
1227.3279057056291
  0
LINE
  8
_0-0_
  6
DASHED1
 62
    7
 10
1023.9254991561126
 20
1187.3279057056291
 11
916.74017122517137
 21
1187.3279057056291
  0
LINE
  8
_0-0_
  6
CONTINUOUS
 62
    7
 10
1072.9518364040614
 20
1227.3279057056291
 11
1023.9254991561126
 21
1227.3279057056291
  0
CIRCLE
  8
_0-0_
  6
DASHED2
 62
    1
 10
951.16433613602487
 20
1269.5458920707854
 40
94.513505632925799
  0
TEXT
  8
_0-0_
 62
    7
 10
941.25844822473812
 20
1351.4850665766128
 40
24
 41
1
 50
0
  1
Ａ
  0
ARC
  8
_0-0_
  6
CONTINUOUS
 62
    7
 10
1124.6036622740135
 20
350.25343932904912
 40
18
 50
0
 51
180
  0
LINE
  8
_0-0_
  6
CONTINUOUS
 62
    4
 10
1022.3382189126274
 20
470.31675150108754
 11
1047.1562552277051
 21
444.61692256806896
  0
LINE
  8
_0-0_
  6
CONTINUOUS
 62
    7
 10
1017.6004792253126
 20
459.67561393819346
 11
1036.3562552277049
 21
440.25343932904912
  0
LINE
  8
_0-0_
  6
CONTINUOUS
 62
    7
 10
766.35625522770681
 20
395.38171845353395
 11
836.9583141204813
 21
465.9837773463089
  0
LINE
  8
_0-0_
  6
CONTINUOUS
 62
    7
 10
766.35625522770499
 20
408.10964051489032
 11
824.65986342110421
 21
466.41324870828907
  0
LINE
  8
_0-0_
  6
CONTINUOUS
 62
    7
 10
766.35625522770499
 20
420.83756257624668
 11
812.3614127217262
 21
466.84272007026743
  0
LINE
  8
_0-0_
  6
DASHED1
 62
    7
 10
843.42266495201113
 20
386.25343932904912
 11
843.42266495201113
 21
314.25343932904912
  0
LINE
  8
_0-0_
  6
DASHED1
 62
    7
 10
843.42266495201113
 20
386.25343932904912
 11
843.42266495201113
 21
314.25343932904912
  0
ARC
  8
_0-0_
  6
CONTINUOUS
 62
    7
 10
1124.6036622740135
 20
350.25343932904912
 40
36
 50
1.8794552231624875
 51
90
  0
LINE
  8
_0-0_
  6
CONTINUOUS
 62
    7
 10
1142.6036622740135
 20
350.25343932904912
 11
1142.6036622740135
 21
242.25343932904912
  0
LINE
  8
_0-0_
  6
CONTINUOUS
 62
    7
 10
1106.6036622740135
 20
350.25343932904912
 11
1106.6036622740135
 21
242.25343932904912
  0
ARC
  8
_0-0_
  6
DASHED1
 62
    7
 10
1124.6036622740135
 20
350.25343932904912
 40
18
 50
180
 51
1.879455223162438
  0
ARC
  8
_0-0_
  6
CONTINUOUS
 62
    7
 10
1124.6036622740135
 20
242.25343932904912
 40
18
 50
180
 51
0
  0
CIRCLE
  8
_0-0_
  6
DASHED1
 62
    7
 10
880.0130073412671
 20
350.84378171830508
 40
17.409657610744127
  0
ARC
  8
_0-0_
  6
CONTINUOUS
 62
    7
 10
1124.6036622740135
 20
350.25343932904912
 40
36
 50
299.99999999999989
 51
1.8794552231624542
  0
ARC
  8
_0-0_
  6
DASHED1
 62
    7
 10
1124.6036622740135
 20
350.84378171830508
 40
36.512444626051284
 50
270
 51
299.53680866691025
  0
LINE
  8
_0-0_
  6
DASHED1
 62
    7
 10
1106.6036622740135
 20
314.25343932904912
 11
1124.6036622740135
 21
314.25343932904912
  0
LINE
  8
_0-0_
  6
DASHED1
 62
    7
 10
1036.3562552277049
 20
386.25343932904912
 11
843.42266495201113
 21
386.25343932904912
  0
LINE
  8
_0-0_
  6
DASHED1
 62
    7
 10
1036.3562552277049
 20
314.25343932904912
 11
843.42266495201113
 21
314.25343932904912
  0
LINE
  8
_0-0_
  6
CONTINUOUS
 62
    7
 10
1124.6036622740135
 20
386.25343932904912
 11
1036.3562552277049
 21
386.25343932904912
  0
LINE
  8
_0-0_
  6
CONTINUOUS
 62
    7
 10
1106.6036622740135
 20
314.25343932904912
 11
1036.3562552277049
 21
314.25343932904912
  0
LINE
  8
_0-0_
  6
CONTINUOUS
 62
    7
 10
970.71660084648477
 20
217.90440223157498
 11
1036.3562552277049
 21
283.54405661279566
  0
LINE
  8
_0-0_
  6
CONTINUOUS
 62
    7
 10
983.44452290784204
 20
217.90440223157498
 11
1036.3562552277067
 21
270.81613455143929
  0
LINE
  8
_0-0_
  6
CONTINUOUS
 62
    7
 10
996.17244496919841
 20
217.90440223157498
 11
1036.3562552277049
 21
258.08821249008292
  0
LINE
  8
_0-0_
  6
CONTINUOUS
 62
    7
 10
873.92549915611255
 20
793.99296755023738
 11
1095.9247796678933
 21
1015.9922480620164
  0
LINE
  8
_0-0_
  6
CONTINUOUS
 62
    7
 10
873.92549915611255
 20
786.92189973837162
 11
1102.9958474797572
 21
1015.9922480620164
  0
LINE
  8
_0-0_
  6
CONTINUOUS
 62
    7
 10
873.92549915611346
 20
779.85083192650768
 11
1110.066915291623
 21
1015.9922480620164
  0
LINE
  8
_0-0_
  6
CONTINUOUS
 62
    7
 10
1079.1989496475876
 20
772.99224806201642
 11
1322.1989496475876
 21
1015.9922480620164
  0
LINE
  8
_0-0_
  6
CONTINUOUS
 62
    7
 10
1086.2700174594524
 20
772.99224806201642
 11
1329.2700174594534
 21
1015.9922480620164
  0
LINE
  8
_0-0_
  6
CONTINUOUS
 62
    7
 10
1093.3410852713164
 20
772.99224806201551
 11
1336.3410852713173
 21
1015.9922480620164
  0
LINE
  8
_0-0_
  6
CONTINUOUS
 62
    7
 10
1216.1733265094576
 20
1023.4922480620164
 11
1275.9312715000365
 21
1126.9960449416051
  0
POINT
  8
_0-0_
 62
    7
 10
1216.1733265094576
 20
1023.4922480620164
  0
TEXT
  8
_0-0_
 62
    7
 10
1281.8543906770597
 20
1115.7130571416212
 40
30
 41
1
 50
0
  1
防水層
  0
LINE
  8
_0-0_
  6
CONTINUOUS
 62
    7
 10
1083.2097704035746
 20
1057.9922480620164
 11
1121.0381975283203
 21
1057.9922480620164
  0
LINE
  8
_0-0_
  6
CONTINUOUS
 62
  136
 10
1025.9254991561124
 20
1086.1049464342243
 11
1053.0381975283203
 21
1058.9922480620164
  0
LINE
  8
_0-0_
  6
CONTINUOUS
 62
    6
 10
1023.9254991561121
 20
1043.4655573704551
 11
1031.4521898476742
 21
1050.9922480620173
  0
LINE
  8
_0-0_
  6
CONTINUOUS
 62
    6
 10
1023.9254991561121
 20
1029.3234217467236
 11
1045.5943254714052
 21
1050.9922480620173
  0
LINE
  8
_0-0_
  6
CONTINUOUS
 62
    6
 10
1024.7364610951345
 20
1015.9922480620155
 11
1059.7364610951345
 21
1050.9922480620155
  0
LINE
  8
_0-0_
  6
CONTINUOUS
 62
    6
 10
1038.8785967188674
 20
1015.9922480620173
 11
1073.8785967188674
 21
1050.9922480620173
  0
LINE
  8
_0-0_
  6
CONTINUOUS
 62
    6
 10
1053.020732342598
 20
1015.9922480620173
 11
1088.020732342598
 21
1050.9922480620173
  0
LINE
  8
_0-0_
  6
CONTINUOUS
 62
    6
 10
1067.1628679663277
 20
1015.9922480620164
 11
1102.1628679663272
 21
1050.9922480620155
  0
LINE
  8
_0-0_
  6
CONTINUOUS
 62
    6
 10
1081.3050035900601
 20
1015.9922480620173
 11
1116.3050035900601
 21
1050.9922480620173
  0
LINE
  8
_0-0_
  6
CONTINUOUS
 62
    6
 10
1095.4471392137907
 20
1015.9922480620173
 11
1130.4471392137907
 21
1050.9922480620173
  0
LINE
  8
_0-0_
  6
CONTINUOUS
 62
    6
 10
1109.5892748375204
 20
1015.9922480620155
 11
1144.5892748375204
 21
1050.9922480620164
  0
LINE
  8
_0-0_
  6
CONTINUOUS
 62
    6
 10
1123.7314104612524
 20
1015.9922480620164
 11
1158.7314104612528
 21
1050.9922480620173
  0
LINE
  8
_0-0_
  6
CONTINUOUS
 62
    6
 10
1137.8735460849834
 20
1015.9922480620173
 11
1172.8735460849839
 21
1050.9922480620173
  0
LINE
  8
_0-0_
  6
CONTINUOUS
 62
    6
 10
1152.0156817087131
 20
1015.9922480620164
 11
1187.0156817087131
 21
1050.9922480620155
  0
LINE
  8
_0-0_
  6
CONTINUOUS
 62
    6
 10
1166.1578173324451
 20
1015.9922480620173
 11
1201.1578173324451
 21
1050.9922480620164
  0
LINE
  8
_0-0_
  6
CONTINUOUS
 62
    6
 10
1180.2999529561766
 20
1015.9922480620173
 11
1215.2999529561766
 21
1050.9922480620173
  0
LINE
  8
_0-0_
  6
CONTINUOUS
 62
    6
 10
1194.4420885799059
 20
1015.9922480620164
 11
1229.4420885799059
 21
1050.9922480620164
  0
LINE
  8
_0-0_
  6
CONTINUOUS
 62
    6
 10
1208.5842242036379
 20
1015.9922480620164
 11
1243.5842242036379
 21
1050.9922480620164
  0
LINE
  8
_0-0_
  6
CONTINUOUS
 62
    6
 10
1222.7263598273689
 20
1015.9922480620173
 11
1257.7263598273689
 21
1050.9922480620173
  0
LINE
  8
_0-0_
  6
CONTINUOUS
 62
    6
 10
1236.8684954510986
 20
1015.9922480620155
 11
1271.8684954510986
 21
1050.9922480620155
  0
LINE
  8
_0-0_
  6
CONTINUOUS
 62
    6
 10
1251.0106310748306
 20
1015.9922480620164
 11
1286.0106310748306
 21
1050.9922480620164
  0
LINE
  8
_0-0_
  6
CONTINUOUS
 62
    6
 10
1265.1527666985612
 20
1015.9922480620173
 11
1300.1527666985617
 21
1050.9922480620173
  0
LINE
  8
_0-0_
  6
CONTINUOUS
 62
    6
 10
1279.2949023222918
 20
1015.9922480620164
 11
1314.2949023222918
 21
1050.9922480620155
  0
LINE
  8
_0-0_
  6
CONTINUOUS
 62
    6
 10
1293.4370379460242
 20
1015.9922480620173
 11
1328.4370379460242
 21
1050.9922480620173
  0
LINE
  8
_0-0_
  6
CONTINUOUS
 62
    6
 10
1307.5791735697539
 20
1015.9922480620164
 11
1342.5791735697539
 21
1050.9922480620173
  0
LINE
  8
_0-0_
  6
CONTINUOUS
 62
    6
 10
1321.7213091934864
 20
1015.9922480620173
 11
1356.7213091934864
 21
1050.9922480620173
  0
LINE
  8
_0-0_
  6
CONTINUOUS
 62
    6
 10
1335.863444817217
 20
1015.9922480620173
 11
1370.863444817217
 21
1050.9922480620173
  0
LINE
  8
_0-0_
  6
CONTINUOUS
 62
    6
 10
1350.0055804409467
 20
1015.9922480620173
 11
1385.0055804409467
 21
1050.9922480620173
  0
LINE
  8
_0-0_
  6
CONTINUOUS
 62
    6
 10
1364.1477160646791
 20
1015.9922480620173
 11
1399.1477160646791
 21
1050.9922480620173
  0
LINE
  8
_0-0_
  6
CONTINUOUS
 62
    6
 10
1378.2898516884097
 20
1015.9922480620173
 11
1413.2898516884097
 21
1050.9922480620173
  0
LINE
  8
_0-0_
  6
CONTINUOUS
 62
    6
 10
1392.4319873121403
 20
1015.9922480620173
 11
1427.4319873121394
 21
1050.9922480620173
  0
LINE
  8
_0-0_
  6
CONTINUOUS
 62
    6
 10
1406.5741229358719
 20
1015.9922480620173
 11
1441.5741229358719
 21
1050.9922480620173
  0
LINE
  8
_0-0_
  6
CONTINUOUS
 62
    6
 10
1420.7162585596034
 20
1015.9922480620173
 11
1455.7162585596025
 21
1050.9922480620173
  0
LINE
  8
_0-0_
  6
CONTINUOUS
 62
    6
 10
1434.8583941833322
 20
1015.9922480620155
 11
1469.8583941833322
 21
1050.9922480620155
  0
LINE
  8
_0-0_
  6
CONTINUOUS
 62
    6
 10
1449.0005298070646
 20
1015.9922480620173
 11
1484.000529807065
 21
1050.9922480620173
  0
LINE
  8
_0-0_
  6
CONTINUOUS
 62
    6
 10
1463.1426654307961
 20
1015.9922480620173
 11
1498.1426654307961
 21
1050.9922480620173
  0
LINE
  8
_0-0_
  6
CONTINUOUS
 62
    6
 10
1477.2848010545254
 20
1015.9922480620155
 11
1512.2848010545254
 21
1050.9922480620155
  0
LINE
  8
_0-0_
  6
CONTINUOUS
 62
    6
 10
1491.4269366782578
 20
1015.9922480620173
 11
1523.9254991561124
 21
1048.490810539872
  0
LINE
  8
_0-0_
  6
CONTINUOUS
 62
    6
 10
1505.5690723019889
 20
1015.9922480620173
 11
1523.9254991561124
 21
1034.3486749161405
  0
LINE
  8
_0-0_
  6
CONTINUOUS
 62
    6
 10
1519.7112079257181
 20
1015.9922480620155
 11
1523.9254991561133
 21
1020.2065392924108
  0
LINE
  8
_0-0_
  6
CONTINUOUS
 62
    6
 10
1512.8393354891109
 20
1050.9922480620173
 11
1523.9254991561129
 21
1039.9060843950149
  0
LINE
  8
_0-0_
  6
CONTINUOUS
 62
    6
 10
1498.6971998653803
 20
1050.9922480620164
 11
1523.925499156112
 21
1025.7639487712843
  0
LINE
  8
_0-0_
  6
CONTINUOUS
 62
    6
 10
1484.5550642416492
 20
1050.9922480620173
 11
1519.5550642416492
 21
1015.9922480620173
  0
LINE
  8
_0-0_
  6
CONTINUOUS
 62
    6
 10
1470.4129286179177
 20
1050.9922480620173
 11
1505.4129286179182
 21
1015.9922480620173
  0
LINE
  8
_0-0_
  6
CONTINUOUS
 62
    6
 10
1456.2707929941871
 20
1050.9922480620164
 11
1491.2707929941876
 21
1015.9922480620164
  0
LINE
  8
_0-0_
  6
CONTINUOUS
 62
    6
 10
1442.1286573704556
 20
1050.9922480620173
 11
1477.1286573704551
 21
1015.9922480620173
  0
LINE
  8
_0-0_
  6
CONTINUOUS
 62
    6
 10
1427.986521746725
 20
1050.9922480620173
 11
1462.986521746725
 21
1015.9922480620173
  0
LINE
  8
_0-0_
  6
CONTINUOUS
 62
    6
 10
1413.8443861229944
 20
1050.9922480620155
 11
1448.8443861229944
 21
1015.9922480620164
  0
LINE
  8
_0-0_
  6
CONTINUOUS
 62
    6
 10
1399.7022504992628
 20
1050.9922480620173
 11
1434.7022504992619
 21
1015.9922480620173
  0
LINE
  8
_0-0_
  6
CONTINUOUS
 62
    6
 10
1385.5601148755322
 20
1050.9922480620173
 11
1420.5601148755322
 21
1015.9922480620173
  0
LINE
  8
_0-0_
  6
CONTINUOUS
 62
    6
 10
1371.4179792518016
 20
1050.9922480620164
 11
1406.4179792518016
 21
1015.9922480620164
  0
LINE
  8
_0-0_
  6
CONTINUOUS
 62
    6
 10
1357.2758436280701
 20
1050.9922480620173
 11
1392.2758436280692
 21
1015.9922480620173
  0
LINE
  8
_0-0_
  6
CONTINUOUS
 62
    6
 10
1343.1337080043395
 20
1050.9922480620164
 11
1378.1337080043395
 21
1015.9922480620173
  0
LINE
  8
_0-0_
  6
CONTINUOUS
 62
    6
 10
1328.9915723806089
 20
1050.9922480620164
 11
1363.9915723806089
 21
1015.9922480620164
  0
LINE
  8
_0-0_
  6
CONTINUOUS
 62
    6
 10
1314.8494367568774
 20
1050.9922480620173
 11
1349.8494367568774
 21
1015.9922480620173
  0
LINE
  8
_0-0_
  6
CONTINUOUS
 62
    6
 10
1300.7073011331463
 20
1050.9922480620173
 11
1335.7073011331468
 21
1015.9922480620173
  0
LINE
  8
_0-0_
  6
CONTINUOUS
 62
    6
 10
1286.5651655094157
 20
1050.9922480620164
 11
1321.5651655094161
 21
1015.9922480620164
  0
LINE
  8
_0-0_
  6
CONTINUOUS
 62
    6
 10
1272.4230298856837
 20
1050.9922480620173
 11
1307.4230298856842
 21
1015.9922480620173
  0
LINE
  8
_0-0_
  6
CONTINUOUS
 62
    6
 10
1258.2808942619531
 20
1050.9922480620173
 11
1293.2808942619536
 21
1015.9922480620173
  0
LINE
  8
_0-0_
  6
CONTINUOUS
 62
    6
 10
1244.1387586382234
 20
1050.9922480620164
 11
1279.138758638223
 21
1015.9922480620164
  0
LINE
  8
_0-0_
  6
CONTINUOUS
 62
    6
 10
1229.996623014491
 20
1050.9922480620173
 11
1264.996623014491
 21
1015.9922480620173
  0
LINE
  8
_0-0_
  6
CONTINUOUS
 62
    6
 10
1215.8544873907608
 20
1050.9922480620164
 11
1250.8544873907613
 21
1015.9922480620164
  0
LINE
  8
_0-0_
  6
CONTINUOUS
 62
    6
 10
1201.7123517670307
 20
1050.9922480620155
 11
1236.7123517670302
 21
1015.9922480620164
  0
LINE
  8
_0-0_
  6
CONTINUOUS
 62
    6
 10
1187.5702161432982
 20
1050.9922480620173
 11
1222.5702161432982
 21
1015.9922480620173
  0
LINE
  8
_0-0_
  6
CONTINUOUS
 62
    6
 10
1173.4280805195685
 20
1050.9922480620164
 11
1208.4280805195685
 21
1015.9922480620164
  0
LINE
  8
_0-0_
  6
CONTINUOUS
 62
    6
 10
1159.2859448958379
 20
1050.9922480620155
 11
1194.2859448958375
 21
1015.9922480620173
  0
LINE
  8
_0-0_
  6
CONTINUOUS
 62
    6
 10
1145.1438092721055
 20
1050.9922480620173
 11
1180.1438092721055
 21
1015.9922480620173
  0
LINE
  8
_0-0_
  6
CONTINUOUS
 62
    6
 10
1131.0016736483758
 20
1050.9922480620155
 11
1166.0016736483753
 21
1015.9922480620155
  0
LINE
  8
_0-0_
  6
CONTINUOUS
 62
    6
 10
1116.8595380246452
 20
1050.9922480620155
 11
1151.8595380246452
 21
1015.9922480620155
  0
LINE
  8
_0-0_
  6
CONTINUOUS
 62
    6
 10
1102.7174024009128
 20
1050.9922480620173
 11
1137.7174024009128
 21
1015.9922480620173
  0
LINE
  8
_0-0_
  6
CONTINUOUS
 62
    6
 10
1088.5752667771831
 20
1050.9922480620155
 11
1123.5752667771826
 21
1015.9922480620155
  0
LINE
  8
_0-0_
  6
CONTINUOUS
 62
    6
 10
1074.4331311534525
 20
1050.9922480620155
 11
1109.433131153452
 21
1015.9922480620173
  0
LINE
  8
_0-0_
  6
CONTINUOUS
 62
    6
 10
1060.29099552972
 20
1050.9922480620173
 11
1095.29099552972
 21
1015.9922480620173
  0
LINE
  8
_0-0_
  6
CONTINUOUS
 62
    6
 10
1046.1488599059903
 20
1050.9922480620155
 11
1081.1488599059903
 21
1015.9922480620155
  0
LINE
  8
_0-0_
  6
CONTINUOUS
 62
    6
 10
1032.0067242822597
 20
1050.9922480620155
 11
1067.0067242822597
 21
1015.9922480620155
  0
LINE
  8
_0-0_
  6
CONTINUOUS
 62
    6
 10
1023.925499156113
 20
1044.9313375644308
 11
1052.8645886585273
 21
1015.9922480620173
  0
LINE
  8
_0-0_
  6
CONTINUOUS
 62
    6
 10
1023.9254991561121
 20
1030.7892019407011
 11
1038.7224530347967
 21
1015.9922480620155
  0
LINE
  8
_0-0_
  6
CONTINUOUS
 62
    6
 10
1023.9254991561126
 20
1016.6470663169687
 11
1024.5803174110647
 21
1015.9922480620164
  0
LINE
  8
_0-0_
  6
CONTINUOUS
 62
    6
 10
1023.9254991561126
 20
1050.9922480620164
 11
1023.9254991561126
 21
1015.9922480620164
  0
LINE
  8
_0-0_
  6
CONTINUOUS
 62
    6
 10
1523.9254991561129
 20
1050.9922480620164
 11
1023.9254991561126
 21
1050.9922480620164
  0
LINE
  8
_0-0_
  6
CONTINUOUS
 62
    1
 10
1365.1989496475871
 20
1056.9922480620164
 11
1395.1989496475871
 21
1056.9922480620164
  0
LINE
  8
_0-0_
  6
CONTINUOUS
 62
    1
 10
1395.1989496475871
 20
1057.2422480620164
 11
1365.1989496475871
 21
1057.2422480620164
  0
LINE
  8
_0-0_
  6
CENTER2
 62
    1
 10
1380.1989496475871
 20
1063.4071673132678
 11
1380.1989496475871
 21
981.06725478518479
  0
LINE
  8
_0-0_
  6
CONTINUOUS
 62
    1
 10
999.92549915611255
 20
1100.6907328718519
 11
1000.6112314623093
 21
1101.3764651780486
  0
LINE
  8
_0-0_
  6
CONTINUOUS
 62
    1
 10
999.92549915611255
 20
1100.6907328718519
 11
1000.6112314623093
 21
1100.0050005656542
  0
LINE
  8
_0-0_
  6
DASHED1
 62
    1
 10
1000.6112314623093
 20
1101.3764651780486
 11
1001.1754991561126
 21
1101.9407328718519
  0
LINE
  8
_0-0_
  6
DASHED1
 62
    1
 10
1000.6112314623093
 20
1100.0050005656542
 11
1001.1754991561126
 21
1099.4407328718519
  0
LINE
  8
_0-0_
  6
CONTINUOUS
 62
    1
 10
1000.08081120604
 20
1097.7272024179367
 11
999.96321668486382
 21
1099.9710395502264
  0
LINE
  8
_0-0_
  6
CONTINUOUS
 62
    1
 10
999.96321668486382
 20
1101.4104261934774
 11
1000.08081120604
 21
1103.6542633257661
  0
LINE
  8
_0-0_
  6
CONTINUOUS
 62
    4
 10
1077.1814251653473
 20
1067.9922480620164
 11
1084.7097704035746
 21
1067.9922480620164
  0
LINE
  8
_0-0_
  6
CONTINUOUS
 62
    7
 10
1121.0381975283203
 20
1057.9922480620164
 11
1121.0381975283203
 21
1056.9922480620164
  0
LINE
  8
_0-0_
  6
CONTINUOUS
 62
    7
 10
1053.0381975283203
 20
1058.9922480620164
 11
1053.0381975283203
 21
1059.9922480620164
  0
LINE
  8
_0-0_
  6
CONTINUOUS
 62
    7
 10
1024.9254991561124
 20
1116.2765193094785
 11
1026.9254991561124
 21
1116.2765193094785
  0
LINE
  8
_0-0_
  6
CONTINUOUS
 62
    7
 10
1025.9254991561124
 20
1086.1049464342243
 11
1026.9254991561124
 21
1086.1049464342243
  0
LINE
  8
_0-0_
  6
CONTINUOUS
 62
    1
 10
1008.9254991561126
 20
1098.1907328718519
 11
1000.08081120604
 21
1097.7272024179367
  0
LINE
  8
_0-0_
  6
CONTINUOUS
 62
    1
 10
1025.9254991561124
 20
1098.1907328718519
 11
1025.9254991561124
 21
1093.1907328718519
  0
LINE
  8
_0-0_
  6
CONTINUOUS
 62
    1
 10
1025.9254991561124
 20
1103.1907328718519
 11
1025.9254991561124
 21
1108.1907328718519
  0
LINE
  8
_0-0_
  6
CONTINUOUS
 62
    1
 10
1027.9254991561124
 20
1102.5155616309405
 11
1027.9254991561124
 21
1098.8659041127614
  0
LINE
  8
_0-0_
  6
CONTINUOUS
 62
    1
 10
1027.9254991561124
 20
1102.5155616309414
 11
1027.9254991561124
 21
1102.5155616309414
  0
LINE
  8
_0-0_
  6
CONTINUOUS
 62
    1
 10
1027.9254991561124
 20
1102.5155616309414
 11
1027.0474331139255
 21
1105.8913426639947
  0
LINE
  8
_0-0_
  6
CONTINUOUS
 62
    1
 10
1027.0474331139255
 20
1105.8913426639947
 11
1025.9254991561124
 21
1108.1907328718519
  0
LINE
  8
_0-0_
  6
CONTINUOUS
 62
    1
 10
1025.9254991561124
 20
1093.1907328718519
 11
1025.9254991561124
 21
1093.1907328718519
  0
LINE
  8
_0-0_
  6
CONTINUOUS
 62
    1
 10
1025.9254991561124
 20
1093.1907328718519
 11
1027.3910169237186
 21
1096.4650715577984
  0
LINE
  8
_0-0_
  6
CONTINUOUS
 62
    1
 10
1027.3910169237186
 20
1096.4650715577984
 11
1027.9254991561124
 21
1098.8659041127623
  0
LINE
  8
_0-0_
  6
CONTINUOUS
 62
    1
 10
1028.0938277756886
 20
1099.2120204409775
 11
1028.0938277756886
 21
1099.2120204409775
  0
LINE
  8
_0-0_
  6
CONTINUOUS
 62
    1
 10
1028.0938277756886
 20
1099.2120204409775
 11
1027.9254991561124
 21
1099.4407328718519
  0
LINE
  8
_0-0_
  6
CONTINUOUS
 62
    1
 10
1027.9254991561124
 20
1101.9407328718519
 11
1027.9254991561124
 21
1101.9407328718519
  0
LINE
  8
_0-0_
  6
CONTINUOUS
 62
    1
 10
1027.9254991561124
 20
1101.9407328718519
 11
1028.0938277756886
 21
1102.1694453027262
  0
LINE
  8
_0-0_
  6
CONTINUOUS
 62
    1
 10
1028.0938277756886
 20
1099.2120204409775
 11
1028.0938277756886
 21
1099.2120204409775
  0
LINE
  8
_0-0_
  6
CONTINUOUS
 62
    1
 10
1028.0938277756886
 20
1099.2120204409775
 11
1028.1233674505893
 21
1099.4683250697599
  0
LINE
  8
_0-0_
  6
CONTINUOUS
 62
    1
 10
1028.1233674505893
 20
1099.4683250697599
 11
1028.1468949974883
 21
1099.7617719410407
  0
LINE
  8
_0-0_
  6
CONTINUOUS
 62
    1
 10
1028.1468949974883
 20
1099.7617719410407
 11
1028.1636955437789
 21
1100.0834448201274
  0
LINE
  8
_0-0_
  6
CONTINUOUS
 62
    1
 10
1028.1636955437789
 20
1100.0834448201274
 11
1028.1732586133635
 21
1100.4235698393629
  0
LINE
  8
_0-0_
  6
CONTINUOUS
 62
    1
 10
1028.1732586133635
 20
1100.4235698393629
 11
1028.1752936372118
 21
1100.7718124721498
  0
LINE
  8
_0-0_
  6
CONTINUOUS
 62
    1
 10
1028.1752936372118
 20
1100.7718124721498
 11
1028.1697387821541
 21
1101.1175915423098
  0
LINE
  8
_0-0_
  6
CONTINUOUS
 62
    1
 10
1028.1697387821541
 20
1101.1175915423098
 11
1028.1567628296502
 21
1101.450400727769
  0
LINE
  8
_0-0_
  6
CONTINUOUS
 62
    1
 10
1028.1567628296502
 20
1101.450400727769
 11
1028.1367600474512
 21
1101.7601277898364
  0
LINE
  8
_0-0_
  6
CONTINUOUS
 62
    1
 10
1028.1367600474512
 20
1101.7601277898364
 11
1028.1103382099718
 21
1102.0373618284609
  0
LINE
  8
_0-0_
  6
CONTINUOUS
 62
    1
 10
1028.1103382099718
 20
1102.0373618284609
 11
1028.0938277756886
 21
1102.1694453027262
  0
LINE
  8
_0-0_
  6
DASHED1
 62
    1
 10
1027.9254991561124
 20
1101.9407328718519
 11
1001.1754991561126
 21
1101.9407328718519
  0
LINE
  8
_0-0_
  6
DASHED1
 62
    1
 10
1027.9254991561124
 20
1099.4407328718519
 11
1001.1754991561126
 21
1099.4407328718519
  0
LINE
  8
_0-0_
  6
CONTINUOUS
 62
    1
 10
1008.9254991561126
 20
1103.1907328718519
 11
1025.9254991561124
 21
1103.1907328718519
  0
LINE
  8
_0-0_
  6
CONTINUOUS
 62
    1
 10
1008.9254991561126
 20
1103.1907328718519
 11
1000.08081120604
 21
1103.6542633257661
  0
LINE
  8
_0-0_
  6
CONTINUOUS
 62
    1
 10
1008.9254991561126
 20
1100.9407328718519
 11
999.96321668486382
 21
1101.4104261934774
  0
LINE
  8
_0-0_
  6
CONTINUOUS
 62
    1
 10
1008.9254991561126
 20
1098.1907328718519
 11
1025.9254991561124
 21
1098.1907328718519
  0
LINE
  8
_0-0_
  6
CONTINUOUS
 62
    1
 10
1008.9254991561126
 20
1100.4407328718519
 11
999.96321668486382
 21
1099.9710395502264
  0
LINE
  8
_0-0_
  6
CONTINUOUS
 62
    1
 10
1008.9254991561126
 20
1100.4407328718519
 11
1008.9254991561126
 21
1100.9407328718519
  0
LINE
  8
_0-0_
  6
CONTINUOUS
 62
    7
 10
1026.9254991561124
 20
1086.1049464342243
 11
1026.9254991561124
 21
1092.9410143982025
  0
LINE
  8
_0-0_
  6
CONTINUOUS
 62
    7
 10
1026.9254991561124
 20
1108.4404513454995
 11
1026.9254991561124
 21
1116.2765193094785
  0
LINE
  8
_0-0_
  6
CONTINUOUS
 62
    7
 10
1026.9254991561127
 20
1092.9410143982034
 11
1026.9254991561127
 21
1092.9410143982034
  0
LINE
  8
_0-0_
  6
CONTINUOUS
 62
    7
 10
1026.9254991561127
 20
1092.9410143982034
 11
1028.4098897342467
 21
1096.3890006415602
  0
LINE
  8
_0-0_
  6
CONTINUOUS
 62
    7
 10
1028.4098897342467
 20
1096.3890006415602
 11
1029.0287965184614
 21
1099.9676928419528
  0
LINE
  8
_0-0_
  6
CONTINUOUS
 62
    7
 10
1029.0287965184614
 20
1099.9676928419528
 11
1028.7634143393
 21
1103.5683542477782
  0
LINE
  8
_0-0_
  6
CONTINUOUS
 62
    7
 10
1028.7634143393
 20
1103.5683542477782
 11
1027.6218066999868
 21
1107.0815805842426
  0
LINE
  8
_0-0_
  6
CONTINUOUS
 62
    7
 10
1027.6218066999868
 20
1107.0815805842426
 11
1026.9254991561127
 21
1108.4404513455004
  0
LINE
  8
_0-0_
  6
CENTER2
 62
    1
 10
1033.4157269211205
 20
1100.6907328718519
 11
995.63867470867683
 21
1100.6907328718519
  0
LINE
  8
_0-0_
  6
CONTINUOUS
 62
    4
 10
1031.9254991561124
 20
1088.5902278084634
 11
1031.9254991561124
 21
1091.7761173263646
  0
LINE
  8
_0-0_
  6
CONTINUOUS
 62
    4
 10
1031.9254991561127
 20
1091.7761173263657
 11
1031.9254991561127
 21
1091.7761173263657
  0
LINE
  8
_0-0_
  6
CONTINUOUS
 62
    4
 10
1031.9254991561127
 20
1091.7761173263657
 11
1033.4958068683081
 21
1096.0944059596798
  0
LINE
  8
_0-0_
  6
CONTINUOUS
 62
    4
 10
1033.4958068683081
 20
1096.0944059596798
 11
1034.0460977680639
 21
1100.5523516603666
  0
LINE
  8
_0-0_
  6
CONTINUOUS
 62
    4
 10
1034.0460977680639
 20
1100.5523516603666
 11
1033.5596515448515
 21
1105.0145020041405
  0
LINE
  8
_0-0_
  6
CONTINUOUS
 62
    4
 10
1033.5596515448515
 20
1105.0145020041405
 11
1032.0512486210096
 21
1109.3452768107622
  0
LINE
  8
_0-0_
  6
CONTINUOUS
 62
    4
 10
1032.0512486210096
 20
1109.3452768107622
 11
1031.9254991561127
 21
1109.6053484173381
  0
LINE
  8
_0-0_
  6
CONTINUOUS
 62
    4
 10
1031.9254991561124
 20
1109.6053484173374
 11
1031.9254991561124
 21
1117.7765193094785
  0
LINE
  8
_0-0_
  6
CONTINUOUS
 62
    4
 10
1031.9254991561124
 20
1117.7765193094785
 11
1029.9254991561124
 21
1119.7765193094785
  0
LINE
  8
_0-0_
  6
CONTINUOUS
 62
    7
 10
1083.2097704035746
 20
1057.9922480620164
 11
1083.2097704035746
 21
1059.9922480620164
  0
LINE
  8
_0-0_
  6
CONTINUOUS
 62
    7
 10
1053.0381975283203
 20
1059.9922480620164
 11
1059.8742654922985
 21
1059.9922480620164
  0
LINE
  8
_0-0_
  6
CONTINUOUS
 62
    7
 10
1075.3737024395964
 20
1059.9922480620164
 11
1083.2097704035746
 21
1059.9922480620164
  0
LINE
  8
_0-0_
  6
CONTINUOUS
 62
    7
 10
1075.3737024395955
 20
1059.9922480620164
 11
1075.3737024395955
 21
1059.9922480620164
  0
LINE
  8
_0-0_
  6
CONTINUOUS
 62
    7
 10
1075.3737024395955
 20
1059.9922480620164
 11
1071.9257161962387
 21
1061.4766386401504
  0
LINE
  8
_0-0_
  6
CONTINUOUS
 62
    7
 10
1071.9257161962387
 20
1061.4766386401504
 11
1068.347023995846
 21
1062.0955454243651
  0
LINE
  8
_0-0_
  6
CONTINUOUS
 62
    7
 10
1068.347023995846
 20
1062.0955454243651
 11
1064.7463625900207
 21
1061.8301632452039
  0
LINE
  8
_0-0_
  6
CONTINUOUS
 62
    7
 10
1064.7463625900207
 20
1061.8301632452039
 11
1061.2331362535563
 21
1060.6885556058905
  0
LINE
  8
_0-0_
  6
CONTINUOUS
 62
    7
 10
1061.2331362535563
 20
1060.6885556058905
 11
1059.8742654922985
 21
1059.9922480620164
  0
LINE
  8
_0-0_
  6
CONTINUOUS
 62
    4
 10
1031.9254991561124
 20
1088.5902278084634
 11
1052.5234789025594
 21
1067.9922480620164
  0
LINE
  8
_0-0_
  6
CONTINUOUS
 62
    4
 10
1052.5234789025594
 20
1067.9922480620164
 11
1058.0665427665476
 21
1067.9922480620164
  0
LINE
  8
_0-0_
  6
CONTINUOUS
 62
    4
 10
1077.181425165347
 20
1067.9922480620164
 11
1077.181425165347
 21
1067.9922480620164
  0
LINE
  8
_0-0_
  6
CONTINUOUS
 62
    4
 10
1077.181425165347
 20
1067.9922480620164
 11
1072.3397857500183
 21
1069.6082575257456
  0
LINE
  8
_0-0_
  6
CONTINUOUS
 62
    4
 10
1072.3397857500183
 20
1069.6082575257456
 11
1067.3548590837916
 21
1070.1117080705139
  0
LINE
  8
_0-0_
  6
CONTINUOUS
 62
    4
 10
1067.3548590837916
 20
1070.1117080705139
 11
1062.3781096409255
 21
1069.4873026062774
  0
LINE
  8
_0-0_
  6
CONTINUOUS
 62
    4
 10
1062.3781096409255
 20
1069.4873026062774
 11
1058.0665427665469
 21
1067.9922480620164
  0
LINE
  8
_0-0_
  6
CONTINUOUS
 62
    4
 10
1084.7097704035746
 20
1067.9922480620164
 11
1086.7097704035746
 21
1065.9922480620164
  0
LINE
  8
_0-0_
  6
CONTINUOUS
 62
    4
 10
1086.7097704035746
 20
1065.9922480620164
 11
1523.9254991561124
 21
1065.9922480620164
  0
LINE
  8
_0-0_
  6
CONTINUOUS
 62
  136
 10
1023.9254991561126
 20
1085.2765193094785
 11
1052.2097704035746
 21
1056.9922480620164
  0
LINE
  8
_0-0_
  6
CONTINUOUS
 62
  136
 10
1052.2097704035746
 20
1056.9922480620164
 11
1082.2097704035746
 21
1056.9922480620164
  0
LINE
  8
_0-0_
  6
CONTINUOUS
 62
  136
 10
1082.2097704035746
 20
1056.9922480620164
 11
1082.2097704035746
 21
1058.9922480620164
  0
LINE
  8
_0-0_
  6
CONTINUOUS
 62
  136
 10
1023.9254991561126
 20
1115.2765193094785
 11
1023.9254991561126
 21
1085.2765193094785
  0
LINE
  8
_0-0_
  6
CONTINUOUS
 62
  136
 10
1023.9254991561126
 20
1115.2765193094785
 11
1025.9254991561124
 21
1115.2765193094785
  0
LINE
  8
_0-0_
  6
CONTINUOUS
 62
  136
 10
1025.9254991561124
 20
1115.2765193094785
 11
1025.9254991561124
 21
1086.1049464342243
  0
LINE
  8
_0-0_
  6
CONTINUOUS
 62
    1
 10
1381.3019641169649
 20
988.99224806201642
 11
1384.2905482112405
 21
989.25371529025892
  0
LINE
  8
_0-0_
  6
CONTINUOUS
 62
    1
 10
1381.170731121676
 20
990.49224806201642
 11
1384.1593152159517
 21
990.75371529025892
  0
LINE
  8
_0-0_
  6
CONTINUOUS
 62
    1
 10
1381.0394981263871
 20
991.99224806201642
 11
1384.0280822206628
 21
992.25371529025892
  0
LINE
  8
_0-0_
  6
CONTINUOUS
 62
    1
 10
1380.9082651310982
 20
993.49224806201642
 11
1383.8968492253739
 21
993.75371529025892
  0
LINE
  8
_0-0_
  6
CONTINUOUS
 62
    1
 10
1380.7770321358093
 20
994.99224806201642
 11
1383.765616230085
 21
995.25371529025892
  0
LINE
  8
_0-0_
  6
CONTINUOUS
 62
    1
 10
1380.6457991405205
 20
996.49224806201642
 11
1383.6343832347957
 21
996.75371529025892
  0
LINE
  8
_0-0_
  6
CONTINUOUS
 62
    1
 10
1380.5145661452316
 20
997.99224806201642
 11
1383.5031502395068
 21
998.25371529025892
  0
LINE
  8
_0-0_
  6
CONTINUOUS
 62
    1
 10
1380.3833331499427
 20
999.49224806201642
 11
1383.3719172442179
 21
999.75371529025892
  0
LINE
  8
_0-0_
  6
CONTINUOUS
 62
    1
 10
1380.4489496475871
 20
998.74224806201642
 11
1381.4076628178118
 21
987.78410638300761
  0
LINE
  8
_0-0_
  6
CONTINUOUS
 62
    1
 10
1380.3833331499427
 20
999.49224806201642
 11
1380.0145661452316
 21
999.49224806201642
  0
LINE
  8
_0-0_
  6
CONTINUOUS
 62
    1
 10
1380.4489496475871
 20
998.74224806201642
 11
1379.9489496475871
 21
998.74224806201642
  0
LINE
  8
_0-0_
  6
CONTINUOUS
 62
    1
 10
1379.0959351782094
 20
988.99224806201642
 11
1376.1073510839342
 21
989.25371529025892
  0
LINE
  8
_0-0_
  6
CONTINUOUS
 62
    1
 10
1379.2271681734983
 20
990.49224806201642
 11
1376.2385840792231
 21
990.75371529025892
  0
LINE
  8
_0-0_
  6
CONTINUOUS
 62
    1
 10
1379.3584011687872
 20
991.99224806201642
 11
1376.369817074512
 21
992.25371529025892
  0
LINE
  8
_0-0_
  6
CONTINUOUS
 62
    1
 10
1379.4896341640761
 20
993.49224806201642
 11
1376.5010500698008
 21
993.75371529025892
  0
LINE
  8
_0-0_
  6
CONTINUOUS
 62
    1
 10
1379.6208671593649
 20
994.99224806201642
 11
1376.6322830650897
 21
995.25371529025892
  0
LINE
  8
_0-0_
  6
CONTINUOUS
 62
    1
 10
1379.7521001546538
 20
996.49224806201642
 11
1376.7635160603786
 21
996.75371529025892
  0
LINE
  8
_0-0_
  6
CONTINUOUS
 62
    1
 10
1379.8833331499427
 20
997.99224806201642
 11
1376.8947490556675
 21
998.25371529025892
  0
LINE
  8
_0-0_
  6
CONTINUOUS
 62
    1
 10
1380.0145661452316
 20
999.49224806201642
 11
1377.0259820509564
 21
999.75371529025892
  0
LINE
  8
_0-0_
  6
CONTINUOUS
 62
    1
 10
1379.9489496475871
 20
998.74224806201642
 11
1378.9902364773634
 21
987.78410638300761
  0
LINE
  8
_0-0_
  6
CONTINUOUS
 62
    1
 10
1377.1989496475871
 20
1025.5976080185412
 11
1377.1989496475871
 21
1001.7307439664321
  0
LINE
  8
_0-0_
  6
CONTINUOUS
 62
    1
 10
1377.1989496475871
 20
1001.7307439664321
 11
1376.0016523830882
 21
988.04557361125012
  0
LINE
  8
_0-0_
  6
CONTINUOUS
 62
    1
 10
1383.1989496475871
 20
1001.7307439664321
 11
1384.396246912087
 21
988.04557361125012
  0
LINE
  8
_0-0_
  6
CONTINUOUS
 62
    1
 10
1378.9902364773634
 20
987.78410638300761
 11
1376.0016523830882
 21
988.04557361125012
  0
LINE
  8
_0-0_
  6
CONTINUOUS
 62
    1
 10
1381.4076628178118
 20
987.78410638300761
 11
1384.396246912087
 21
988.04557361125012
  0
LINE
  8
_0-0_
  6
CONTINUOUS
 62
    1
 10
1380.1989496475871
 20
987.49224806201642
 11
1378.6989496475871
 21
990.09032427336956
  0
LINE
  8
_0-0_
  6
CONTINUOUS
 62
    1
 10
1380.1989496475871
 20
987.49224806201642
 11
1381.6989496475871
 21
990.09032427336956
  0
LINE
  8
_0-0_
  6
CONTINUOUS
 62
    1
 10
1377.1989496475871
 20
1025.5976080185412
 11
1377.1989496475871
 21
1055.5976080185412
  0
LINE
  8
_0-0_
  6
CONTINUOUS
 62
    1
 10
1365.1989496475871
 20
1057.2422480620164
 11
1365.1989496475871
 21
1056.9922480620164
  0
LINE
  8
_0-0_
  6
CONTINUOUS
 62
    1
 10
1394.1989496475871
 20
1056.9922480620164
 11
1393.9489496475871
 21
1056.7422480620164
  0
LINE
  8
_0-0_
  6
CONTINUOUS
 62
    1
 10
1393.9489496475871
 20
1056.7422480620164
 11
1366.4489496475871
 21
1056.7422480620164
  0
LINE
  8
_0-0_
  6
CONTINUOUS
 62
    1
 10
1366.1989496475871
 20
1056.9922480620164
 11
1366.4489496475871
 21
1056.7422480620164
  0
LINE
  8
_0-0_
  6
CONTINUOUS
 62
    1
 10
1395.1989496475871
 20
1057.2422480620164
 11
1395.1989496475871
 21
1056.9922480620164
  0
LINE
  8
_0-0_
  6
CONTINUOUS
 62
    1
 10
1383.1989496475871
 20
1055.5976080185412
 11
1377.1989496475871
 21
1055.5976080185412
  0
LINE
  8
_0-0_
  6
CONTINUOUS
 62
    1
 10
1374.1989496475871
 20
1057.2422480620164
 11
1374.4489496475871
 21
1057.4922480620164
  0
LINE
  8
_0-0_
  6
CONTINUOUS
 62
    1
 10
1374.4489496475871
 20
1057.4922480620164
 11
1385.9489496475871
 21
1057.4922480620164
  0
LINE
  8
_0-0_
  6
CONTINUOUS
 62
    1
 10
1386.1989496475871
 20
1057.2422480620164
 11
1385.9489496475871
 21
1057.4922480620164
  0
LINE
  8
_0-0_
  6
CONTINUOUS
 62
    1
 10
1377.1989496475871
 20
1055.5976080185412
 11
1376.0543096041119
 21
1056.7422480620164
  0
LINE
  8
_0-0_
  6
CONTINUOUS
 62
    1
 10
1383.1989496475871
 20
1055.5976080185412
 11
1384.3435896910632
 21
1056.7422480620164
  0
LINE
  8
_0-0_
  6
CONTINUOUS
 62
    1
 10
1378.6989496475871
 20
1057.4922480620169
 11
1378.6989496475871
 21
1057.4922480620169
  0
LINE
  8
_0-0_
  6
CONTINUOUS
 62
    1
 10
1378.6989496475871
 20
1057.4922480620169
 11
1378.190052319633
 21
1057.8227917871973
  0
LINE
  8
_0-0_
  6
CONTINUOUS
 62
    1
 10
1382.2078469755413
 20
1057.8227917871973
 11
1382.2078469755413
 21
1057.8227917871973
  0
LINE
  8
_0-0_
  6
CONTINUOUS
 62
    1
 10
1382.2078469755413
 20
1057.8227917871973
 11
1381.6989496475871
 21
1057.4922480620169
  0
LINE
  8
_0-0_
  6
CONTINUOUS
 62
    1
 10
1382.2078469755411
 20
1057.8227917871973
 11
1382.2078469755411
 21
1057.8227917871973
  0
LINE
  8
_0-0_
  6
CONTINUOUS
 62
    1
 10
1382.2078469755411
 20
1057.8227917871973
 11
1382.0013649313589
 21
1057.8968910420149
  0
LINE
  8
_0-0_
  6
CONTINUOUS
 62
    1
 10
1382.0013649313589
 20
1057.8968910420149
 11
1381.7401174108454
 21
1057.9618967336089
  0
LINE
  8
_0-0_
  6
CONTINUOUS
 62
    1
 10
1381.7401174108454
 20
1057.9618967336089
 11
1381.432042287714
 21
1058.0158336969344
  0
LINE
  8
_0-0_
  6
CONTINUOUS
 62
    1
 10
1381.432042287714
 20
1058.0158336969344
 11
1381.0865002686871
 21
1058.0570630846544
  0
LINE
  8
_0-0_
  6
CONTINUOUS
 62
    1
 10
1381.0865002686871
 20
1058.0570630846544
 11
1380.7139904731605
 21
1058.084332162686
  0
LINE
  8
_0-0_
  6
CONTINUOUS
 62
    1
 10
1380.7139904731605
 20
1058.084332162686
 11
1380.3258314227719
 21
1058.0968123738921
  0
LINE
  8
_0-0_
  6
CONTINUOUS
 62
    1
 10
1380.3258314227719
 20
1058.0968123738921
 11
1379.9338171338497
 21
1058.0941245133704
  0
LINE
  8
_0-0_
  6
CONTINUOUS
 62
    1
 10
1379.9338171338497
 20
1058.0941245133704
 11
1379.5498587621939
 21
1058.0763502504028
  0
LINE
  8
_0-0_
  6
CONTINUOUS
 62
    1
 10
1379.5498587621939
 20
1058.0763502504028
 11
1379.185622688635
 21
1058.0440296469756
  0
LINE
  8
_0-0_
  6
CONTINUOUS
 62
    1
 10
1379.185622688635
 20
1058.0440296469756
 11
1378.8521760419555
 21
1057.9981447482683
  0
LINE
  8
_0-0_
  6
CONTINUOUS
 62
    1
 10
1378.8521760419555
 20
1057.9981447482683
 11
1378.559650429783
 21
1057.9400897437097
  0
LINE
  8
_0-0_
  6
CONTINUOUS
 62
    1
 10
1378.559650429783
 20
1057.9400897437097
 11
1378.316934094818
 21
1057.8716286052361
  0
LINE
  8
_0-0_
  6
CONTINUOUS
 62
    1
 10
1378.316934094818
 20
1057.8716286052361
 11
1378.1900523196332
 21
1057.8227917871973
  0
LINE
  8
_0-0_
  6
CONTINUOUS
 62
    1
 10
1383.1989496475871
 20
1055.5976080185412
 11
1383.1989496475871
 21
1001.7307439664321
  0
LINE
  8
_0-0_
  6
DASHED1
 62
    1
 10
1378.6989496475871
 20
1057.4922480620164
 11
1378.6989496475871
 21
990.09032427336956
  0
LINE
  8
_0-0_
  6
DASHED1
 62
    1
 10
1381.6989496475871
 20
1057.4922480620164
 11
1381.6989496475871
 21
990.09032427336956
  0
LINE
  8
_0-0_
  6
CONTINUOUS
 62
    3
 10
1023.9254991561126
 20
1056.9922480620164
 11
1523.9254991561124
 21
1056.9922480620164
  0
LINE
  8
_0-0_
  6
CONTINUOUS
 62
  136
 10
1053.0381975283203
 20
1058.9922480620164
 11
1082.2097704035746
 21
1058.9922480620164
  0
LINE
  8
_0-0_
  6
DASHED1
 62
    1
 10
1066.373983965947
 20
1060.9922480620164
 11
1066.373983965947
 21
990.24224806201642
  0
LINE
  8
_0-0_
  6
CONTINUOUS
 62
    1
 10
1065.7991552068574
 20
1060.9922480620164
 11
1069.4488127250365
 21
1060.9922480620164
  0
LINE
  8
_0-0_
  6
CONTINUOUS
 62
    1
 10
1065.7991552068574
 20
1060.9922480620164
 11
1065.7991552068574
 21
1060.9922480620164
  0
LINE
  8
_0-0_
  6
CONTINUOUS
 62
    1
 10
1065.7991552068574
 20
1060.9922480620164
 11
1062.4233741738042
 21
1060.1141820198295
  0
LINE
  8
_0-0_
  6
CONTINUOUS
 62
    1
 10
1062.4233741738042
 20
1060.1141820198295
 11
1060.123983965947
 21
1058.9922480620164
  0
LINE
  8
_0-0_
  6
CONTINUOUS
 62
    1
 10
1069.1026963968213
 20
1061.1605766815926
 11
1069.1026963968213
 21
1061.1605766815926
  0
LINE
  8
_0-0_
  6
CONTINUOUS
 62
    1
 10
1069.1026963968213
 20
1061.1605766815926
 11
1068.873983965947
 21
1060.9922480620164
  0
LINE
  8
_0-0_
  6
CONTINUOUS
 62
    1
 10
1066.373983965947
 20
1060.9922480620164
 11
1066.373983965947
 21
1060.9922480620164
  0
LINE
  8
_0-0_
  6
CONTINUOUS
 62
    1
 10
1066.373983965947
 20
1060.9922480620164
 11
1066.1452715350727
 21
1061.1605766815926
  0
LINE
  8
_0-0_
  6
CONTINUOUS
 62
    1
 10
1069.1026963968213
 20
1061.1605766815926
 11
1069.1026963968213
 21
1061.1605766815926
  0
LINE
  8
_0-0_
  6
CONTINUOUS
 62
    1
 10
1069.1026963968213
 20
1061.1605766815926
 11
1068.846391768039
 21
1061.1901163564933
  0
LINE
  8
_0-0_
  6
CONTINUOUS
 62
    1
 10
1068.846391768039
 20
1061.1901163564933
 11
1068.5529448967582
 21
1061.2136439033923
  0
LINE
  8
_0-0_
  6
CONTINUOUS
 62
    1
 10
1068.5529448967582
 20
1061.2136439033923
 11
1068.2312720176715
 21
1061.2304444496829
  0
LINE
  8
_0-0_
  6
CONTINUOUS
 62
    1
 10
1068.2312720176715
 20
1061.2304444496829
 11
1067.8911469984359
 21
1061.2400075192675
  0
LINE
  8
_0-0_
  6
CONTINUOUS
 62
    1
 10
1067.8911469984359
 20
1061.2400075192675
 11
1067.5429043656491
 21
1061.2420425431158
  0
LINE
  8
_0-0_
  6
CONTINUOUS
 62
    1
 10
1067.5429043656491
 20
1061.2420425431158
 11
1067.1971252954891
 21
1061.2364876880581
  0
LINE
  8
_0-0_
  6
CONTINUOUS
 62
    1
 10
1067.1971252954891
 20
1061.2364876880581
 11
1066.8643161100299
 21
1061.2235117355542
  0
LINE
  8
_0-0_
  6
CONTINUOUS
 62
    1
 10
1066.8643161100299
 20
1061.2235117355542
 11
1066.5545890479625
 21
1061.2035089533551
  0
LINE
  8
_0-0_
  6
CONTINUOUS
 62
    1
 10
1066.5545890479625
 20
1061.2035089533551
 11
1066.277355009338
 21
1061.1770871158758
  0
LINE
  8
_0-0_
  6
CONTINUOUS
 62
    1
 10
1066.277355009338
 20
1061.1770871158758
 11
1066.1452715350727
 21
1061.1605766815926
  0
LINE
  8
_0-0_
  6
CONTINUOUS
 62
    1
 10
1065.123983965947
 20
1058.9651078438185
 11
1065.123983965947
 21
1058.9922480620164
  0
LINE
  8
_0-0_
  6
CONTINUOUS
 62
    1
 10
1075.123983965947
 20
1058.9922480620164
 11
1075.123983965947
 21
1058.9922480620164
  0
LINE
  8
_0-0_
  6
CONTINUOUS
 62
    1
 10
1075.123983965947
 20
1058.9922480620164
 11
1074.9923621853827
 21
1059.0689403844774
  0
LINE
  8
_0-0_
  6
CONTINUOUS
 62
    1
 10
1074.9923621853827
 20
1059.0689403844774
 11
1074.9923621853827
 21
1059.0689403844774
  0
LINE
  8
_0-0_
  6
CONTINUOUS
 62
    1
 10
1074.9923621853827
 20
1059.0689403844774
 11
1071.71070089261
 21
1060.5006417628981
  0
LINE
  8
_0-0_
  6
CONTINUOUS
 62
    1
 10
1071.71070089261
 20
1060.5006417628981
 11
1069.4488127250365
 21
1060.9922480620164
  0
LINE
  8
_0-0_
  6
CONTINUOUS
 62
    1
 10
1075.123983965947
 20
1058.9922480620164
 11
1060.123983965947
 21
1058.9922480620164
  0
LINE
  8
_0-0_
  6
CONTINUOUS
 62
    1
 10
1070.123983965947
 20
997.99224806201642
 11
1070.5875144198621
 21
989.1475601119439
  0
LINE
  8
_0-0_
  6
CONTINUOUS
 62
    1
 10
1067.623983965947
 20
988.99224806201642
 11
1066.9382516597502
 21
989.67798036821318
  0
LINE
  8
_0-0_
  6
CONTINUOUS
 62
    1
 10
1067.623983965947
 20
988.99224806201642
 11
1068.3097162721442
 21
989.67798036821318
  0
LINE
  8
_0-0_
  6
DASHED1
 62
    1
 10
1066.9382516597502
 20
989.67798036821318
 11
1066.373983965947
 21
990.24224806201642
  0
LINE
  8
_0-0_
  6
CONTINUOUS
 62
    1
 10
1065.123983965947
 20
997.99224806201642
 11
1064.6604535120327
 21
989.1475601119439
  0
LINE
  8
_0-0_
  6
CONTINUOUS
 62
    1
 10
1067.373983965947
 20
997.99224806201642
 11
1066.9042906443215
 21
989.02996559076769
  0
LINE
  8
_0-0_
  6
CONTINUOUS
 62
    1
 10
1067.873983965947
 20
997.99224806201642
 11
1068.3436772875725
 21
989.02996559076769
  0
LINE
  8
_0-0_
  6
DASHED1
 62
    1
 10
1068.3097162721442
 20
989.67798036821318
 11
1068.873983965947
 21
990.24224806201642
  0
LINE
  8
_0-0_
  6
CONTINUOUS
 62
    1
 10
1070.5875144198621
 20
989.1475601119439
 11
1068.3436772875725
 21
989.02996559076769
  0
LINE
  8
_0-0_
  6
CONTINUOUS
 62
    1
 10
1066.9042906443215
 20
989.02996559076769
 11
1064.6604535120327
 21
989.1475601119439
  0
LINE
  8
_0-0_
  6
CONTINUOUS
 62
    1
 10
1067.873983965947
 20
997.99224806201642
 11
1067.373983965947
 21
997.99224806201642
  0
LINE
  8
_0-0_
  6
DASHED1
 62
    1
 10
1068.873983965947
 20
1060.9922480620164
 11
1068.873983965947
 21
990.24224806201642
  0
LINE
  8
_0-0_
  6
CENTER2
 62
    1
 10
1067.623983965947
 20
1069.5473384735126
 11
1067.623983965947
 21
984.46189482866089
  0
LINE
  8
_0-0_
  6
CONTINUOUS
 62
    1
 10
1070.123983965947
 20
997.99224806201642
 11
1070.123983965947
 21
1058.9922480620164
  0
LINE
  8
_0-0_
  6
CONTINUOUS
 62
    1
 10
1065.123983965947
 20
997.99224806201642
 11
1065.123983965947
 21
1058.9922480620164
  0
LINE
  8
_0-0_
  6
CONTINUOUS
 62
    7
 10
1024.9254991561124
 20
1116.2765193094785
 11
1024.9254991561124
 21
1154.1049464342243
  0
LINE
  8
_0-0_
  6
CONTINUOUS
 62
    7
 10
1024.9254991561124
 20
1154.1049464342243
 11
1023.9254991561126
 21
1154.1049464342243
  0
LINE
  8
_0-0_
  6
CONTINUOUS
 62
    1
 10
1385.1989496475871
 20
1015.9922480620164
 11
1375.1989496475871
 21
1015.9922480620164
  0
LINE
  8
_0-0_
  6
CONTINUOUS
 62
    1
 10
1375.1989496475871
 20
1015.9922480620164
 11
1375.1989496475871
 21
1050.9922480620164
  0
LINE
  8
_0-0_
  6
CONTINUOUS
 62
    1
 10
1375.1989496475871
 20
1050.9922480620164
 11
1385.1989496475871
 21
1050.9922480620164
  0
LINE
  8
_0-0_
  6
CONTINUOUS
 62
    1
 10
1385.1989496475871
 20
1050.9922480620164
 11
1385.1989496475871
 21
1015.9922480620164
  0
LINE
  8
_0-0_
  6
CONTINUOUS
 62
    1
 10
1376.1989496475871
 20
1015.9922480620164
 11
1376.1989496475871
 21
1050.9922480620164
  0
LINE
  8
_0-0_
  6
CONTINUOUS
 62
    1
 10
1384.1989496475871
 20
1050.9922480620164
 11
1384.1989496475871
 21
1015.9922480620164
  0
LINE
  8
_0-0_
  6
CONTINUOUS
 62
    1
 10
1072.623983965947
 20
1015.9922480620164
 11
1062.623983965947
 21
1015.9922480620164
  0
LINE
  8
_0-0_
  6
CONTINUOUS
 62
    1
 10
1062.623983965947
 20
1015.9922480620164
 11
1062.623983965947
 21
1050.9922480620164
  0
LINE
  8
_0-0_
  6
CONTINUOUS
 62
    1
 10
1062.623983965947
 20
1050.9922480620164
 11
1072.623983965947
 21
1050.9922480620164
  0
LINE
  8
_0-0_
  6
CONTINUOUS
 62
    1
 10
1072.623983965947
 20
1050.9922480620164
 11
1072.623983965947
 21
1015.9922480620164
  0
LINE
  8
_0-0_
  6
CONTINUOUS
 62
    1
 10
1063.623983965947
 20
1015.9922480620164
 11
1063.623983965947
 21
1050.9922480620164
  0
LINE
  8
_0-0_
  6
CONTINUOUS
 62
    1
 10
1071.623983965947
 20
1050.9922480620164
 11
1071.623983965947
 21
1015.9922480620164
  0
LINE
  8
_0-0_
  6
CONTINUOUS
 62
    7
 10
1023.9254991561126
 20
1015.9922480620164
 11
1523.9254991561124
 21
1015.9922480620164
  0
CIRCLE
  8
_0-0_
  6
DASHED2
 62
    1
 10
1052.2097704035746
 20
1056.9922480620164
 40
80
  0
TEXT
  8
_0-0_
 62
    7
 10
1039.8152235685775
 20
1125.0712712978204
 40
24
 41
1
 50
0
  1
Ｂ
  0
LINE
  8
_0-0_
  6
CONTINUOUS
 62
    7
 10
1223.9254991561124
 20
835.99224806201642
 11
1523.9254991561124
 21
835.99224806201642
  0
LINE
  8
_0-0_
  6
CONTINUOUS
 62
    7
 10
1223.9254991561124
 20
835.99224806201642
 11
1223.9254991561124
 21
772.99224806201642
  0
LINE
  8
_0-0_
  6
CONTINUOUS
 62
    7
 10
1368.4731196272828
 20
835.99224806201642
 11
1523.9254991561133
 21
991.44462759084695
  0
LINE
  8
_0-0_
  6
CONTINUOUS
 62
    7
 10
1375.5441874391477
 20
835.99224806201642
 11
1523.9254991561124
 21
984.37355977898119
  0
LINE
  8
_0-0_
  6
CONTINUOUS
 62
    7
 10
1382.6152552510125
 20
835.99224806201642
 11
1523.9254991561133
 21
977.30249196711634
  0
LINE
  8
_0-0_
  6
CONTINUOUS
 62
    7
 10
1023.925499156113
 20
1187.3279057056291
 11
1013.925499156113
 21
1187.3279057056291
  0
LINE
  8
_0-0_
  6
CONTINUOUS
 62
    7
 10
1013.925499156113
 20
1187.3279057056291
 11
1013.925499156113
 21
1177.3279057056291
  0
LINE
  8
_0-0_
  6
CONTINUOUS
 62
    7
 10
1013.925499156113
 20
1177.3279057056291
 11
1023.925499156113
 21
1177.3279057056291
  0
LINE
  8
_0-0_
  6
CONTINUOUS
 62
    7
 10
1023.925499156113
 20
1227.3279057056291
 11
1013.925499156113
 21
1227.3279057056291
  0
LINE
  8
_0-0_
  6
CONTINUOUS
 62
    7
 10
1013.925499156113
 20
1227.3279057056291
 11
1013.925499156113
 21
1237.3279057056291
  0
LINE
  8
_0-0_
  6
CONTINUOUS
 62
    7
 10
1013.925499156113
 20
1237.3279057056291
 11
1023.925499156113
 21
1237.3279057056291
  0
LINE
  8
_0-0_
  6
CONTINUOUS
 62
    2
 10
1023.9254991561129
 20
1187.3279057056291
 11
1023.9254991561129
 21
1187.3279057056291
  0
LINE
  8
_0-0_
  6
CONTINUOUS
 62
    2
 10
1023.9254991561129
 20
1187.3279057056291
 11
1023.6229474302655
 21
1184.2442698070813
  0
LINE
  8
_0-0_
  6
CONTINUOUS
 62
    2
 10
1023.6229474302655
 20
1184.2442698070813
 11
1023.5927260221493
 21
1181.1024061550381
  0
LINE
  8
_0-0_
  6
CONTINUOUS
 62
    2
 10
1023.5927260221493
 20
1181.1024061550381
 11
1023.8357531939573
 21
1177.9977786867069
  0
LINE
  8
_0-0_
  6
CONTINUOUS
 62
    2
 10
1023.8357531939573
 20
1177.9977786867069
 11
1023.9254991561129
 21
1177.3279057056291
  0
LINE
  8
_0-0_
  6
CONTINUOUS
 62
    2
 10
1023.9254991561129
 20
1237.3279057056291
 11
1023.9254991561129
 21
1237.3279057056291
  0
LINE
  8
_0-0_
  6
CONTINUOUS
 62
    2
 10
1023.9254991561129
 20
1237.3279057056291
 11
1023.6229474302655
 21
1234.2442698070813
  0
LINE
  8
_0-0_
  6
CONTINUOUS
 62
    2
 10
1023.6229474302655
 20
1234.2442698070813
 11
1023.5927260221493
 21
1231.1024061550381
  0
LINE
  8
_0-0_
  6
CONTINUOUS
 62
    2
 10
1023.5927260221493
 20
1231.1024061550381
 11
1023.8357531939573
 21
1227.9977786867069
  0
LINE
  8
_0-0_
  6
CONTINUOUS
 62
    2
 10
1023.8357531939573
 20
1227.9977786867069
 11
1023.9254991561129
 21
1227.3279057056291
  0
LINE
  8
_0-0_
  6
CONTINUOUS
 62
    2
 10
1023.2035117548158
 20
1227.3279057056291
 11
1023.8399114355335
 21
1227.9643053863467
  0
LINE
  8
_0-0_
  6
CONTINUOUS
 62
    2
 10
1020.3750846300701
 20
1227.3279057056291
 11
1023.6149408841176
 21
1230.5677619596756
  0
LINE
  8
_0-0_
  6
CONTINUOUS
 62
    2
 10
1017.5466575053234
 20
1227.3279057056291
 11
1023.5868934154743
 21
1233.3681416157799
  0
LINE
  8
_0-0_
  6
CONTINUOUS
 62
    2
 10
1014.7182303805768
 20
1227.3279057056291
 11
1023.8067432478703
 21
1236.4164185729226
  0
LINE
  8
_0-0_
  6
CONTINUOUS
 62
    2
 10
1013.925499156113
 20
1229.3636016059102
 11
1021.8898032558319
 21
1237.3279057056291
  0
LINE
  8
_0-0_
  6
CONTINUOUS
 62
    2
 10
1013.925499156113
 20
1232.1920287306568
 11
1019.0613761310852
 21
1237.3279057056291
  0
LINE
  8
_0-0_
  6
CONTINUOUS
 62
    2
 10
1013.925499156113
 20
1235.0204558554035
 11
1016.2329490063386
 21
1237.3279057056291
  0
LINE
  8
_0-0_
  6
CONTINUOUS
 62
    2
 10
1021.286772875501
 20
1177.3279057056291
 11
1023.667520245912
 21
1179.70865307604
  0
LINE
  8
_0-0_
  6
CONTINUOUS
 62
    2
 10
1018.4583457507543
 20
1177.3279057056291
 11
1023.5720543088729
 21
1182.4416142637476
  0
LINE
  8
_0-0_
  6
CONTINUOUS
 62
    2
 10
1015.6299186260095
 20
1177.3279057056291
 11
1023.7038788331457
 21
1185.4018659127653
  0
LINE
  8
_0-0_
  6
CONTINUOUS
 62
    2
 10
1013.925499156113
 20
1178.4519133604792
 11
1022.8014915012628
 21
1187.3279057056291
  0
LINE
  8
_0-0_
  6
CONTINUOUS
 62
    2
 10
1013.925499156113
 20
1181.2803404852259
 11
1019.9730643765162
 21
1187.3279057056291
  0
LINE
  8
_0-0_
  6
CONTINUOUS
 62
    2
 10
1013.925499156113
 20
1184.1087676099726
 11
1017.1446372517695
 21
1187.3279057056291
  0
LINE
  8
_0-0_
  6
CONTINUOUS
 62
    2
 10
1013.925499156113
 20
1186.9371947347174
 11
1014.3162101270246
 21
1187.3279057056291
  0
LINE
  8
_0-0_
  6
CONTINUOUS
 62
    2
 10
1023.2035117548158
 20
1227.3279057056291
 11
1023.8399114355335
 21
1227.9643053863467
  0
LINE
  8
_0-0_
  6
CONTINUOUS
 62
    2
 10
1020.3750846300701
 20
1227.3279057056291
 11
1023.6149408841176
 21
1230.5677619596756
  0
LINE
  8
_0-0_
  6
CONTINUOUS
 62
    2
 10
1017.5466575053234
 20
1227.3279057056291
 11
1023.5868934154743
 21
1233.3681416157799
  0
LINE
  8
_0-0_
  6
CONTINUOUS
 62
    2
 10
1014.7182303805768
 20
1227.3279057056291
 11
1023.8067432478703
 21
1236.4164185729226
  0
LINE
  8
_0-0_
  6
CONTINUOUS
 62
    2
 10
1013.925499156113
 20
1229.3636016059102
 11
1021.8898032558319
 21
1237.3279057056291
  0
LINE
  8
_0-0_
  6
CONTINUOUS
 62
    2
 10
1013.925499156113
 20
1232.1920287306568
 11
1019.0613761310852
 21
1237.3279057056291
  0
LINE
  8
_0-0_
  6
CONTINUOUS
 62
    2
 10
1013.925499156113
 20
1235.0204558554035
 11
1016.2329490063386
 21
1237.3279057056291
  0
LINE
  8
_0-0_
  6
CONTINUOUS
 62
    7
 10
1036.3562552277044
 20
314.25343932904912
 11
1018.3562552277045
 21
314.25343932904912
  0
LINE
  8
_0-0_
  6
CONTINUOUS
 62
    7
 10
1018.3562552277045
 20
314.25343932904912
 11
1018.3562552277045
 21
296.25343932904912
  0
LINE
  8
_0-0_
  6
CONTINUOUS
 62
    7
 10
1018.3562552277045
 20
296.25343932904912
 11
1036.3562552277044
 21
296.25343932904912
  0
LINE
  8
_0-0_
  6
CONTINUOUS
 62
    7
 10
1036.3562552277044
 20
386.25343932904912
 11
1018.3562552277045
 21
386.25343932904912
  0
LINE
  8
_0-0_
  6
CONTINUOUS
 62
    7
 10
1018.3562552277045
 20
386.25343932904912
 11
1018.3562552277045
 21
404.25343932904912
  0
LINE
  8
_0-0_
  6
CONTINUOUS
 62
    7
 10
1018.3562552277045
 20
404.25343932904912
 11
1036.3562552277044
 21
404.25343932904912
  0
LINE
  8
_0-0_
  6
CONTINUOUS
 62
    2
 10
1036.3562552277042
 20
314.25343932904912
 11
1036.3562552277042
 21
314.25343932904912
  0
LINE
  8
_0-0_
  6
CONTINUOUS
 62
    2
 10
1036.3562552277042
 20
314.25343932904912
 11
1035.8116621211789
 21
308.7028947116633
  0
LINE
  8
_0-0_
  6
CONTINUOUS
 62
    2
 10
1035.8116621211789
 20
308.7028947116633
 11
1035.7572635865699
 21
303.04754013798538
  0
LINE
  8
_0-0_
  6
CONTINUOUS
 62
    2
 10
1035.7572635865699
 20
303.04754013798538
 11
1036.1947124958242
 21
297.45921069498911
  0
LINE
  8
_0-0_
  6
CONTINUOUS
 62
    2
 10
1036.1947124958242
 20
297.45921069498911
 11
1036.3562552277042
 21
296.25343932904912
  0
LINE
  8
_0-0_
  6
CONTINUOUS
 62
    2
 10
1036.3562552277042
 20
404.25343932904912
 11
1036.3562552277042
 21
404.25343932904912
  0
LINE
  8
_0-0_
  6
CONTINUOUS
 62
    2
 10
1036.3562552277042
 20
404.25343932904912
 11
1035.8116621211789
 21
398.7028947116633
  0
LINE
  8
_0-0_
  6
CONTINUOUS
 62
    2
 10
1035.8116621211789
 20
398.7028947116633
 11
1035.7572635865699
 21
393.04754013798538
  0
LINE
  8
_0-0_
  6
CONTINUOUS
 62
    2
 10
1035.7572635865699
 20
393.04754013798538
 11
1036.1947124958242
 21
387.45921069498911
  0
LINE
  8
_0-0_
  6
CONTINUOUS
 62
    2
 10
1036.1947124958242
 20
387.45921069498911
 11
1036.3562552277042
 21
386.25343932904912
  0
LINE
  8
_0-0_
  6
CONTINUOUS
 62
    2
 10
1035.0566779053697
 20
386.25343932904912
 11
1036.202197330661
 21
387.39895875434127
  0
LINE
  8
_0-0_
  6
CONTINUOUS
 62
    2
 10
1029.9655090808274
 20
386.25343932904912
 11
1035.7972503381125
 21
392.08518058633422
  0
LINE
  8
_0-0_
  6
CONTINUOUS
 62
    2
 10
1024.8743402562832
 20
386.25343932904912
 11
1035.7467648945549
 21
397.12586396732081
  0
LINE
  8
_0-0_
  6
CONTINUOUS
 62
    2
 10
1019.7831714317391
 20
386.2534393290473
 11
1036.1424945928675
 21
402.6127624901776
  0
LINE
  8
_0-0_
  6
CONTINUOUS
 62
    2
 10
1018.3562552277045
 20
389.917691949556
 11
1032.6920026071984
 21
404.25343932904912
  0
LINE
  8
_0-0_
  6
CONTINUOUS
 62
    2
 10
1018.3562552277045
 20
395.00886077409928
 11
1027.6008337826543
 21
404.25343932904912
  0
LINE
  8
_0-0_
  6
CONTINUOUS
 62
    2
 10
1018.3562552277045
 20
400.10002959864255
 11
1022.5096649581102
 21
404.25343932904912
  0
LINE
  8
_0-0_
  6
CONTINUOUS
 62
    2
 10
1031.6065479226027
 20
296.25343932904912
 11
1035.8918931893422
 21
300.53878459578777
  0
LINE
  8
_0-0_
  6
CONTINUOUS
 62
    2
 10
1026.5153790980585
 20
296.25343932904912
 11
1035.7200545026726
 21
305.45811473366234
  0
LINE
  8
_0-0_
  6
CONTINUOUS
 62
    2
 10
1021.424210273518
 20
296.25343932904912
 11
1035.9573386463635
 21
310.78656770189377
  0
LINE
  8
_0-0_
  6
CONTINUOUS
 62
    2
 10
1018.3562552277045
 20
298.27665310777888
 11
1034.3330414489737
 21
314.25343932904912
  0
LINE
  8
_0-0_
  6
CONTINUOUS
 62
    2
 10
1018.3562552277045
 20
303.36782193232216
 11
1029.2418726244305
 21
314.25343932904912
  0
LINE
  8
_0-0_
  6
CONTINUOUS
 62
    2
 10
1018.3562552277045
 20
308.45899075686725
 11
1024.1507037998863
 21
314.25343932904912
  0
LINE
  8
_0-0_
  6
CONTINUOUS
 62
    2
 10
1018.3562552277045
 20
313.55015958140871
 11
1019.0595349753459
 21
314.25343932904912
  0
LINE
  8
_0-0_
  6
CONTINUOUS
 62
    2
 10
1035.0566779053697
 20
386.25343932904912
 11
1036.202197330661
 21
387.39895875434127
  0
LINE
  8
_0-0_
  6
CONTINUOUS
 62
    2
 10
1029.9655090808274
 20
386.25343932904912
 11
1035.7972503381125
 21
392.08518058633422
  0
LINE
  8
_0-0_
  6
CONTINUOUS
 62
    2
 10
1024.8743402562832
 20
386.25343932904912
 11
1035.7467648945549
 21
397.12586396732081
  0
LINE
  8
_0-0_
  6
CONTINUOUS
 62
    2
 10
1019.7831714317391
 20
386.2534393290473
 11
1036.1424945928675
 21
402.6127624901776
  0
LINE
  8
_0-0_
  6
CONTINUOUS
 62
    2
 10
1018.3562552277045
 20
389.917691949556
 11
1032.6920026071984
 21
404.25343932904912
  0
LINE
  8
_0-0_
  6
CONTINUOUS
 62
    2
 10
1018.3562552277045
 20
395.00886077409928
 11
1027.6008337826543
 21
404.25343932904912
  0
LINE
  8
_0-0_
  6
CONTINUOUS
 62
    2
 10
1018.3562552277045
 20
400.10002959864255
 11
1022.5096649581102
 21
404.25343932904912
  0
LINE
  8
_0-0_
  6
CONTINUOUS
 62
    7
 10
1036.3562552277049
 20
217.90440223157498
 11
1036.3562552277049
 21
296.25343932904548
  0
LINE
  8
_0-0_
  6
CONTINUOUS
 62
    7
 10
1036.3562552277049
 20
404.25343932905275
 11
1036.3562552277049
 21
440.25343932904912
  0
LINE
  8
_0-0_
  6
CONTINUOUS
 62
    7
 10
1023.9254991561126
 20
1015.9922480620164
 11
1023.9254991561126
 21
1177.3279057056318
  0
LINE
  8
_0-0_
  6
CONTINUOUS
 62
    7
 10
1023.9254991561126
 20
1237.3279057056291
 11
1023.9254991561126
 21
1257.3279057056291
  0
LINE
  8
_0-0_
  6
CONTINUOUS
 62
    7
 10
873.92549915611346
 20
1232.3991718858981
 11
913.14886520765469
 21
1271.6225379374393
  0
LINE
  8
_0-0_
  6
CONTINUOUS
 62
    7
 10
873.92549915611255
 20
1239.4702396977621
 11
906.31639259688984
 21
1271.8611331385393
  0
LINE
  8
_0-0_
  6
CONTINUOUS
 62
    7
 10
873.92549915611255
 20
1246.5413075096269
 11
899.48391998612408
 21
1272.0997283396384
  0
LINE
  8
_0-0_
  6
CONTINUOUS
 62
    4
 10
873.92549915611255
 20
1273.8182537588566
 11
873.92549915611255
 21
1272.9922480620155
  0
LINE
  8
_0-0_
  6
CONTINUOUS
 62
    7
 10
873.92549915611255
 20
1272.9922480620155
 11
873.92549915611255
 21
772.99224806201642
  0
LINE
  8
_0-0_
  6
CONTINUOUS
 62
    7
 10
873.92549915611255
 20
1272.9922480620155
 11
1013.5056235992275
 21
1268.1180027107087
  0
ARC
  8
_0-0_
  6
CONTINUOUS
 62
    4
 10
878.92549915611255
 20
1273.8182537588566
 40
5
 50
88.000000000001251
 51
180
  0
LINE
  8
_0-0_
  6
CONTINUOUS
 62
    4
 10
879.09999663962492
 20
1278.8152078939513
 11
1016.1377012032914
 21
1274.0297458012058
  0
LINE
  8
_0-0_
  6
CONTINUOUS
 62
    7
 10
766.35625522770499
 20
468.44925557054671
 11
766.35625522770499
 21
217.90440223157498
  0
LINE
  8
_0-0_
  6
CONTINUOUS
 62
    7
 10
766.35625522770499
 20
468.44925557054671
 11
1017.6004792253126
 21
459.67561393819346
  0
LINE
  8
_0-0_
  6
CONTINUOUS
 62
    4
 10
766.35625522770499
 20
468.90053551106871
 11
766.35625522770499
 21
468.44925557054671
  0
LINE
  8
_0-0_
  6
CONTINUOUS
 62
    4
 10
776.70525019472996
 20
478.89444378125995
 11
1022.3382189126274
 21
470.31675150108754
  0
ARC
  8
_0-0_
  6
CONTINUOUS
 62
    4
 10
776.35625522770499
 20
468.90053551106871
 40
10
 50
88.000000000000028
 51
180.00000000000006
  0
LINE
  8
_0-0_
  6
CONTINUOUS
 62
    7
 10
1059.8339981631202
 20
480.60289814658375
 11
1026.9783672265089
 21
449.96452663362123
  0
POINT
  8
_0-0_
 62
    7
 10
1026.9783672265089
 20
449.96452663362118
  0
TEXT
  8
_0-0_
 62
    7
 10
1061.861438825732
 20
483.05960208110014
 40
21.617968000000001
 41
1
 50
0
  1
面取り
  0
LINE
  8
_0-0_
  6
CONTINUOUS
 62
    4
 10
1029.9254991561124
 20
1233.3279057056291
 11
1029.9254991561124
 21
1259.7520630606398
  0
LINE
  8
_0-0_
  6
CONTINUOUS
 62
    4
 10
1029.9254991561124
 20
1181.3279057056291
 11
1029.9254991561124
 21
1119.7765193094785
  0
LINE
  8
_0-0_
  6
CONTINUOUS
 62
    4
 10
1037.9254991561124
 20
1233.3279057056291
 11
1029.9254991561124
 21
1233.3279057056291
  0
ARC
  8
_0-0_
  6
CONTINUOUS
 62
    4
 10
1037.9254991561124
 20
1227.3279057056291
 40
6
 50
0
 51
90
  0
LINE
  8
_0-0_
  6
CONTINUOUS
 62
    4
 10
1037.9254991561124
 20
1181.3279057056291
 11
1029.9254991561124
 21
1181.3279057056291
  0
ARC
  8
_0-0_
  6
CONTINUOUS
 62
    4
 10
1037.9254991561124
 20
1187.3279057056291
 40
6
 50
270
 51
0
  0
LINE
  8
_0-0_
  6
CONTINUOUS
 62
    4
 10
1047.1562552277051
 20
397.05343932904913
 11
1047.1562552277051
 21
444.61692256806896
  0
LINE
  8
_0-0_
  6
CONTINUOUS
 62
    4
 10
1047.1562552277051
 20
303.45343932904916
 11
1047.1562552277051
 21
217.90440223157498
  0
LINE
  8
_0-0_
  6
CONTINUOUS
 62
    4
 10
1061.5562552277049
 20
397.05343932904913
 11
1047.1562552277051
 21
397.05343932904913
  0
ARC
  8
_0-0_
  6
CONTINUOUS
 62
    4
 10
1061.5562552277049
 20
386.25343932904912
 40
10.800000000000001
 50
0
 51
90
  0
LINE
  8
_0-0_
  6
CONTINUOUS
 62
    4
 10
1061.5562552277049
 20
303.45343932904916
 11
1047.1562552277051
 21
303.45343932904916
  0
ARC
  8
_0-0_
  6
CONTINUOUS
 62
    4
 10
1061.5562552277049
 20
314.25343932904912
 40
10.800000000000001
 50
270
 51
0
  0
LINE
  8
_0-0_
  6
CONTINUOUS
 62
    7
 10
672.13606690525205
 20
1553.3565543671141
 11
1706.8525777203677
 21
1553.3565543671141
  0
LINE
  8
_0-0_
  6
CONTINUOUS
 62
    7
 10
672.13606690525205
 20
1633.3565543671141
 11
1706.8525777203677
 21
1633.3565543671141
  0
LINE
  8
_0-0_
  6
CONTINUOUS
 62
    7
 10
672.13606690525205
 20
1473.3565543671141
 11
1706.8525777203677
 21
1473.3565543671141
  0
LINE
  8
_0-0_
  6
CONTINUOUS
 62
    7
 10
1189.4943223128098
 20
1633.3565543671141
 11
1189.4943223128098
 21
1473.3565543671141
  0
TEXT
  8
_0-0_
 62
    7
 10
696.13606690525205
 20
1497.3565543671141
 40
20
 41
1
 50
0
  1
施工部位：パラペット(丸環)
  0
TEXT
  8
_0-0_
 62
    7
 10
1213.4943223128098
 20
1497.3565543671141
 40
20
 41
1
 50
0
  1
下地：コンクリートスラブ
  0
TEXT
  8
_0-0_
 62
    7
 10
1213.4943223128098
 20
1577.3565543671141
 40
20
 41
1
 50
0
  1
構造：ＲＣ造
  0
TEXT
  8
_0-0_
 62
    7
 10
696.13606690525205
 20
1577.3565543671141
 40
20
 41
1
 50
0
  1
図面番号：dan-kikai-SP-para-03
  0
ENDSEC
  0
EOF
